  0
SECTION
  2
HEADER
  9
$ACADVER
  1
AC1015
  9
$ACADMAINTVER
 70
     6
  9
$DWGCODEPAGE
  3
ANSI_1252
  9
$INSBASE
 10
0.0
 20
0.0
 30
0.0
  9
$EXTMIN
 10
0.0
 20
0.0
 30
0.0
  9
$EXTMAX
 10
1189.0
 20
841.0
 30
0.0
  9
$LIMMIN
 10
0.0
 20
0.0
  9
$LIMMAX
 10
1189.0
 20
841.0
  9
$ORTHOMODE
 70
     0
  9
$REGENMODE
 70
     1
  9
$FILLMODE
 70
     1
  9
$QTEXTMODE
 70
     0
  9
$MIRRTEXT
 70
     1
  9
$LTSCALE
 40
1.0
  9
$ATTMODE
 70
     1
  9
$TEXTSIZE
 40
3.5
  9
$TRACEWID
 40
1.0
  9
$TEXTSTYLE
  7
Standard
  9
$CLAYER
  8
0
  9
$CELTYPE
  6
ByLayer
  9
$CECOLOR
 62
   256
  9
$CELTSCALE
 40
1.0
  9
$DISPSILH
 70
     0
  9
$DIMSCALE
 40
1.0
  9
$DIMASZ
 40
3.302
  9
$DIMEXO
 40
1.0
  9
$DIMDLI
 40
3.75
  9
$DIMRND
 40
0.0
  9
$DIMDLE
 40
0.0
  9
$DIMEXE
 40
1.0
  9
$DIMTP
 40
0.0
  9
$DIMTM
 40
0.0
  9
$DIMTXT
 40
3.5
  9
$DIMCEN
 40
2.5
  9
$DIMTSZ
 40
0.0
  9
$DIMTOL
 70
     0
  9
$DIMLIM
 70
     0
  9
$DIMTIH
 70
     1
  9
$DIMTOH
 70
     1
  9
$DIMSE1
 70
     0
  9
$DIMSE2
 70
     0
  9
$DIMTAD
 70
     1
  9
$DIMZIN
 70
     0
  9
$DIMBLK
  1

  9
$DIMASO
 70
     1
  9
$DIMSHO
 70
     1
  9
$DIMPOST
  1

  9
$DIMAPOST
  1

  9
$DIMALT
 70
     0
  9
$DIMALTD
 70
     3
  9
$DIMALTF
 40
0.0393700787
  9
$DIMLFAC
 40
5.0
  9
$DIMTOFL
 70
     1
  9
$DIMTVP
 40
0.0
  9
$DIMTIX
 70
     0
  9
$DIMSOXD
 70
     0
  9
$DIMSAH
 70
     0
  9
$DIMBLK1
  1

  9
$DIMBLK2
  1

  9
$DIMSTYLE
  2
ISO-25
  9
$DIMCLRD
 70
     0
  9
$DIMCLRE
 70
     0
  9
$DIMCLRT
 70
     0
  9
$DIMTFAC
 40
1.0
  9
$DIMGAP
 40
1.524
  9
$DIMJUST
 70
     0
  9
$DIMSD1
 70
     0
  9
$DIMSD2
 70
     0
  9
$DIMTOLJ
 70
     0
  9
$DIMTZIN
 70
     0
  9
$DIMALTZ
 70
     0
  9
$DIMALTTZ
 70
     0
  9
$DIMUPT
 70
     0
  9
$DIMDEC
 70
     2
  9
$DIMTDEC
 70
     2
  9
$DIMALTU
 70
     2
  9
$DIMALTTD
 70
     3
  9
$DIMTXSTY
  7
Standard
  9
$DIMAUNIT
 70
     0
  9
$DIMADEC
 70
     2
  9
$DIMALTRND
 40
0.0
  9
$DIMAZIN
 70
     0
  9
$DIMDSEP
 70
    44
  9
$DIMATFIT
 70
     3
  9
$DIMFRAC
 70
     0
  9
$DIMLDRBLK
  1

  9
$DIMLUNIT
 70
     2
  9
$DIMLWD
 70
    -2
  9
$DIMLWE
 70
    -2
  9
$DIMTMOVE
 70
     0
  9
$LUNITS
 70
     2
  9
$LUPREC
 70
     2
  9
$SKETCHINC
 40
1.0
  9
$FILLETRAD
 40
10.0
  9
$AUNITS
 70
     0
  9
$AUPREC
 70
     2
  9
$MENU
  1
.
  9
$ELEVATION
 40
0.0
  9
$PELEVATION
 40
0.0
  9
$THICKNESS
 40
0.0
  9
$LIMCHECK
 70
     0
  9
$CHAMFERA
 40
0.0
  9
$CHAMFERB
 40
0.0
  9
$CHAMFERC
 40
0.0
  9
$CHAMFERD
 40
0.0
  9
$SKPOLY
 70
     0
  9
$TDCREATE
 40
2458059.608325613
  9
$TDUCREATE
 40
2458059.608325613
  9
$TDUPDATE
 40
2458059.608325799
  9
$TDUUPDATE
 40
2458059.608325799
  9
$TDINDWG
 40
0.0000000116
  9
$TDUSRTIMER
 40
0.0000000116
  9
$USRTIMER
 70
     1
  9
$ANGBASE
 50
0.0
  9
$ANGDIR
 70
     0
  9
$PDMODE
 70
     0
  9
$PDSIZE
 40
-1.0
  9
$PLINEWID
 40
0.0
  9
$SPLFRAME
 70
     0
  9
$SPLINETYPE
 70
     6
  9
$SPLINESEGS
 70
     8
  9
$HANDSEED
  5
19D
  9
$SURFTAB1
 70
     6
  9
$SURFTAB2
 70
     6
  9
$SURFTYPE
 70
     6
  9
$SURFU
 70
     6
  9
$SURFV
 70
     6
  9
$UCSBASE
  2

  9
$UCSNAME
  2

  9
$UCSORG
 10
0.0
 20
0.0
 30
0.0
  9
$UCSXDIR
 10
1.0
 20
0.0
 30
0.0
  9
$UCSYDIR
 10
0.0
 20
1.0
 30
0.0
  9
$UCSORTHOREF
  2

  9
$UCSORTHOVIEW
 70
     0
  9
$UCSORGTOP
 10
0.0
 20
0.0
 30
0.0
  9
$UCSORGBOTTOM
 10
0.0
 20
0.0
 30
0.0
  9
$UCSORGLEFT
 10
0.0
 20
0.0
 30
0.0
  9
$UCSORGRIGHT
 10
0.0
 20
0.0
 30
0.0
  9
$UCSORGFRONT
 10
0.0
 20
0.0
 30
0.0
  9
$UCSORGBACK
 10
0.0
 20
0.0
 30
0.0
  9
$PUCSBASE
  2

  9
$PUCSNAME
  2

  9
$PUCSORG
 10
0.0
 20
0.0
 30
0.0
  9
$PUCSXDIR
 10
1.0
 20
0.0
 30
0.0
  9
$PUCSYDIR
 10
0.0
 20
1.0
 30
0.0
  9
$PUCSORTHOREF
  2

  9
$PUCSORTHOVIEW
 70
     0
  9
$PUCSORGTOP
 10
0.0
 20
0.0
 30
0.0
  9
$PUCSORGBOTTOM
 10
0.0
 20
0.0
 30
0.0
  9
$PUCSORGLEFT
 10
0.0
 20
0.0
 30
0.0
  9
$PUCSORGRIGHT
 10
0.0
 20
0.0
 30
0.0
  9
$PUCSORGFRONT
 10
0.0
 20
0.0
 30
0.0
  9
$PUCSORGBACK
 10
0.0
 20
0.0
 30
0.0
  9
$USERI1
 70
     0
  9
$USERI2
 70
     0
  9
$USERI3
 70
     0
  9
$USERI4
 70
     0
  9
$USERI5
 70
     0
  9
$USERR1
 40
0.0
  9
$USERR2
 40
0.0
  9
$USERR3
 40
0.0
  9
$USERR4
 40
0.0
  9
$USERR5
 40
0.0
  9
$WORLDVIEW
 70
     1
  9
$SHADEDGE
 70
     3
  9
$SHADEDIF
 70
    70
  9
$TILEMODE
 70
     1
  9
$MAXACTVP
 70
    64
  9
$PINSBASE
 10
0.0
 20
0.0
 30
0.0
  9
$PLIMCHECK
 70
     0
  9
$PEXTMIN
 10
1.0000000000E+20
 20
1.0000000000E+20
 30
1.0000000000E+20
  9
$PEXTMAX
 10
-1.0000000000E+20
 20
-1.0000000000E+20
 30
-1.0000000000E+20
  9
$PLIMMIN
 10
0.0
 20
0.0
  9
$PLIMMAX
 10
420.0
 20
297.0
  9
$UNITMODE
 70
     0
  9
$VISRETAIN
 70
     1
  9
$PLINEGEN
 70
     0
  9
$PSLTSCALE
 70
     1
  9
$TREEDEPTH
 70
  3020
  9
$CMLSTYLE
  2
Standard
  9
$CMLJUST
 70
     0
  9
$CMLSCALE
 40
20.0
  9
$PROXYGRAPHICS
 70
     1
  9
$MEASUREMENT
 70
     1
  9
$CELWEIGHT
370
    -1
  9
$ENDCAPS
280
     0
  9
$JOINSTYLE
280
     0
  9
$LWDISPLAY
290
     1
  9
$INSUNITS
 70
     4
  9
$HYPERLINKBASE
  1

  9
$STYLESHEET
  1

  9
$XEDIT
290
     1
  9
$CEPSNTYPE
380
     0
  9
$PSTYLEMODE
290
     1
  9
$FINGERPRINTGUID
  2
{E71222DC-4F25-401F-933D-CB40843AE536}
  9
$VERSIONGUID
  2
{FAEB1C32-E019-11D5-929B-00C0DF256EC4}
  9
$EXTNAMES
290
     1
  9
$PSVPSCALE
 40
0.0
  9
$OLESTARTUP
290
     0
  0
ENDSEC
  0
SECTION
  2
CLASSES
  0
CLASS
  1
ACDBDICTIONARYWDFLT
  2
AcDbDictionaryWithDefault
  3
ObjectDBX Classes
 90
        0
280
     0
281
     0
  0
CLASS
  1
VISUALSTYLE
  2
AcDbVisualStyle
  3
ObjectDBX Classes
 90
     4095
280
     0
281
     0
  0
CLASS
  1
MATERIAL
  2
AcDbMaterial
  3
ObjectDBX Classes
 90
     1153
280
     0
281
     0
  0
CLASS
  1
SCALE
  2
AcDbScale
  3
ObjectDBX Classes
 90
     1153
280
     0
281
     0
  0
CLASS
  1
TABLESTYLE
  2
AcDbTableStyle
  3
ObjectDBX Classes
 90
     4095
280
     0
281
     0
  0
CLASS
  1
MLEADERSTYLE
  2
AcDbMLeaderStyle
  3
ACDB_MLEADERSTYLE_CLASS
 90
     4095
280
     0
281
     0
  0
CLASS
  1
SUN
  2
AcDbSun
  3
SCENEOE
 90
     1153
280
     0
281
     0
  0
CLASS
  1
ACDBPLACEHOLDER
  2
AcDbPlaceHolder
  3
ObjectDBX Classes
 90
        0
280
     0
281
     0
  0
CLASS
  1
LAYOUT
  2
AcDbLayout
  3
ObjectDBX Classes
 90
        0
280
     0
281
     0
  0
ENDSEC
  0
SECTION
  2
TABLES
  0
TABLE
  2
VPORT
  5
8
330
0
100
AcDbSymbolTable
 70
     1
  0
VPORT
  5
29
330
8
100
AcDbSymbolTableRecord
100
AcDbViewportTableRecord
  2
*Active
 70
     0
 10
0.0
 20
0.0
 11
1.0
 21
1.0
 12
594.5
 22
420.5
 13
0.0
 23
0.0
 14
10.0
 24
10.0
 15
10.0
 25
10.0
 16
0.0
 26
0.0
 36
1.0
 17
0.0
 27
0.0
 37
0.0
 40
841.0
 41
1.4137931034
 42
50.0
 43
0.0
 44
0.0
 50
0.0
 51
0.0
 71
     0
 72
  2000
 73
     1
 74
     3
 75
     0
 76
     0
 77
     0
 78
     0
281
     0
 65
     1
110
0.0
120
0.0
130
0.0
111
1.0
121
0.0
131
0.0
112
0.0
122
1.0
132
0.0
 79
     0
146
0.0
  0
ENDTAB
  0
TABLE
  2
LTYPE
  5
5
330
0
100
AcDbSymbolTable
 70
     6
  0
LTYPE
  5
14
330
5
100
AcDbSymbolTableRecord
100
AcDbLinetypeTableRecord
  2
ByBlock
 70
     0
  3

 72
    65
 73
     0
 40
0.0
  0
LTYPE
  5
15
330
5
100
AcDbSymbolTableRecord
100
AcDbLinetypeTableRecord
  2
ByLayer
 70
     0
  3

 72
    65
 73
     0
 40
0.0
  0
LTYPE
  5
16
330
5
100
AcDbSymbolTableRecord
100
AcDbLinetypeTableRecord
  2
Continuous
 70
     0
  3
Solid line
 72
    65
 73
     0
 40
0.0
  0
LTYPE
  5
6E
330
5
100
AcDbSymbolTableRecord
100
AcDbLinetypeTableRecord
  2
HIDDEN
 70
     0
  3
Hidden __ __ __ __ __ __ __ __ __ __ __ __ __ __
 72
    65
 73
     2
 40
1.905
 49
1.27
 74
     0
 49
-0.635
 74
     0
  0
LTYPE
  5
6F
330
5
100
AcDbSymbolTableRecord
100
AcDbLinetypeTableRecord
  2
PHANTOM
 70
     0
  3
Phantom ______  __  __  ______  __  __  ______
 72
    65
 73
     6
 40
12.7
 49
6.35
 74
     0
 49
-1.27
 74
     0
 49
1.27
 74
     0
 49
-1.27
 74
     0
 49
1.27
 74
     0
 49
-1.27
 74
     0
  0
LTYPE
  5
70
330
5
100
AcDbSymbolTableRecord
100
AcDbLinetypeTableRecord
  2
CENTER
 70
     0
  3
Center ____ _ ____ _ ____ _ ____ _ ____ _ ____
 72
    65
 73
     4
 40
10.16
 49
6.35
 74
     0
 49
-1.27
 74
     0
 49
1.27
 74
     0
 49
-1.27
 74
     0
  0
LTYPE
  5
71
330
5
100
AcDbSymbolTableRecord
100
AcDbLinetypeTableRecord
  2
CENTERX2
 70
     0
  3
Center (2x) ________  __  ________  __  _____
 72
    65
 73
     4
 40
20.32
 49
12.7
 74
     0
 49
-2.54
 74
     0
 49
2.54
 74
     0
 49
-2.54
 74
     0
  0
LTYPE
  5
72
330
5
100
AcDbSymbolTableRecord
100
AcDbLinetypeTableRecord
  2
DOT2
 70
     0
  3
Dot (.5x) ........................................
 72
    65
 73
     2
 40
0.635
 49
0.0
 74
     0
 49
-0.635
 74
     0
  0
ENDTAB
  0
TABLE
  2
LAYER
  5
2
330
0
100
AcDbSymbolTable
 70
     2
  0
LAYER
  5
10
330
2
100
AcDbSymbolTableRecord
100
AcDbLayerTableRecord
  2
0
 70
     0
 62
     7
  6
Continuous
370
    -3
390
F
  0
LAYER
  5
73
330
2
100
AcDbSymbolTableRecord
100
AcDbLayerTableRecord
  2
FORMAT
 70
     0
 62
     7
  6
Continuous
370
    -3
390
F
  0
ENDTAB
  0
TABLE
  2
STYLE
  5
3
330
0
100
AcDbSymbolTable
 70
     1
  0
STYLE
  5
11
330
3
100
AcDbSymbolTableRecord
100
AcDbTextStyleTableRecord
  2
Standard
 70
     0
 40
0.0
 41
1.0
 50
0.0
 71
     0
 42
3.5
  3
txt
  4

  0
ENDTAB
  0
TABLE
  2
VIEW
  5
6
330
0
100
AcDbSymbolTable
 70
     0
  0
ENDTAB
  0
TABLE
  2
UCS
  5
7
330
0
100
AcDbSymbolTable
 70
     0
  0
ENDTAB
  0
TABLE
  2
APPID
  5
9
330
0
100
AcDbSymbolTable
 70
     1
  0
APPID
  5
12
330
9
100
AcDbSymbolTableRecord
100
AcDbRegAppTableRecord
  2
ACAD
 70
     0
  0
ENDTAB
  0
TABLE
  2
DIMSTYLE
  5
A
330
0
100
AcDbSymbolTable
 70
     1
100
AcDbDimStyleTable
  0
DIMSTYLE
105
27
330
A
100
AcDbSymbolTableRecord
100
AcDbDimStyleTableRecord
  2
ISO-25
 70
     0
 41
2.5
 42
0.625
 43
3.75
 44
1.25
 73
     0
 74
     0
 77
     1
 78
     8
140
2.5
141
2.5
143
0.0393700787
147
0.625
171
     3
172
     1
178
     0
271
     2
272
     2
274
     3
278
    44
283
     0
284
     8
340
11
  0
ENDTAB
  0
TABLE
  2
BLOCK_RECORD
  5
1
330
0
100
AcDbSymbolTable
 70
     5
  0
BLOCK_RECORD
  5
1F
330
1
100
AcDbSymbolTableRecord
100
AcDbBlockTableRecord
  2
*Model_Space
340
22
  0
BLOCK_RECORD
  5
1B
330
1
100
AcDbSymbolTableRecord
100
AcDbBlockTableRecord
  2
*Paper_Space
340
1E
  0
BLOCK_RECORD
  5
23
330
1
100
AcDbSymbolTableRecord
100
AcDbBlockTableRecord
  2
*Paper_Space0
340
26
  0
BLOCK_RECORD
  5
B1
330
1
100
AcDbSymbolTableRecord
100
AcDbBlockTableRecord
  2
SW_CENTERMARKSYMBOL_0
340
0
102
{BLKREFS
331
BC
102
}
  0
BLOCK_RECORD
  5
BD
330
1
100
AcDbSymbolTableRecord
100
AcDbBlockTableRecord
  2
SW_CENTERMARKSYMBOL_1
340
0
102
{BLKREFS
331
C8
102
}
  0
BLOCK_RECORD
  5
C9
330
1
100
AcDbSymbolTableRecord
100
AcDbBlockTableRecord
  2
SW_CENTERMARKSYMBOL_2
340
0
102
{BLKREFS
331
D4
102
}
  0
BLOCK_RECORD
  5
D5
330
1
100
AcDbSymbolTableRecord
100
AcDbBlockTableRecord
  2
SW_CENTERMARKSYMBOL_3
340
0
102
{BLKREFS
331
E0
102
}
  0
ENDTAB
  0
ENDSEC
  0
SECTION
  2
BLOCKS
  0
BLOCK
  5
20
330
1F
100
AcDbEntity
  8
0
100
AcDbBlockBegin
  2
*Model_Space
 70
     0
 10
0.0
 20
0.0
 30
0.0
  3
*Model_Space
  1

  0
ENDBLK
  5
21
330
1F
100
AcDbEntity
  8
0
100
AcDbBlockEnd
  0
BLOCK
  5
1C
330
1B
100
AcDbEntity
 67
     1
  8
0
100
AcDbBlockBegin
  2
*Paper_Space
 70
     0
 10
0.0
 20
0.0
 30
0.0
  3
*Paper_Space
  1

  0
ENDBLK
  5
1D
330
1B
100
AcDbEntity
 67
     1
  8
0
100
AcDbBlockEnd
  0
BLOCK
  5
24
330
23
100
AcDbEntity
  8
0
100
AcDbBlockBegin
  2
*Paper_Space0
 70
     0
 10
0.0
 20
0.0
 30
0.0
  3
*Paper_Space0
  1

  0
ENDBLK
  5
25
330
23
100
AcDbEntity
  8
0
100
AcDbBlockEnd
  0
BLOCK
  5
B2
330
B1
100
AcDbEntity
  8
0
100
AcDbBlockBegin
  2
SW_CENTERMARKSYMBOL_0
 70
     0
 10
0.0
 20
0.0
 30
0.0
  3
SW_CENTERMARKSYMBOL_0
  1

  0
LINE
  5
B4
330
B1
100
AcDbEntity
  8
0
  6
Continuous
 62
     0
370
     0
100
AcDbLine
 10
0.0
 20
0.0
 30
0.0
 11
0.0
 21
0.5
 31
0.0
  0
LINE
  5
B5
330
B1
100
AcDbEntity
  8
0
  6
Continuous
 62
     0
370
     0
100
AcDbLine
 10
0.0
 20
0.0
 30
0.0
 11
-0.5
 21
0.0
 31
0.0
  0
LINE
  5
B6
330
B1
100
AcDbEntity
  8
0
  6
Continuous
 62
     0
370
     0
100
AcDbLine
 10
0.0
 20
0.0
 30
0.0
 11
0.0
 21
-0.5
 31
0.0
  0
LINE
  5
B7
330
B1
100
AcDbEntity
  8
0
  6
Continuous
 62
     0
370
     0
100
AcDbLine
 10
0.0
 20
0.0
 30
0.0
 11
0.5
 21
0.0
 31
0.0
  0
LINE
  5
B8
330
B1
100
AcDbEntity
  8
0
  6
Continuous
 62
     0
370
     0
100
AcDbLine
 10
0.0
 20
1.0
 30
0.0
 11
0.0
 21
2.1
 31
0.0
  0
LINE
  5
B9
330
B1
100
AcDbEntity
  8
0
  6
Continuous
 62
     0
370
     0
100
AcDbLine
 10
-1.0
 20
0.0
 30
0.0
 11
-2.1
 21
0.0
 31
0.0
  0
LINE
  5
BA
330
B1
100
AcDbEntity
  8
0
  6
Continuous
 62
     0
370
     0
100
AcDbLine
 10
0.0
 20
-1.0
 30
0.0
 11
0.0
 21
-2.1
 31
0.0
  0
LINE
  5
BB
330
B1
100
AcDbEntity
  8
0
  6
Continuous
 62
     0
370
     0
100
AcDbLine
 10
1.0
 20
0.0
 30
0.0
 11
2.1
 21
0.0
 31
0.0
  0
ENDBLK
  5
B3
330
B1
100
AcDbEntity
  8
0
100
AcDbBlockEnd
  0
BLOCK
  5
BE
330
BD
100
AcDbEntity
  8
0
100
AcDbBlockBegin
  2
SW_CENTERMARKSYMBOL_1
 70
     0
 10
0.0
 20
0.0
 30
0.0
  3
SW_CENTERMARKSYMBOL_1
  1

  0
LINE
  5
C0
330
BD
100
AcDbEntity
  8
0
  6
Continuous
 62
     0
370
     0
100
AcDbLine
 10
0.0
 20
0.0
 30
0.0
 11
0.0
 21
0.5
 31
0.0
  0
LINE
  5
C1
330
BD
100
AcDbEntity
  8
0
  6
Continuous
 62
     0
370
     0
100
AcDbLine
 10
0.0
 20
0.0
 30
0.0
 11
-0.5
 21
0.0
 31
0.0
  0
LINE
  5
C2
330
BD
100
AcDbEntity
  8
0
  6
Continuous
 62
     0
370
     0
100
AcDbLine
 10
0.0
 20
0.0
 30
0.0
 11
0.0
 21
-0.5
 31
0.0
  0
LINE
  5
C3
330
BD
100
AcDbEntity
  8
0
  6
Continuous
 62
     0
370
     0
100
AcDbLine
 10
0.0
 20
0.0
 30
0.0
 11
0.5
 21
0.0
 31
0.0
  0
LINE
  5
C4
330
BD
100
AcDbEntity
  8
0
  6
Continuous
 62
     0
370
     0
100
AcDbLine
 10
0.0
 20
1.0
 30
0.0
 11
0.0
 21
2.1
 31
0.0
  0
LINE
  5
C5
330
BD
100
AcDbEntity
  8
0
  6
Continuous
 62
     0
370
     0
100
AcDbLine
 10
-1.0
 20
0.0
 30
0.0
 11
-2.1
 21
0.0
 31
0.0
  0
LINE
  5
C6
330
BD
100
AcDbEntity
  8
0
  6
Continuous
 62
     0
370
     0
100
AcDbLine
 10
0.0
 20
-1.0
 30
0.0
 11
0.0
 21
-2.1
 31
0.0
  0
LINE
  5
C7
330
BD
100
AcDbEntity
  8
0
  6
Continuous
 62
     0
370
     0
100
AcDbLine
 10
1.0
 20
0.0
 30
0.0
 11
2.1
 21
0.0
 31
0.0
  0
ENDBLK
  5
BF
330
BD
100
AcDbEntity
  8
0
100
AcDbBlockEnd
  0
BLOCK
  5
CA
330
C9
100
AcDbEntity
  8
0
100
AcDbBlockBegin
  2
SW_CENTERMARKSYMBOL_2
 70
     0
 10
0.0
 20
0.0
 30
0.0
  3
SW_CENTERMARKSYMBOL_2
  1

  0
LINE
  5
CC
330
C9
100
AcDbEntity
  8
0
  6
Continuous
 62
     0
370
     0
100
AcDbLine
 10
0.0
 20
0.0
 30
0.0
 11
0.0
 21
0.5
 31
0.0
  0
LINE
  5
CD
330
C9
100
AcDbEntity
  8
0
  6
Continuous
 62
     0
370
     0
100
AcDbLine
 10
0.0
 20
0.0
 30
0.0
 11
-0.5
 21
0.0
 31
0.0
  0
LINE
  5
CE
330
C9
100
AcDbEntity
  8
0
  6
Continuous
 62
     0
370
     0
100
AcDbLine
 10
0.0
 20
0.0
 30
0.0
 11
0.0
 21
-0.5
 31
0.0
  0
LINE
  5
CF
330
C9
100
AcDbEntity
  8
0
  6
Continuous
 62
     0
370
     0
100
AcDbLine
 10
0.0
 20
0.0
 30
0.0
 11
0.5
 21
0.0
 31
0.0
  0
LINE
  5
D0
330
C9
100
AcDbEntity
  8
0
  6
Continuous
 62
     0
370
     0
100
AcDbLine
 10
0.0
 20
1.0
 30
0.0
 11
0.0
 21
2.1
 31
0.0
  0
LINE
  5
D1
330
C9
100
AcDbEntity
  8
0
  6
Continuous
 62
     0
370
     0
100
AcDbLine
 10
-1.0
 20
0.0
 30
0.0
 11
-2.1
 21
0.0
 31
0.0
  0
LINE
  5
D2
330
C9
100
AcDbEntity
  8
0
  6
Continuous
 62
     0
370
     0
100
AcDbLine
 10
0.0
 20
-1.0
 30
0.0
 11
0.0
 21
-2.1
 31
0.0
  0
LINE
  5
D3
330
C9
100
AcDbEntity
  8
0
  6
Continuous
 62
     0
370
     0
100
AcDbLine
 10
1.0
 20
0.0
 30
0.0
 11
2.1
 21
0.0
 31
0.0
  0
ENDBLK
  5
CB
330
C9
100
AcDbEntity
  8
0
100
AcDbBlockEnd
  0
BLOCK
  5
D6
330
D5
100
AcDbEntity
  8
0
100
AcDbBlockBegin
  2
SW_CENTERMARKSYMBOL_3
 70
     0
 10
0.0
 20
0.0
 30
0.0
  3
SW_CENTERMARKSYMBOL_3
  1

  0
LINE
  5
D8
330
D5
100
AcDbEntity
  8
0
  6
Continuous
 62
     0
370
     0
100
AcDbLine
 10
0.0
 20
0.0
 30
0.0
 11
0.0
 21
0.5
 31
0.0
  0
LINE
  5
D9
330
D5
100
AcDbEntity
  8
0
  6
Continuous
 62
     0
370
     0
100
AcDbLine
 10
0.0
 20
0.0
 30
0.0
 11
-0.5
 21
0.0
 31
0.0
  0
LINE
  5
DA
330
D5
100
AcDbEntity
  8
0
  6
Continuous
 62
     0
370
     0
100
AcDbLine
 10
0.0
 20
0.0
 30
0.0
 11
0.0
 21
-0.5
 31
0.0
  0
LINE
  5
DB
330
D5
100
AcDbEntity
  8
0
  6
Continuous
 62
     0
370
     0
100
AcDbLine
 10
0.0
 20
0.0
 30
0.0
 11
0.5
 21
0.0
 31
0.0
  0
LINE
  5
DC
330
D5
100
AcDbEntity
  8
0
  6
Continuous
 62
     0
370
     0
100
AcDbLine
 10
0.0
 20
1.0
 30
0.0
 11
0.0
 21
2.1
 31
0.0
  0
LINE
  5
DD
330
D5
100
AcDbEntity
  8
0
  6
Continuous
 62
     0
370
     0
100
AcDbLine
 10
-1.0
 20
0.0
 30
0.0
 11
-2.1
 21
0.0
 31
0.0
  0
LINE
  5
DE
330
D5
100
AcDbEntity
  8
0
  6
Continuous
 62
     0
370
     0
100
AcDbLine
 10
0.0
 20
-1.0
 30
0.0
 11
0.0
 21
-2.1
 31
0.0
  0
LINE
  5
DF
330
D5
100
AcDbEntity
  8
0
  6
Continuous
 62
     0
370
     0
100
AcDbLine
 10
1.0
 20
0.0
 30
0.0
 11
2.1
 21
0.0
 31
0.0
  0
ENDBLK
  5
D7
330
D5
100
AcDbEntity
  8
0
100
AcDbBlockEnd
  0
ENDSEC
  0
SECTION
  2
ENTITIES
  0
LWPOLYLINE
  5
74
330
1F
100
AcDbEntity
  8
0
  6
Continuous
 62
     7
370
    15
100
AcDbPolyline
 90
       16
 70
   128
 43
0.0
 10
504.6792842115
 20
177.1180806574
 10
504.8794517444
 20
176.6323965378
 10
505.0784786078
 20
176.1494862643
 10
505.2545707331
 20
175.7222273501
 10
505.4129623214
 20
175.337918578
 10
505.5915547027
 20
174.9045987059
 10
505.7303888593
 20
174.5677458361
 10
505.8387924088
 20
174.3047241462
 10
506.0306501982
 20
173.8393789966
 10
506.1351376325
 20
173.5863860688
 10
506.2365525537
 20
173.3415699374
 10
506.3264576077
 20
173.1258431228
 10
506.395244642
 20
172.9630401001
 10
506.4257474154
 20
172.8929847941
 10
506.4420616663
 20
172.8585490901
 10
506.4423951483
 20
172.8604007243
  0
LWPOLYLINE
  5
75
330
1F
100
AcDbEntity
  8
0
  6
Continuous
 62
     7
370
    15
100
AcDbPolyline
 90
       15
 70
   128
 43
0.0
 10
509.5148804531
 20
173.7590953437
 10
509.4850775078
 20
173.8406413039
 10
509.4219600963
 20
174.000139184
 10
509.3327748129
 20
174.2206289737
 10
509.2260911115
 20
174.4818978035
 10
509.0737775121
 20
174.8529581348
 10
508.9267264611
 20
175.2101745541
 10
508.7985175998
 20
175.5212892323
 10
508.6899719075
 20
175.7846533268
 10
508.552038526
 20
176.1193241087
 10
508.3741816462
 20
176.5508604439
 10
508.2155506866
 20
176.9357464882
 10
508.0381059791
 20
177.3662773433
 10
507.840698851
 20
177.8452385986
 10
507.6373715467
 20
178.3385577566
  0
LWPOLYLINE
  5
76
330
1F
100
AcDbEntity
  8
0
  6
Continuous
 62
     7
370
    15
100
AcDbPolyline
 90
       15
 70
   128
 43
0.0
 10
378.3203893595
 20
178.3385577566
 10
378.1170620553
 20
177.8452385986
 10
377.9196549272
 20
177.3662773433
 10
377.7422102196
 20
176.9357464882
 10
377.5835792601
 20
176.5508604439
 10
377.4057223802
 20
176.1193241087
 10
377.2677889988
 20
175.7846533268
 10
377.1592433065
 20
175.5212892323
 10
377.0310344452
 20
175.2101745541
 10
376.8839833942
 20
174.8529581348
 10
376.7316697948
 20
174.4818978035
 10
376.6249860934
 20
174.2206289737
 10
376.53580081
 20
174.000139184
 10
376.4726833985
 20
173.8406413039
 10
376.4428804531
 20
173.7590953437
  0
LWPOLYLINE
  5
77
330
1F
100
AcDbEntity
  8
0
  6
Continuous
 62
     7
370
    15
100
AcDbPolyline
 90
       16
 70
   128
 43
0.0
 10
379.515365758
 20
172.8604007243
 10
379.51569924
 20
172.8585490901
 10
379.5320134909
 20
172.8929847941
 10
379.5625162643
 20
172.9630401001
 10
379.6313032986
 20
173.1258431228
 10
379.7212083526
 20
173.3415699374
 10
379.8226232737
 20
173.5863860688
 10
379.927110708
 20
173.8393789966
 10
380.1189684975
 20
174.3047241462
 10
380.227372047
 20
174.5677458361
 10
380.3662062035
 20
174.9045987059
 10
380.5447985849
 20
175.337918578
 10
380.7031901732
 20
175.7222273501
 10
380.8792822985
 20
176.1494862643
 10
381.0783091619
 20
176.6323965378
 10
381.2784766948
 20
177.1180806574
  0
LINE
  5
78
330
1F
100
AcDbEntity
  8
0
  6
Continuous
 62
     7
370
    15
100
AcDbLine
 10
408.8191435224
 20
252.338004408
 30
0.0
 11
378.3201480797
 21
178.338004408
 31
0.0
  0
LINE
  5
79
330
1F
100
AcDbEntity
  8
0
  6
Continuous
 62
     7
370
    15
100
AcDbLine
 10
381.2787179746
 20
177.1186340061
 30
0.0
 11
411.7777134173
 21
251.1186340061
 31
0.0
  0
LINE
  5
7A
330
1F
100
AcDbEntity
  8
0
  6
Continuous
 62
     7
370
    15
100
AcDbLine
 10
474.180047489
 20
251.1186340061
 30
0.0
 11
504.6790429317
 21
177.1186340061
 31
0.0
  0
LINE
  5
7B
330
1F
100
AcDbEntity
  8
0
  6
Continuous
 62
     7
370
    15
100
AcDbLine
 10
507.6376128266
 20
178.338004408
 30
0.0
 11
477.1386173839
 21
252.338004408
 31
0.0
  0
LWPOLYLINE
  5
7C
330
1F
100
AcDbEntity
  8
0
  6
Continuous
 62
     7
370
    15
100
AcDbPolyline
 90
       14
 70
   128
 43
0.0
 10
411.7774721374
 20
251.1180806574
 10
412.0114567808
 20
251.6857796902
 10
412.2275874141
 20
252.2101701391
 10
412.4031005143
 20
252.6360166319
 10
412.5457298029
 20
252.9820803363
 10
412.6560690164
 20
253.2497994019
 10
412.7413823731
 20
253.456794578
 10
412.8891766437
 20
253.8155494384
 10
413.044081354
 20
254.1931726717
 10
413.1099341049
 20
254.3553647131
 10
413.1584851644
 20
254.477261698
 10
413.1782180598
 20
254.5290935025
 10
413.1860609167
 20
254.5532687066
 10
413.1846453646
 20
254.551548442
  0
LWPOLYLINE
  5
7D
330
1F
100
AcDbEntity
  8
0
  6
Continuous
 62
     7
370
    15
100
AcDbPolyline
 90
        9
 70
   128
 43
0.0
 10
410.0769125049
 20
255.3882072868
 10
409.9404398411
 20
255.0584470688
 10
409.7833642116
 20
254.6775009006
 10
409.6979956037
 20
254.4703686113
 10
409.5887108866
 20
254.2052120302
 10
409.4464536333
 20
253.86005282
 10
409.2701384223
 20
253.4322549702
 10
409.0563339149
 20
252.9134897444
 10
408.8193848022
 20
252.3385577566
  0
LWPOLYLINE
  5
7E
330
1F
100
AcDbEntity
  8
0
  6
Continuous
 62
     7
370
    15
100
AcDbPolyline
 90
        9
 70
   128
 43
0.0
 10
477.1383761041
 20
252.3385577566
 10
476.9014269914
 20
252.9134897444
 10
476.687622484
 20
253.4322549702
 10
476.511307273
 20
253.86005282
 10
476.3690500197
 20
254.2052120302
 10
476.2597653026
 20
254.4703686113
 10
476.1743966947
 20
254.6775009006
 10
476.0173210651
 20
255.0584470688
 10
475.8888986943
 20
255.368755286
  0
LWPOLYLINE
  5
7F
330
1F
100
AcDbEntity
  8
0
  6
Continuous
 62
     7
370
    15
100
AcDbPolyline
 90
       13
 70
   128
 43
0.0
 10
472.7731155417
 20
254.551548442
 10
472.7716999896
 20
254.5532687066
 10
472.7795428464
 20
254.5290935025
 10
472.7992757418
 20
254.477261698
 10
472.9136795523
 20
254.1931726717
 10
473.0685842626
 20
253.8155494384
 10
473.2163785332
 20
253.456794578
 10
473.3016918899
 20
253.2497994019
 10
473.4120311033
 20
252.9820803363
 10
473.554660392
 20
252.6360166319
 10
473.7301734922
 20
252.2101701391
 10
473.9463041254
 20
251.6857796902
 10
474.1802887689
 20
251.1180806574
  0
LINE
  5
80
330
1F
100
AcDbEntity
  8
0
  6
Continuous
 62
     7
370
    15
100
AcDbLine
 10
505.5888771284
 20
174.9110953437
 30
0.0
 11
380.3688837778
 21
174.9110953437
 31
0.0
  0
LINE
  5
81
330
1F
100
AcDbEntity
  8
0
  6
Continuous
 62
     7
370
    15
100
AcDbLine
 10
377.9788804531
 20
171.7110953437
 30
0.0
 11
507.9788804531
 21
171.7110953437
 31
0.0
  0
LINE
  5
82
330
1F
100
AcDbEntity
  8
0
  6
Continuous
 62
     7
370
    15
100
AcDbLine
 10
531.9157239496
 20
302.3110953437
 30
0.0
 11
531.9157239496
 21
299.3110953437
 31
0.0
  0
LINE
  5
83
330
1F
100
AcDbEntity
  8
0
  6
Continuous
 62
     7
370
    15
100
AcDbLine
 10
531.9157239496
 20
299.3110953437
 30
0.0
 11
523.9157239496
 21
299.3110953437
 31
0.0
  0
LINE
  5
84
330
1F
100
AcDbEntity
  8
0
  6
Continuous
 62
     7
370
    15
100
AcDbLine
 10
345.1852989591
 20
347.3110953437
 30
0.0
 11
345.1852989591
 21
350.3110953437
 31
0.0
  0
LINE
  5
85
330
1F
100
AcDbEntity
  8
0
  6
Continuous
 62
     7
370
    15
100
AcDbLine
 10
353.1852989591
 20
347.3110953437
 30
0.0
 11
345.1852989591
 21
347.3110953437
 31
0.0
  0
LINE
  5
86
330
1F
100
AcDbEntity
  8
0
  6
Continuous
 62
     7
370
    15
100
AcDbLine
 10
353.1852989591
 20
354.3110953437
 30
0.0
 11
369.7160883852
 21
354.3110953437
 31
0.0
  0
ARC
  5
87
330
1F
100
AcDbEntity
  8
0
  6
Continuous
 62
     7
370
    15
100
AcDbCircle
 10
369.7160883852
 20
343.3110953437
 30
0.0
 40
11.00000000000002
100
AcDbArc
 50
8.1296287534
 51
90.0
  0
LINE
  5
88
330
1F
100
AcDbEntity
  8
0
  6
Continuous
 62
     7
370
    15
100
AcDbLine
 10
380.6055456738
 20
344.8666402513
 30
0.0
 11
389.0061993525
 21
286.0585923551
 31
0.0
  0
ARC
  5
89
330
1F
100
AcDbEntity
  8
0
  6
Continuous
 62
     7
370
    15
100
AcDbCircle
 10
411.7750645923
 20
289.3110953437
 30
0.0
 40
23.00000000000008
100
AcDbArc
 50
188.1296287534
 51
270.0
  0
ARC
  5
8A
330
1F
100
AcDbEntity
  8
0
  6
Continuous
 62
     7
370
    15
100
AcDbCircle
 10
349.1852989591
 20
350.3110953437
 30
0.0
 40
4.0
100
AcDbArc
 50
90.0
 51
180.0
  0
LINE
  5
8B
330
1F
100
AcDbEntity
  8
0
  6
Continuous
 62
     7
370
    15
100
AcDbLine
 10
353.1852989591
 20
354.3110953437
 30
0.0
 11
349.1852989591
 21
354.3110953437
 31
0.0
  0
ARC
  5
8C
330
1F
100
AcDbEntity
  8
0
  6
Continuous
 62
     7
370
    15
100
AcDbCircle
 10
474.182696314
 20
289.3110953437
 30
0.0
 40
23.0
100
AcDbArc
 50
270.0
 51
351.8703712466
  0
LINE
  5
8D
330
1F
100
AcDbEntity
  8
0
  6
Continuous
 62
     7
370
    15
100
AcDbLine
 10
496.9515615538
 20
286.0585923551
 30
0.0
 11
498.4954772348
 21
296.8666402513
 31
0.0
  0
ARC
  5
8E
330
1F
100
AcDbEntity
  8
0
  6
Continuous
 62
     7
370
    15
100
AcDbCircle
 10
509.3849345235
 20
295.3110953437
 30
0.0
 40
11.0
100
AcDbArc
 50
90.0
 51
171.8703712466
  0
LINE
  5
8F
330
1F
100
AcDbEntity
  8
0
  6
Continuous
 62
     7
370
    15
100
AcDbLine
 10
509.3849345235
 20
306.3110953437
 30
0.0
 11
523.9157239496
 21
306.3110953437
 31
0.0
  0
LINE
  5
90
330
1F
100
AcDbEntity
  8
0
  6
Continuous
 62
     7
370
    15
100
AcDbLine
 10
353.1852989591
 20
347.3110953437
 30
0.0
 11
369.7160883852
 21
347.3110953437
 31
0.0
  0
ARC
  5
91
330
1F
100
AcDbEntity
  8
0
  6
Continuous
 62
     7
370
    15
100
AcDbCircle
 10
369.7160883852
 20
343.3110953437
 30
0.0
 40
4.000000000000013
100
AcDbArc
 50
8.1296287534
 51
90.0
  0
ARC
  5
92
330
1F
100
AcDbEntity
  8
0
  6
Continuous
 62
     7
370
    15
100
AcDbCircle
 10
474.182696314
 20
289.3110953437
 30
0.0
 40
29.99999999999994
100
AcDbArc
 50
270.0
 51
351.8703712466
  0
LINE
  5
93
330
1F
100
AcDbEntity
  8
0
  6
Continuous
 62
     7
370
    15
100
AcDbLine
 10
411.7750645923
 20
259.3110953437
 30
0.0
 11
474.182696314
 21
259.3110953437
 31
0.0
  0
LINE
  5
94
330
1F
100
AcDbEntity
  8
0
  6
Continuous
 62
     7
370
    15
100
AcDbLine
 10
503.881216192
 20
285.0687001412
 30
0.0
 11
505.4251318731
 21
295.8767480373
 31
0.0
  0
ARC
  5
95
330
1F
100
AcDbEntity
  8
0
  6
Continuous
 62
     7
370
    15
100
AcDbCircle
 10
509.3849345235
 20
295.3110953437
 30
0.0
 40
4.0
100
AcDbArc
 50
90.0
 51
171.8703712466
  0
ARC
  5
96
330
1F
100
AcDbEntity
  8
0
  6
Continuous
 62
     7
370
    15
100
AcDbCircle
 10
411.7750645923
 20
289.3110953437
 30
0.0
 40
30.00000000000002
100
AcDbArc
 50
188.1296287534
 51
270.0
  0
LINE
  5
97
330
1F
100
AcDbEntity
  8
0
  6
Continuous
 62
     7
370
    15
100
AcDbLine
 10
509.3849345235
 20
299.3110953437
 30
0.0
 11
523.9157239496
 21
299.3110953437
 31
0.0
  0
LINE
  5
98
330
1F
100
AcDbEntity
  8
0
  6
Continuous
 62
     7
370
    15
100
AcDbLine
 10
373.6758910356
 20
343.8767480373
 30
0.0
 11
382.0765447143
 21
285.0687001412
 31
0.0
  0
LINE
  5
99
330
1F
100
AcDbEntity
  8
0
  6
Continuous
 62
     7
370
    15
100
AcDbLine
 10
411.7750645923
 20
266.3110953437
 30
0.0
 11
474.182696314
 21
266.3110953437
 31
0.0
  0
LINE
  5
9A
330
1F
100
AcDbEntity
  8
0
  6
Continuous
 62
     7
370
    15
100
AcDbLine
 10
527.9157239496
 20
306.3110953437
 30
0.0
 11
523.9157239496
 21
306.3110953437
 31
0.0
  0
ARC
  5
9B
330
1F
100
AcDbEntity
  8
0
  6
Continuous
 62
     7
370
    15
100
AcDbCircle
 10
527.9157239496
 20
302.3110953437
 30
0.0
 40
4.0
100
AcDbArc
 50
0.0
 51
90.0
  0
LINE
  5
9C
330
1F
100
AcDbEntity
  8
0
  6
Continuous
 62
     7
370
    15
100
AcDbLine
 10
509.1886976929
 20
293.9373564211
 30
0.0
 11
507.8410188424
 21
284.5030474475
 31
0.0
  0
ARC
  5
9D
330
1F
100
AcDbEntity
  8
0
  6
Continuous
 62
     7
370
    15
100
AcDbCircle
 10
510.772618753
 20
293.7110953437
 30
0.0
 40
1.600000000000137
100
AcDbArc
 50
90.0
 51
171.8703712466
  0
LINE
  5
9E
330
1F
100
AcDbEntity
  8
0
  6
Continuous
 62
     7
370
    15
100
AcDbLine
 10
368.3284041557
 20
343.3110953437
 30
0.0
 11
353.1852989591
 21
343.3110953437
 31
0.0
  0
ARC
  5
9F
330
1F
100
AcDbEntity
  8
0
  6
Continuous
 62
     7
370
    15
100
AcDbCircle
 10
368.3284041557
 20
341.7110953437
 30
0.0
 40
1.600000000000023
100
AcDbArc
 50
8.1296287534
 51
90.0
  0
LINE
  5
A0
330
1F
100
AcDbEntity
  8
0
  6
Continuous
 62
     7
370
    15
100
AcDbLine
 10
473.7810047937
 20
255.3110953437
 30
0.0
 11
412.1767561125
 21
255.3110953437
 31
0.0
  0
ARC
  5
A1
330
1F
100
AcDbEntity
  8
0
  6
Continuous
 62
     7
370
    15
100
AcDbCircle
 10
474.182696314
 20
289.3110953437
 30
0.0
 40
33.99999999999995
100
AcDbArc
 50
272.0538013922
 51
351.8703712466
  0
LINE
  5
A2
330
1F
100
AcDbEntity
  8
0
  6
Continuous
 62
     7
370
    15
100
AcDbLine
 10
523.9157239496
 20
295.3110953437
 30
0.0
 11
510.772618753
 21
295.3110953437
 31
0.0
  0
ARC
  5
A3
330
1F
100
AcDbEntity
  8
0
  6
Continuous
 62
     7
370
    15
100
AcDbCircle
 10
530.3157239496
 20
296.9110953437
 30
0.0
 40
1.60000000000008
100
AcDbArc
 50
270.0
 51
0.0
  0
LINE
  5
A4
330
1F
100
AcDbEntity
  8
0
  6
Continuous
 62
     7
370
    15
100
AcDbLine
 10
530.3157239496
 20
295.3110953437
 30
0.0
 11
523.9157239496
 21
295.3110953437
 31
0.0
  0
LINE
  5
A5
330
1F
100
AcDbEntity
  8
0
  6
Continuous
 62
     7
370
    15
100
AcDbLine
 10
345.1852989591
 20
344.9110953437
 30
0.0
 11
345.1852989591
 21
347.3110953437
 31
0.0
  0
LINE
  5
A6
330
1F
100
AcDbEntity
  8
0
  6
Continuous
 62
     7
370
    15
100
AcDbLine
 10
353.1852989591
 20
343.3110953437
 30
0.0
 11
346.7852989591
 21
343.3110953437
 31
0.0
  0
ARC
  5
A7
330
1F
100
AcDbEntity
  8
0
  6
Continuous
 62
     7
370
    15
100
AcDbCircle
 10
346.7852989591
 20
344.9110953437
 30
0.0
 40
1.600000000000023
100
AcDbArc
 50
180.0
 51
270.0
  0
ARC
  5
A8
330
1F
100
AcDbEntity
  8
0
  6
Continuous
 62
     7
370
    15
100
AcDbCircle
 10
411.7750645923
 20
289.3110953437
 30
0.0
 40
34.00000000000003
100
AcDbArc
 50
188.1296287534
 51
267.9461986079
  0
LINE
  5
A9
330
1F
100
AcDbEntity
  8
0
  6
Continuous
 62
     7
370
    15
100
AcDbLine
 10
378.1167420639
 20
284.5030474475
 30
0.0
 11
369.9123252158
 21
341.9373564211
 31
0.0
  0
LINE
  5
AA
330
1F
100
AcDbEntity
  8
0
  6
Continuous
 62
     7
370
    15
100
AcDbLine
 10
531.9157239496
 20
299.3110953437
 30
0.0
 11
531.9157239496
 21
296.9110953437
 31
0.0
  0
LWPOLYLINE
  5
AB
330
1F
100
AcDbEntity
  8
0
  6
Continuous
 62
     7
370
    15
100
AcDbPolyline
 90
        3
 70
   128
 43
0.0
 10
509.5788804531
 20
173.3110953437
 10
509.5414733423
 20
173.655048048
 10
509.5146726944
 20
173.7598070458
  0
ARC
  5
AC
330
1F
100
AcDbEntity
  8
0
  6
Continuous
 62
     7
370
    15
100
AcDbCircle
 10
507.9788804531
 20
173.3110953437
 30
0.0
 40
1.600000000000149
100
AcDbArc
 50
196.2677146988
 51
0.0
  0
LWPOLYLINE
  5
AD
330
1F
100
AcDbEntity
  8
0
  6
Continuous
 62
     7
370
    15
100
AcDbPolyline
 90
        3
 70
   128
 43
0.0
 10
376.3788804531
 20
173.3110953437
 10
376.416287564
 20
173.655048048
 10
376.4430882119
 20
173.7598070458
  0
ARC
  5
AE
330
1F
100
AcDbEntity
  8
0
  6
Continuous
 62
     7
370
    15
100
AcDbCircle
 10
377.9788804531
 20
173.3110953437
 30
0.0
 40
1.600000000000036
100
AcDbArc
 50
180.0
 51
343.7202464641
  0
ARC
  5
AF
330
1F
100
AcDbEntity
  8
0
  6
Continuous
 62
     7
370
    15
100
AcDbCircle
 10
411.7750645923
 20
255.3110953437
 30
0.0
 40
1.60000000000008
100
AcDbArc
 50
331.4698373183
 51
0.0
  0
ARC
  5
B0
330
1F
100
AcDbEntity
  8
0
  6
Continuous
 62
     7
370
    15
100
AcDbCircle
 10
474.182696314
 20
255.3110953437
 30
0.0
 40
1.60000000000004
100
AcDbArc
 50
180.0
 51
208.5301626817
  0
INSERT
  5
BC
330
1F
100
AcDbEntity
  8
0
  6
Continuous
 62
     7
370
     0
100
AcDbBlockReference
  2
SW_CENTERMARKSYMBOL_0
 10
474.182696314
 20
255.3110953437
 30
0.0
  0
INSERT
  5
C8
330
1F
100
AcDbEntity
  8
0
  6
Continuous
 62
     7
370
     0
100
AcDbBlockReference
  2
SW_CENTERMARKSYMBOL_1
 10
507.9788804531
 20
173.3110953437
 30
0.0
  0
INSERT
  5
D4
330
1F
100
AcDbEntity
  8
0
  6
Continuous
 62
     7
370
     0
100
AcDbBlockReference
  2
SW_CENTERMARKSYMBOL_2
 10
411.7750645923
 20
255.3110953437
 30
0.0
  0
INSERT
  5
E0
330
1F
100
AcDbEntity
  8
0
  6
Continuous
 62
     7
370
     0
100
AcDbBlockReference
  2
SW_CENTERMARKSYMBOL_3
 10
377.9788804531
 20
173.3110953437
 30
0.0
  0
LWPOLYLINE
  5
E1
330
1F
100
AcDbEntity
  8
0
  6
Continuous
 62
     7
370
    15
100
AcDbPolyline
 90
        3
 70
   128
 43
0.0
 10
475.2702506445
 20
659.0054401368
 10
474.8526850489
 20
658.8541031743
 10
474.542985957
 20
658.6777159918
  0
ARC
  5
E2
330
1F
100
AcDbEntity
  8
0
  6
Continuous
 62
     7
370
    15
100
AcDbCircle
 10
410.1624921172
 20
656.8655712373
 30
0.0
 40
2.203334509176848
100
AcDbArc
 50
55.3313672639
 51
76.2147497872
  0
ARC
  5
E3
330
1F
100
AcDbEntity
  8
0
  6
Continuous
 62
     7
370
    15
100
AcDbCircle
 10
475.7924678832
 20
600.4863853207
 30
0.0
 40
2.199292595353896
100
AcDbArc
 50
235.3244461927
 51
256.2640423882
  0
LWPOLYLINE
  5
E4
330
1F
100
AcDbEntity
  8
0
  6
Continuous
 62
     7
370
    15
100
AcDbPolyline
 90
        3
 70
   128
 43
0.0
 10
410.6875102618
 20
598.3499918467
 10
411.1060398406
 20
598.5015790685
 10
411.4153846245
 20
598.6777159918
  0
LINE
  5
E5
330
1F
100
AcDbEntity
  8
0
  6
Continuous
 62
     7
370
    15
100
AcDbLine
 10
505.7637558646
 20
666.7650308763
 30
0.0
 11
475.264760422
 21
659.0040552665
 31
0.0
  0
LINE
  5
E6
330
1F
100
AcDbEntity
  8
0
  6
Continuous
 62
     7
370
    15
100
AcDbLine
 10
486.9584009813
 20
658.6777159918
 30
0.0
 11
506.5528998936
 21
663.6638614676
 31
0.0
  0
LINE
  5
E7
330
1F
100
AcDbEntity
  8
0
  6
Continuous
 62
     7
370
    15
100
AcDbLine
 10
379.4048610127
 20
663.6638614676
 30
0.0
 11
398.999359925
 21
658.6777159918
 31
0.0
  0
LINE
  5
E8
330
1F
100
AcDbEntity
  8
0
  6
Continuous
 62
     7
370
    15
100
AcDbLine
 10
410.6930004843
 20
659.0040552665
 30
0.0
 11
380.1940050416
 21
666.7650308763
 31
0.0
  0
LINE
  5
E9
330
1F
100
AcDbEntity
  8
0
  6
Continuous
 62
     7
370
    15
100
AcDbLine
 10
475.264760422
 20
598.351376717
 30
0.0
 11
505.7637558646
 21
590.5904011072
 31
0.0
  0
LINE
  5
EA
330
1F
100
AcDbEntity
  8
0
  6
Continuous
 62
     7
370
    15
100
AcDbLine
 10
506.5528998936
 20
593.6915705159
 30
0.0
 11
486.9584009813
 21
598.6777159918
 31
0.0
  0
LINE
  5
EB
330
1F
100
AcDbEntity
  8
0
  6
Continuous
 62
     7
370
    15
100
AcDbLine
 10
398.999359925
 20
598.6777159918
 30
0.0
 11
379.4048610127
 21
593.6915705159
 31
0.0
  0
LINE
  5
EC
330
1F
100
AcDbEntity
  8
0
  6
Continuous
 62
     7
370
    15
100
AcDbLine
 10
380.1940050416
 20
590.5904011072
 30
0.0
 11
410.6930004843
 21
598.351376717
 31
0.0
  0
ARC
  5
ED
330
1F
100
AcDbEntity
  8
0
  6
Continuous
 62
     7
370
    15
100
AcDbCircle
 10
500.5159597962
 20
661.4107681518
 30
0.0
 40
5.86551702134748
100
AcDbArc
 50
358.2951611914
 51
21.0793341279
  0
LWPOLYLINE
  5
EE
330
1F
100
AcDbEntity
  8
0
  6
Continuous
 62
     7
370
    15
100
AcDbPolyline
 90
       19
 70
   128
 43
0.0
 10
509.5788804531
 20
661.2362651494
 10
509.5656650114
 20
661.766598569
 10
509.5326145208
 20
662.2560004543
 10
509.4893143983
 20
662.6463904068
 10
509.4210836076
 20
663.0891894413
 10
509.34343015
 20
663.4791020768
 10
509.2273611581
 20
663.940189122
 10
509.0851461351
 20
664.3868341658
 10
508.8688417067
 20
664.9160274453
 10
508.5493297451
 20
665.4929505454
 10
508.1949225485
 20
665.9540903646
 10
507.8745216432
 20
666.2616915329
 10
507.7203967946
 20
666.3804966399
 10
507.5045677282
 20
666.5192344142
 10
507.2072041888
 20
666.6634947826
 10
506.9210729408
 20
666.7570252679
 10
506.5767500886
 20
666.8185335703
 10
506.1839415333
 20
666.8282916401
 10
505.7692460871
 20
666.7664157466
  0
LWPOLYLINE
  5
EF
330
1F
100
AcDbEntity
  8
0
  6
Continuous
 62
     7
370
    15
100
AcDbPolyline
 90
       18
 70
   128
 43
0.0
 10
380.1885148192
 20
666.7664157466
 10
379.7722130997
 20
666.8285148993
 10
379.3771977722
 20
666.8186469995
 10
379.03157509
 20
666.7564154696
 10
378.7452785448
 20
666.6618957068
 10
378.4488931854
 20
666.5170388653
 10
378.2301702651
 20
666.3754542911
 10
378.0419322766
 20
666.2268236381
 10
377.589773705
 20
665.7477108396
 10
377.2534405963
 20
665.2373521103
 10
377.0703597704
 20
664.8762238545
 10
376.8972224174
 20
664.4548168377
 10
376.723832938
 20
663.9166857794
 10
376.6010496412
 20
663.4178223958
 10
376.4895523545
 20
662.797401981
 10
376.4314664339
 20
662.3222399637
 10
376.3928609284
 20
661.7821720734
 10
376.3788804531
 20
661.2362651494
  0
ARC
  5
F0
330
1F
100
AcDbEntity
  8
0
  6
Continuous
 62
     7
370
    15
100
AcDbCircle
 10
385.1313003746
 20
661.4637718897
 30
0.0
 40
5.557078936034277
100
AcDbArc
 50
158.2791604474
 51
182.3463442333
  0
ARC
  5
F1
330
1F
100
AcDbEntity
  8
0
  6
Continuous
 62
     7
370
    15
100
AcDbCircle
 10
500.829216478
 20
595.8913214645
 30
0.0
 40
5.554339182059421
100
AcDbArc
 50
338.2718113722
 51
2.3509983167
  0
LWPOLYLINE
  5
F2
330
1F
100
AcDbEntity
  8
0
  6
Continuous
 62
     7
370
    15
100
AcDbPolyline
 90
       17
 70
   128
 43
0.0
 10
505.7692460871
 20
590.589016237
 10
506.1880435327
 20
590.5263005767
 10
506.5853138272
 20
590.535280598
 10
506.927295707
 20
590.5975964498
 10
507.2094360525
 20
590.6923003444
 10
507.6213948631
 20
590.9094316207
 10
507.9176083963
 20
591.1312900906
 10
508.3728122962
 20
591.6129963024
 10
508.7054473133
 20
592.1201167126
 10
508.8878546045
 20
592.4804468757
 10
509.0610813552
 20
592.9019311682
 10
509.2342939363
 20
593.4400263265
 10
509.3569641771
 20
593.9390283995
 10
509.4683503715
 20
594.5586008934
 10
509.5263623831
 20
595.0338567293
 10
509.5649207808
 20
595.5743963403
 10
509.5788804531
 20
596.1191668341
  0
LWPOLYLINE
  5
F3
330
1F
100
AcDbEntity
  8
0
  6
Continuous
 62
     7
370
    15
100
AcDbPolyline
 90
       18
 70
   128
 43
0.0
 10
376.3788804531
 20
596.1191668341
 10
376.3920927595
 20
595.5895823603
 10
376.4251407065
 20
595.0995763679
 10
376.4684315252
 20
594.7087347296
 10
376.5366325352
 20
594.266452935
 10
376.6142412072
 20
593.8769864687
 10
376.7301596225
 20
593.4160338568
 10
376.8721692967
 20
592.9696516695
 10
377.0887828074
 20
592.4399688669
 10
377.4079196312
 20
591.8627695469
 10
377.7620465913
 20
591.4016777129
 10
378.0853428311
 20
591.0934959425
 10
378.3394970254
 20
590.9075911463
 10
378.7505952549
 20
590.6916847017
 10
379.0321336311
 20
590.5976228707
 10
379.3736388055
 20
590.5356187473
 10
379.7699588558
 20
590.5264499004
 10
380.1885148192
 20
590.589016237
  0
ARC
  5
F4
330
1F
100
AcDbEntity
  8
0
  6
Continuous
 62
     7
370
    15
100
AcDbCircle
 10
385.4398592782
 20
595.94447171
 30
0.0
 40
5.86358177002038
100
AcDbArc
 50
178.2927202064
 51
201.0844701047
  0
LINE
  5
F5
330
1F
100
AcDbEntity
  8
0
  6
Continuous
 62
     7
370
    15
100
AcDbLine
 10
506.3788804531
 20
598.6777159918
 30
0.0
 11
506.3788804531
 21
596.1191668341
 31
0.0
  0
LINE
  5
F6
330
1F
100
AcDbEntity
  8
0
  6
Continuous
 62
     7
370
    15
100
AcDbLine
 10
506.3788804531
 20
661.2362651494
 30
0.0
 11
506.3788804531
 21
658.6777159918
 31
0.0
  0
LINE
  5
F7
330
1F
100
AcDbEntity
  8
0
  6
Continuous
 62
     7
370
    15
100
AcDbLine
 10
509.5788804531
 20
596.1191668341
 30
0.0
 11
509.5788804531
 21
598.6777159918
 31
0.0
  0
LINE
  5
F8
330
1F
100
AcDbEntity
  8
0
  6
Continuous
 62
     7
370
    15
100
AcDbLine
 10
509.5788804531
 20
658.6777159918
 30
0.0
 11
509.5788804531
 21
661.2362651494
 31
0.0
  0
LINE
  5
F9
330
1F
100
AcDbEntity
  8
0
  6
Continuous
 62
     7
370
    15
100
AcDbLine
 10
376.3788804531
 20
661.2362651494
 30
0.0
 11
376.3788804531
 21
658.6777159918
 31
0.0
  0
LINE
  5
FA
330
1F
100
AcDbEntity
  8
0
  6
Continuous
 62
     7
370
    15
100
AcDbLine
 10
376.3788804531
 20
598.6777159918
 30
0.0
 11
376.3788804531
 21
596.1191668341
 31
0.0
  0
LINE
  5
FB
330
1F
100
AcDbEntity
  8
0
  6
Continuous
 62
     7
370
    15
100
AcDbLine
 10
379.5788804531
 20
658.6777159918
 30
0.0
 11
379.5788804531
 21
661.2362651494
 31
0.0
  0
LINE
  5
FC
330
1F
100
AcDbEntity
  8
0
  6
Continuous
 62
     7
370
    15
100
AcDbLine
 10
379.5788804531
 20
596.1191668341
 30
0.0
 11
379.5788804531
 21
598.6777159918
 31
0.0
  0
LINE
  5
FD
330
1F
100
AcDbEntity
  8
0
  6
Continuous
 62
     7
370
    15
100
AcDbLine
 10
353.1852989591
 20
658.6777159918
 30
0.0
 11
369.7160883852
 21
658.6777159918
 31
0.0
  0
ARC
  5
FE
330
1F
100
AcDbEntity
  8
0
  6
Continuous
 62
     7
370
    15
100
AcDbCircle
 10
353.1852989591
 20
650.6777159918
 30
0.0
 40
8.0
100
AcDbArc
 50
90.0
 51
180.0
  0
LINE
  5
FF
330
1F
100
AcDbEntity
  8
0
  6
Continuous
 62
     7
370
    15
100
AcDbLine
 10
369.7160883852
 20
658.6777159918
 30
0.0
 11
376.6457430234
 21
658.6777159918
 31
0.0
  0
LINE
  5
100
330
1F
100
AcDbEntity
  8
0
  6
Continuous
 62
     7
370
    15
100
AcDbLine
 10
345.1852989591
 20
606.6777159918
 30
0.0
 11
345.1852989591
 21
650.6777159918
 31
0.0
  0
ARC
  5
101
330
1F
100
AcDbEntity
  8
0
  6
Continuous
 62
     7
370
    15
100
AcDbCircle
 10
353.1852989591
 20
606.6777159918
 30
0.0
 40
8.0
100
AcDbArc
 50
180.0
 51
270.0
  0
LINE
  5
102
330
1F
100
AcDbEntity
  8
0
  6
Continuous
 62
     7
370
    15
100
AcDbLine
 10
376.6457430234
 20
598.6777159918
 30
0.0
 11
369.7160883852
 21
598.6777159918
 31
0.0
  0
LINE
  5
103
330
1F
100
AcDbEntity
  8
0
  6
Continuous
 62
     7
370
    15
100
AcDbLine
 10
369.7160883852
 20
598.6777159918
 30
0.0
 11
353.1852989591
 21
598.6777159918
 31
0.0
  0
LINE
  5
104
330
1F
100
AcDbEntity
  8
0
  6
Continuous
 62
     7
370
    15
100
AcDbLine
 10
376.6457430234
 20
658.6777159918
 30
0.0
 11
385.0463967021
 21
658.6777159918
 31
0.0
  0
LINE
  5
105
330
1F
100
AcDbEntity
  8
0
  6
Continuous
 62
     7
370
    15
100
AcDbLine
 10
385.0463967021
 20
598.6777159918
 30
0.0
 11
376.6457430234
 21
598.6777159918
 31
0.0
  0
LINE
  5
106
330
1F
100
AcDbEntity
  8
0
  6
Continuous
 62
     7
370
    15
100
AcDbLine
 10
509.3849345235
 20
658.6777159918
 30
0.0
 11
523.9157239496
 21
658.6777159918
 31
0.0
  0
LINE
  5
107
330
1F
100
AcDbEntity
  8
0
  6
Continuous
 62
     7
370
    15
100
AcDbLine
 10
502.4552798852
 20
658.6777159918
 30
0.0
 11
509.3849345235
 21
658.6777159918
 31
0.0
  0
ARC
  5
108
330
1F
100
AcDbEntity
  8
0
  6
Continuous
 62
     7
370
    15
100
AcDbCircle
 10
523.9157239496
 20
650.6777159918
 30
0.0
 40
8.0
100
AcDbArc
 50
0.0
 51
90.0
  0
LINE
  5
109
330
1F
100
AcDbEntity
  8
0
  6
Continuous
 62
     7
370
    15
100
AcDbLine
 10
531.9157239496
 20
650.6777159918
 30
0.0
 11
531.9157239496
 21
606.6777159918
 31
0.0
  0
ARC
  5
10A
330
1F
100
AcDbEntity
  8
0
  6
Continuous
 62
     7
370
    15
100
AcDbCircle
 10
523.9157239496
 20
606.6777159918
 30
0.0
 40
8.0
100
AcDbArc
 50
270.0
 51
0.0
  0
LINE
  5
10B
330
1F
100
AcDbEntity
  8
0
  6
Continuous
 62
     7
370
    15
100
AcDbLine
 10
509.3849345235
 20
598.6777159918
 30
0.0
 11
502.4552798852
 21
598.6777159918
 31
0.0
  0
LINE
  5
10C
330
1F
100
AcDbEntity
  8
0
  6
Continuous
 62
     7
370
    15
100
AcDbLine
 10
523.9157239496
 20
598.6777159918
 30
0.0
 11
509.3849345235
 21
598.6777159918
 31
0.0
  0
LINE
  5
10D
330
1F
100
AcDbEntity
  8
0
  6
Continuous
 62
     7
370
    15
100
AcDbLine
 10
500.9113642042
 20
658.6777159918
 30
0.0
 11
502.4552798852
 21
658.6777159918
 31
0.0
  0
LINE
  5
10E
330
1F
100
AcDbEntity
  8
0
  6
Continuous
 62
     7
370
    15
100
AcDbLine
 10
502.4552798852
 20
598.6777159918
 30
0.0
 11
500.9113642042
 21
598.6777159918
 31
0.0
  0
LINE
  5
10F
330
1F
100
AcDbEntity
  8
0
  6
Continuous
 62
     7
370
    15
100
AcDbLine
 10
474.182696314
 20
658.6777159918
 30
0.0
 11
500.9113642042
 21
658.6777159918
 31
0.0
  0
LINE
  5
110
330
1F
100
AcDbEntity
  8
0
  6
Continuous
 62
     7
370
    15
100
AcDbLine
 10
385.0463967021
 20
658.6777159918
 30
0.0
 11
411.7750645923
 21
658.6777159918
 31
0.0
  0
LINE
  5
111
330
1F
100
AcDbEntity
  8
0
  6
Continuous
 62
     7
370
    15
100
AcDbLine
 10
500.9113642042
 20
598.6777159918
 30
0.0
 11
474.182696314
 21
598.6777159918
 31
0.0
  0
LINE
  5
112
330
1F
100
AcDbEntity
  8
0
  6
Continuous
 62
     7
370
    15
100
AcDbLine
 10
411.7750645923
 20
598.6777159918
 30
0.0
 11
385.0463967021
 21
598.6777159918
 31
0.0
  0
LINE
  5
113
330
1F
100
AcDbEntity
  8
0
  6
Continuous
 62
     7
370
    15
100
AcDbLine
 10
411.7750645923
 20
658.6777159918
 30
0.0
 11
474.182696314
 21
658.6777159918
 31
0.0
  0
LINE
  5
114
330
1F
100
AcDbEntity
  8
0
  6
Continuous
 62
     7
370
    15
100
AcDbLine
 10
474.182696314
 20
598.6777159918
 30
0.0
 11
411.7750645923
 21
598.6777159918
 31
0.0
  0
LWPOLYLINE
  5
115
330
1F
100
AcDbEntity
  8
0
  6
Continuous
 62
     7
370
    15
100
AcDbPolyline
 90
       12
 70
   128
 43
0.0
 10
745.0281498503
 20
598.0490219229
 10
744.8093702619
 20
597.9258222546
 10
744.2930871668
 20
597.5628201681
 10
743.8173653001
 20
597.152688696
 10
743.383916964
 20
596.6986925606
 10
742.9940395878
 20
596.2036157963
 10
742.6487958267
 20
595.669717021
 10
742.3491507932
 20
595.0986916444
 10
742.0961336892
 20
594.4917391983
 10
741.8909888256
 20
593.8497880277
 10
741.7352567672
 20
593.1739159526
 10
741.6582279272
 20
592.6939023796
  0
LINE
  5
116
330
1F
100
AcDbEntity
  8
0
  6
Continuous
 62
     7
370
    15
100
AcDbLine
 10
781.7932051409
 20
619.281847314
 30
0.0
 11
745.0236525192
 21
598.0552364066
 31
0.0
  0
LINE
  5
117
330
1F
100
AcDbEntity
  8
0
  6
Continuous
 62
     7
370
    15
100
AcDbLine
 10
741.6582279272
 20
592.6939023796
 30
0.0
 11
740.5665146796
 21
584.4989228185
 31
0.0
  0
LWPOLYLINE
  5
118
330
1F
100
AcDbEntity
  8
0
  6
Continuous
 62
     7
370
    15
100
AcDbPolyline
 90
       14
 70
   128
 43
0.0
 10
740.5665146796
 20
584.4989228185
 10
740.5067580884
 20
584.0906119408
 10
740.3670335418
 20
583.339925962
 10
740.1959759015
 20
582.6337779434
 10
739.9954127092
 20
581.9728844537
 10
739.7672221898
 20
581.3579248076
 10
739.513112803
 20
580.7890221227
 10
739.2344112158
 20
580.2656908017
 10
738.9317617297
 20
579.7868087903
 10
738.6047113201
 20
579.3506475955
 10
738.2511716759
 20
578.9550277185
 10
737.8668482129
 20
578.5977423628
 10
737.4450909623
 20
578.2775185761
 10
737.1261039509
 20
578.084881932
  0
LWPOLYLINE
  5
119
330
1F
100
AcDbEntity
  8
0
  6
Continuous
 62
     7
370
    15
100
AcDbPolyline
 90
       13
 70
   128
 43
0.0
 10
802.7339676459
 20
607.9029997885
 10
802.7379281166
 20
608.020944238
 10
802.6941076689
 20
608.5986657966
 10
802.5894266363
 20
609.1630731332
 10
802.4267012669
 20
609.7100107732
 10
802.2086361633
 20
610.2362057385
 10
801.9376473365
 20
610.739036721
 10
801.6156820338
 20
611.2164632164
 10
801.2440797248
 20
611.6668773525
 10
800.8235483187
 20
612.0888592612
 10
800.3543717457
 20
612.4808348093
 10
799.8369786995
 20
612.8406899122
 10
799.5674153748
 20
613.0037637812
  0
LINE
  5
11A
330
1F
100
AcDbEntity
  8
0
  6
Continuous
 62
     7
370
    15
100
AcDbLine
 10
802.7391507848
 20
605.4571296723
 30
0.0
 11
802.7391507848
 21
607.906752108
 31
0.0
  0
LINE
  5
11B
330
1F
100
AcDbEntity
  8
0
  6
Continuous
 62
     7
370
    15
100
AcDbLine
 10
799.5674153748
 20
613.0037637812
 30
0.0
 11
789.2925956357
 21
618.9352909605
 31
0.0
  0
LWPOLYLINE
  5
11C
330
1F
100
AcDbEntity
  8
0
  6
Continuous
 62
     7
370
    15
100
AcDbPolyline
 90
       13
 70
   128
 43
0.0
 10
789.2925956357
 20
618.9352909605
 10
788.8899030937
 20
619.1560897721
 10
788.1805915719
 20
619.4894587502
 10
787.456001427
 20
619.758792915
 10
786.727921943
 20
619.9582507894
 10
786.0785178894
 20
620.0761787143
 10
785.3666751134
 20
620.139742158
 10
784.6697371813
 20
620.1335572367
 10
783.9940548027
 20
620.0598558697
 10
783.3436862054
 20
619.9215904173
 10
782.722235329
 20
619.7219873343
 10
782.1329909428
 20
619.4644412501
 10
781.7965751723
 20
619.2749980226
  0
LWPOLYLINE
  5
11D
330
1F
100
AcDbEntity
  8
0
  6
Continuous
 62
     7
370
    15
100
AcDbPolyline
 90
       12
 70
   128
 43
0.0
 10
638.073546557
 20
703.9295962401
 10
637.6919622996
 20
703.6941322362
 10
637.1823453526
 20
703.325591387
 10
636.7208394428
 20
702.9244871501
 10
636.3092068728
 20
702.4940450224
 10
635.948435429
 20
702.0371255141
 10
635.6393115964
 20
701.5564455116
 10
635.3827372593
 20
701.0548865571
 10
635.1612719688
 20
700.4792804358
 10
635.0081579157
 20
699.8931967278
 10
634.9227086062
 20
699.30431582
 10
634.906994286
 20
698.8363368864
  0
LINE
  5
11E
330
1F
100
AcDbEntity
  8
0
  6
Continuous
 62
     7
370
    15
100
AcDbLine
 10
634.901811147
 20
698.832584567
 30
0.0
 11
634.901811147
 21
696.3829621313
 31
0.0
  0
LINE
  5
11F
330
1F
100
AcDbEntity
  8
0
  6
Continuous
 62
     7
370
    15
100
AcDbLine
 10
669.1862449292
 20
721.8905747002
 30
0.0
 11
638.073546557
 21
703.9295962401
 31
0.0
  0
LINE
  5
120
330
1F
100
AcDbEntity
  8
0
  6
Continuous
 62
     7
370
    15
100
AcDbLine
 10
756.9538726488
 20
604.9424058899
 30
0.0
 11
720.2719946966
 21
626.1184032879
 31
0.0
  0
LWPOLYLINE
  5
121
330
1F
100
AcDbEntity
  8
0
  6
Continuous
 62
     7
370
    15
100
AcDbPolyline
 90
       18
 70
   128
 43
0.0
 10
697.4055779493
 20
704.401019434
 10
697.3447376901
 20
704.853491248
 10
697.1972282444
 20
705.6477901143
 10
696.9999858742
 20
706.4391466298
 10
696.7552257389
 20
707.2247128148
 10
696.4654203094
 20
708.0004671524
 10
696.1328737785
 20
708.7629284439
 10
695.7596872765
 20
709.5089209623
 10
695.3477593806
 20
710.235415584
 10
694.8987957277
 20
710.9394277061
 10
694.4145539208
 20
711.6176339405
 10
693.8964565731
 20
712.2669449334
 10
693.3457058825
 20
712.8842034726
 10
692.763360868
 20
713.4660289586
 10
692.1504426577
 20
714.0086870921
 10
691.5081540447
 20
714.5079305114
 10
690.8382653846
 20
714.958852463
 10
690.5318074108
 20
715.1426394091
  0
LINE
  5
122
330
1F
100
AcDbEntity
  8
0
  6
Continuous
 62
     7
370
    15
100
AcDbLine
 10
703.3457371318
 20
652.9526673555
 30
0.0
 11
697.4055779493
 21
704.401019434
 31
0.0
  0
LINE
  5
123
330
1F
100
AcDbEntity
  8
0
  6
Continuous
 62
     7
370
    15
100
AcDbLine
 10
690.5318074108
 20
715.1426394091
 30
0.0
 11
678.8427741092
 21
721.8905747002
 31
0.0
  0
ARC
  5
124
330
1F
100
AcDbEntity
  8
0
  6
Continuous
 62
     7
370
    15
100
AcDbCircle
 10
674.0145095192
 20
713.0274688869
 30
0.0
 40
10.09290758951497
100
AcDbArc
 50
61.4202236034
 51
118.5797763966
  0
LWPOLYLINE
  5
125
330
1F
100
AcDbEntity
  8
0
  6
Continuous
 62
     7
370
    15
100
AcDbPolyline
 90
       31
 70
   128
 43
0.0
 10
720.2719946966
 20
626.1184032879
 10
719.8610759254
 20
626.361667195
 10
719.068728457
 20
626.8647149308
 10
718.2704977697
 20
627.4166121563
 10
717.4691070734
 20
628.0164319403
 10
716.6673060566
 20
628.6630069685
 10
715.8678452832
 20
629.3549427302
 10
715.0734556535
 20
630.0906315832
 10
714.2868314129
 20
630.8682673396
 10
713.5106160383
 20
631.6858598365
 10
712.7473904342
 20
632.5412491449
 10
711.9996629603
 20
633.4321192092
 10
711.2698608833
 20
634.3560108093
 10
710.5603229134
 20
635.3103338123
 10
709.8732925385
 20
636.29237873
 10
709.2109119181
 20
637.2993276305
 10
708.5752161371
 20
638.3282644783
 10
707.9681276526
 20
639.376184989
 10
707.3914507923
 20
640.4400060969
 10
706.846904483
 20
641.5164966691
 10
706.3360344953
 20
642.6024371925
 10
705.8602480474
 20
643.6945625025
 10
705.4208099922
 20
644.789566612
 10
705.0188361446
 20
645.8841122304
 10
704.6552861653
 20
646.9748407795
 10
704.3309559842
 20
648.0583831208
 10
704.046469776
 20
649.1313712476
 10
703.8022715447
 20
650.1904512356
 10
703.5986164377
 20
651.2322977933
 10
703.4355619973
 20
652.2536308011
 10
703.3457371318
 20
652.9526673555
  0
LWPOLYLINE
  5
126
330
1F
100
AcDbEntity
  8
0
  6
Continuous
 62
     7
370
    15
100
AcDbPolyline
 90
       18
 70
   128
 43
0.0
 10
758.3010340269
 20
581.5382691261
 10
758.6052540134
 20
581.3715637202
 10
759.1904890749
 20
581.095355985
 10
759.8087756251
 20
580.8568757064
 10
760.4553176748
 20
580.6566904647
 10
761.1246458702
 20
580.4954412466
 10
761.8115788744
 20
580.3735028448
 10
762.5111023461
 20
580.2911043208
 10
763.2182865024
 20
580.248382684
 10
763.928245449
 20
580.2454029568
 10
764.6361275679
 20
580.2821670633
 10
765.3368850224
 20
580.3585913342
 10
766.0257624096
 20
580.4745469478
 10
766.698096786
 20
580.6299000201
 10
767.3492772053
 20
580.8245429369
 10
767.9746823558
 20
581.0584163558
 10
768.5695557368
 20
581.3314916527
 10
768.9518707983
 20
581.5382691261
  0
LINE
  5
127
330
1F
100
AcDbEntity
  8
0
  6
Continuous
 62
     7
370
    15
100
AcDbLine
 10
768.9518707983
 20
581.5382691261
 30
0.0
 11
800.0645691705
 21
599.4992475862
 31
0.0
  0
LINE
  5
128
330
1F
100
AcDbEntity
  8
0
  6
Continuous
 62
     7
370
    15
100
AcDbLine
 10
749.0074552166
 20
586.9033379746
 30
0.0
 11
758.3010340269
 21
581.5382691261
 31
0.0
  0
LWPOLYLINE
  5
129
330
1F
100
AcDbEntity
  8
0
  6
Continuous
 62
     7
370
    15
100
AcDbPolyline
 90
        5
 70
   128
 43
0.0
 10
748.785369313
 20
586.9977830124
 10
748.7837595973
 20
586.9977907273
 10
748.8188553137
 20
586.9894025735
 10
748.9065641395
 20
586.9556674795
 10
749.0074552166
 20
586.9033379746
  0
LWPOLYLINE
  5
12A
330
1F
100
AcDbEntity
  8
0
  6
Continuous
 62
     7
370
    15
100
AcDbPolyline
 90
       20
 70
   128
 43
0.0
 10
723.1344729369
 20
569.1778602442
 10
723.6951061735
 20
568.8617370605
 10
724.7568672639
 20
568.3042667251
 10
725.8190213983
 20
567.8007101678
 10
726.8793536481
 20
567.3524275037
 10
727.9358444908
 20
566.9605539865
 10
728.9864049901
 20
566.6261261168
 10
730.0288710842
 20
566.3500616405
 10
731.0610039358
 20
566.1331345198
 10
732.0804992344
 20
565.9759463731
 10
733.0850080243
 20
565.8788973769
 10
734.072170144
 20
565.8421612028
 10
735.0396588084
 20
565.8656695528
 10
735.9852317365
 20
565.9491115821
 10
736.9067815037
 20
566.0919515584
 10
737.8023766204
 20
566.2934647049
 10
738.6702859456
 20
566.5527872431
 10
739.5089822044
 20
566.8689734258
 10
740.3171245564
 20
567.2410508259
 10
740.947259098
 20
567.5876208145
  0
LINE
  5
12B
330
1F
100
AcDbEntity
  8
0
  6
Continuous
 62
     7
370
    15
100
AcDbLine
 10
740.9330263778
 20
567.5737994082
 30
0.0
 11
762.9196759223
 21
580.2664220202
 31
0.0
  0
LINE
  5
12C
330
1F
100
AcDbEntity
  8
0
  6
Continuous
 62
     7
370
    15
100
AcDbLine
 10
802.7391507848
 20
603.4974317238
 30
0.0
 11
802.7391507848
 21
605.4571296723
 31
0.0
  0
LWPOLYLINE
  5
12D
330
1F
100
AcDbEntity
  8
0
  6
Continuous
 62
     7
370
    15
100
AcDbPolyline
 90
       11
 70
   128
 43
0.0
 10
800.0645691705
 20
599.4992475862
 10
800.3580826385
 20
599.6778038774
 10
800.8646884185
 20
600.035678636
 10
801.3226880712
 20
600.4303816105
 10
801.723682665
 20
600.8571573617
 10
802.0614811332
 20
601.3102806208
 10
802.3318776297
 20
601.782839943
 10
802.5331479134
 20
602.267820001
 10
802.6656490079
 20
602.7589112774
 10
802.7309957757
 20
603.2507699263
 10
802.7311599393
 20
603.4895547179
  0
LINE
  5
12E
330
1F
100
AcDbEntity
  8
0
  6
Continuous
 62
     7
370
    15
100
AcDbLine
 10
679.0056133487
 20
594.6529086329
 30
0.0
 11
723.1344729369
 21
569.1778602442
 31
0.0
  0
LINE
  5
12F
330
1F
100
AcDbEntity
  8
0
  6
Continuous
 62
     7
370
    15
100
AcDbLine
 10
649.734681878
 20
681.9092127144
 30
0.0
 11
655.536080667
 21
631.6626792012
 31
0.0
  0
ARC
  5
130
330
1F
100
AcDbEntity
  8
0
  6
Continuous
 62
     7
370
    15
100
AcDbCircle
 10
646.3757883818
 20
681.4399662291
 30
0.0
 40
3.391512609838636
100
AcDbArc
 50
7.9529030413
 51
55.7574239323
  0
LINE
  5
131
330
1F
100
AcDbEntity
  8
0
  6
Continuous
 62
     7
370
    15
100
AcDbLine
 10
637.5763927613
 20
690.4250800452
 30
0.0
 11
648.284185134
 21
684.2436030848
 31
0.0
  0
LINE
  5
132
330
1F
100
AcDbEntity
  8
0
  6
Continuous
 62
     7
370
    15
100
AcDbLine
 10
634.901811147
 20
696.3829621313
 30
0.0
 11
634.901811147
 21
694.4232641828
 31
0.0
  0
LWPOLYLINE
  5
133
330
1F
100
AcDbEntity
  8
0
  6
Continuous
 62
     7
370
    15
100
AcDbPolyline
 90
       11
 70
   128
 43
0.0
 10
634.9098019925
 20
694.4311411887
 10
634.9096305221
 20
694.1817282602
 10
634.9721329219
 20
693.7008009864
 10
635.0951855332
 20
693.2313149679
 10
635.2770577556
 20
692.775288214
 10
635.5167952206
 20
692.3343278563
 10
635.8140858299
 20
691.9100564413
 10
636.1687873497
 20
691.5045719803
 10
636.5801395231
 20
691.1207801587
 10
637.045933271
 20
690.7623707199
 10
637.5763927613
 20
690.4250800452
  0
LWPOLYLINE
  5
134
330
1F
100
AcDbEntity
  8
0
  6
Continuous
 62
     7
370
    15
100
AcDbPolyline
 90
       34
 70
   128
 43
0.0
 10
655.536080667
 20
631.6626792012
 10
655.6209205975
 20
630.9804969854
 10
655.8159687656
 20
629.6781977227
 10
656.0556802469
 20
628.3633603887
 10
656.339474263
 20
627.0383516193
 10
656.6667040917
 20
625.7055561412
 10
657.0366596705
 20
624.367364804
 10
657.448568328
 20
623.0261735402
 10
657.9015953952
 20
621.6843816008
 10
658.3948448276
 20
620.3443891767
 10
658.9273599324
 20
619.0085945141
 10
659.4981242622
 20
617.6793906292
 10
660.1060627134
 20
616.3591617184
 10
660.7500428508
 20
615.0502793476
 10
661.4288764668
 20
613.7550984973
 10
662.1413213753
 20
612.4759535275
 10
662.8860834317
 20
611.2151541227
 10
663.661813262
 20
609.9749898282
 10
664.4671103486
 20
608.7577213621
 10
665.300537476
 20
607.5655591133
 10
666.1606157165
 20
606.400673075
 10
667.0458273361
 20
605.2651893953
 10
667.9546187906
 20
604.1611871655
 10
668.8854037644
 20
603.0906954932
 10
669.8365661939
 20
602.0556908966
 10
670.8064632039
 20
601.0580950583
 10
671.7934278665
 20
600.0997729711
 10
672.7957716686
 20
599.1825314986
 10
673.8117865505
 20
598.3081183609
 10
674.8397463432
 20
597.4782215286
 10
675.877907403
 20
596.694468975
 10
676.9245082086
 20
595.9584286773
 10
677.9777676646
 20
595.2716086818
 10
679.0056133487
 20
594.6529086329
  0
LINE
  5
135
330
1F
100
AcDbEntity
  8
0
  6
Continuous
 62
     7
370
    15
100
AcDbLine
 10
723.1474576311
 20
565.244452361
 30
0.0
 11
739.2256656457
 21
489.2025569188
 31
0.0
  0
LINE
  5
136
330
1F
100
AcDbEntity
  8
0
  6
Continuous
 62
     7
370
    15
100
AcDbLine
 10
742.3564478509
 20
489.8645257881
 30
0.0
 11
726.2782398363
 21
565.9064212302
 31
0.0
  0
ARC
  5
137
330
1F
100
AcDbEntity
  8
0
  6
Continuous
 62
     7
370
    15
100
AcDbCircle
 10
730.1754491903
 20
566.7600521976
 30
0.0
 40
3.989609530446167
100
AcDbArc
 50
167.7410415049
 51
192.3645473206
  0
ARC
  5
138
330
1F
100
AcDbEntity
  8
0
  6
Continuous
 62
     7
370
    15
100
AcDbCircle
 10
730.3698880475
 20
566.7753679894
 30
0.0
 40
7.382896892145327
100
AcDbArc
 50
161.9968195106
 51
191.9623727029
  0
LINE
  5
139
330
1F
100
AcDbEntity
  8
0
  6
Continuous
 62
     7
370
    15
100
AcDbLine
 10
793.9533929546
 20
519.9413359941
 30
0.0
 11
769.8462776994
 21
582.0545992397
 31
0.0
  0
LINE
  5
13A
330
1F
100
AcDbEntity
  8
0
  6
Continuous
 62
     7
370
    15
100
AcDbLine
 10
766.9387448123
 20
580.701831596
 30
0.0
 11
790.9701992332
 21
518.7835125099
 31
0.0
  0
LWPOLYLINE
  5
13B
330
1F
100
AcDbEntity
  8
0
  6
Continuous
 62
     7
370
    15
100
AcDbPolyline
 90
       13
 70
   128
 43
0.0
 10
744.0887205269
 20
488.1915447468
 10
743.9134227715
 20
488.111872579
 10
743.7749948491
 20
488.0801211634
 10
743.6683601957
 20
488.0812911243
 10
743.6088844894
 20
488.0918799798
 10
743.5626236661
 20
488.1039955962
 10
743.4215771503
 20
488.1555405693
 10
743.2112786457
 20
488.2845652192
 10
742.9182584377
 20
488.5830725538
 10
742.7571221799
 20
488.8140595922
 10
742.6023067118
 20
489.1092380153
 10
742.4646596638
 20
489.4612537406
 10
742.356586818
 20
489.8638578585
  0
LWPOLYLINE
  5
13C
330
1F
100
AcDbEntity
  8
0
  6
Continuous
 62
     7
370
    15
100
AcDbPolyline
 90
       16
 70
   128
 43
0.0
 10
739.2255266786
 20
489.2032248483
 10
739.3643361309
 20
488.6626450153
 10
739.5411961126
 20
488.1347344595
 10
739.7253890917
 20
487.7054341618
 10
739.9990932279
 20
487.196112395
 10
740.2530255145
 20
486.8075571524
 10
740.8003382373
 20
486.1565430924
 10
741.4406112283
 20
485.618564143
 10
742.2162479998
 20
485.1894026385
 10
743.0503110349
 20
484.9431615775
 10
743.5191181662
 20
484.8894070389
 10
744.1340542012
 20
484.9037880083
 10
744.4900922619
 20
484.9591847158
 10
744.8830682739
 20
485.0648755335
 10
745.3064653762
 20
485.2285698457
 10
745.6940406665
 20
485.4233562084
  0
LINE
  5
13D
330
1F
100
AcDbEntity
  8
0
  6
Continuous
 62
     7
370
    15
100
AcDbLine
 10
766.3138815195
 20
501.0218678402
 30
0.0
 11
744.0914456106
 21
488.1931286574
 31
0.0
  0
LINE
  5
13E
330
1F
100
AcDbEntity
  8
0
  6
Continuous
 62
     7
370
    15
100
AcDbLine
 10
790.1361874006
 20
514.7741922989
 30
0.0
 11
767.9137514917
 21
501.9454531161
 31
0.0
  0
LINE
  5
13F
330
1F
100
AcDbEntity
  8
0
  6
Continuous
 62
     7
370
    15
100
AcDbLine
 10
745.6913155828
 20
485.4217722978
 30
0.0
 11
791.7360573728
 21
512.0028359393
 31
0.0
  0
ARC
  5
140
330
1F
100
AcDbEntity
  8
0
  6
Continuous
 62
     7
370
    15
100
AcDbCircle
 10
687.243611503
 20
587.3134566053
 30
0.0
 40
8.448176509399602
100
AcDbArc
 50
134.6435216261
 51
150.2750312003
  0
ARC
  5
141
330
1F
100
AcDbEntity
  8
0
  6
Continuous
 62
     7
370
    15
100
AcDbCircle
 10
685.8623585969
 20
588.2418940336
 30
0.0
 40
9.989261720982253
100
AcDbArc
 50
137.6593063618
 51
151.4914395682
  0
LINE
  5
142
330
1F
100
AcDbEntity
  8
0
  6
Continuous
 62
     7
370
    15
100
AcDbLine
 10
677.0814046229
 20
593.0041802366
 30
0.0
 11
650.0275196438
 21
541.8619120763
 31
0.0
  0
LINE
  5
143
330
1F
100
AcDbEntity
  8
0
  6
Continuous
 62
     7
370
    15
100
AcDbLine
 10
652.8561310267
 20
540.3655973887
 30
0.0
 11
679.9100160059
 21
591.507865549
 31
0.0
  0
LINE
  5
144
330
1F
100
AcDbEntity
  8
0
  6
Continuous
 62
     7
370
    15
100
AcDbLine
 10
767.9137514917
 20
501.9454531161
 30
0.0
 11
735.8936664376
 21
520.4302547577
 31
0.0
  0
LINE
  5
145
330
1F
100
AcDbEntity
  8
0
  6
Continuous
 62
     7
370
    15
100
AcDbLine
 10
732.1681818423
 20
522.5809312362
 30
0.0
 11
677.5897399097
 21
554.0883951087
 31
0.0
  0
LINE
  5
146
330
1F
100
AcDbEntity
  8
0
  6
Continuous
 62
     7
370
    15
100
AcDbLine
 10
675.9898699374
 20
551.3170387491
 30
0.0
 11
733.0580547078
 21
518.3722769301
 31
0.0
  0
LINE
  5
147
330
1F
100
AcDbEntity
  8
0
  6
Continuous
 62
     7
370
    15
100
AcDbLine
 10
736.7835393031
 20
516.2216004517
 30
0.0
 11
764.713491415
 21
500.0979822983
 31
0.0
  0
LWPOLYLINE
  5
148
330
1F
100
AcDbEntity
  8
0
  6
Continuous
 62
     7
370
    15
100
AcDbPolyline
 90
       10
 70
   128
 43
0.0
 10
790.9695705612
 20
518.7851519816
 10
791.1563584641
 20
518.1245210353
 10
791.2267415405
 20
517.4945538726
 10
791.2128586615
 20
516.9676585864
 10
791.1632403474
 20
516.5840305718
 10
791.0594858185
 20
516.1461718379
 10
790.8495876952
 20
515.6125004463
 10
790.5280195648
 20
515.1138678738
 10
790.3350984205
 20
514.9172976812
 10
790.1334623169
 20
514.7726083883
  0
LWPOLYLINE
  5
149
330
1F
100
AcDbEntity
  8
0
  6
Continuous
 62
     7
370
    15
100
AcDbPolyline
 90
       16
 70
   128
 43
0.0
 10
791.7387824564
 20
512.0044198499
 10
792.0959636463
 20
512.2382925387
 10
792.4358394968
 20
512.5046541205
 10
792.7073733975
 20
512.7570868534
 10
793.005289154
 20
513.0884468555
 10
793.2162807439
 20
513.363058417
 10
793.5918802359
 20
513.9556781292
 10
793.9060985216
 20
514.6117499766
 10
794.0957470674
 20
515.1365508756
 10
794.2771668509
 20
515.836413214
 10
794.4017006592
 20
516.7089496293
 10
794.4273549987
 20
517.4584213574
 10
794.3728966726
 20
518.2643086466
 10
794.2780451643
 20
518.8312437592
 10
794.1302378799
 20
519.4153805601
 10
793.9540216266
 20
519.9396965224
  0
LINE
  5
14A
330
1F
100
AcDbEntity
  8
0
  6
Continuous
 62
     7
370
    15
100
AcDbLine
 10
704.6185407966
 20
570.4022341349
 30
0.0
 11
707.4320085046
 21
578.2427000105
 31
0.0
  0
LINE
  5
14B
330
1F
100
AcDbEntity
  8
0
  6
Continuous
 62
     7
370
    15
100
AcDbLine
 10
704.6156407645
 20
579.8685544995
 30
0.0
 11
701.606588565
 21
571.4830411272
 31
0.0
  0
LWPOLYLINE
  5
14C
330
1F
100
AcDbEntity
  8
0
  6
Continuous
 62
     7
370
    15
100
AcDbPolyline
 90
        4
 70
   128
 43
0.0
 10
652.6832474998
 20
540.0314508957
 10
652.6864735387
 20
540.0261577191
 10
652.7314495478
 20
540.1126685577
 10
652.8531989516
 20
540.3601082956
  0
LWPOLYLINE
  5
14D
330
1F
100
AcDbEntity
  8
0
  6
Continuous
 62
     7
370
    15
100
AcDbPolyline
 90
       20
 70
   128
 43
0.0
 10
650.0304517189
 20
541.8674011694
 10
649.8197114968
 20
541.4298509
 10
649.6630354278
 20
541.0276016096
 10
649.5661367803
 20
540.6938606338
 10
649.495676107
 20
540.3012712011
 10
649.4764602027
 20
539.9610900392
 10
649.5818723013
 20
539.2563724568
 10
649.7292061539
 20
538.9030110962
 10
649.9568714284
 20
538.5615696978
 10
650.2716632436
 20
538.2545111099
 10
650.6286416736
 20
538.0300822497
 10
650.9743570044
 20
537.8955442115
 10
651.2871331679
 20
537.8281361465
 10
651.6717023631
 20
537.8053565977
 10
652.2206797479
 20
537.8676767297
 10
652.5529881366
 20
537.9496215061
 10
652.9259437434
 20
538.0782704999
 10
653.2067143923
 20
538.1991063217
 10
653.5029226416
 20
538.3443020785
 10
653.7701591122
 20
538.4898834768
  0
LINE
  5
14E
330
1F
100
AcDbEntity
  8
0
  6
Continuous
 62
     7
370
    15
100
AcDbLine
 10
698.2123058463
 20
567.8407195674
 30
0.0
 11
653.8397286958
 21
542.2249760248
 31
0.0
  0
LINE
  5
14F
330
1F
100
AcDbEntity
  8
0
  6
Continuous
 62
     7
370
    15
100
AcDbLine
 10
679.1901300141
 20
553.1645095668
 30
0.0
 11
699.8121758185
 21
565.0693632078
 31
0.0
  0
LINE
  5
150
330
1F
100
AcDbEntity
  8
0
  6
Continuous
 62
     7
370
    15
100
AcDbLine
 10
653.7674340286
 20
538.4882995663
 30
0.0
 11
675.9898699374
 21
551.3170387491
 31
0.0
  0
LWPOLYLINE
  5
151
330
1F
100
AcDbEntity
  8
0
  6
Continuous
 62
     7
370
    15
100
AcDbPolyline
 90
       12
 70
   128
 43
0.0
 10
701.6087456205
 20
571.488995204
 10
701.4361957916
 20
571.1148031472
 10
701.1722349058
 20
570.6808127485
 10
700.8617985656
 20
570.2512009058
 10
700.5052105611
 20
569.8151656378
 10
700.116382934
 20
569.3901017476
 10
699.9023982356
 20
569.1742241054
 10
699.6352511408
 20
568.9198541168
 10
699.3185677208
 20
568.6390158753
 10
698.9640634367
 20
568.3515414375
 10
698.5858275525
 20
568.0767431591
 10
698.2095807627
 20
567.8391356568
  0
LWPOLYLINE
  5
152
330
1F
100
AcDbEntity
  8
0
  6
Continuous
 62
     7
370
    15
100
AcDbPolyline
 90
       15
 70
   128
 43
0.0
 10
699.8149009022
 20
565.0709471183
 10
700.1695909968
 20
565.2889388184
 10
700.5526435864
 20
565.546830596
 10
700.8984248637
 20
565.8025961164
 10
701.3774405029
 20
566.1904389307
 10
701.7984654589
 20
566.5622099571
 10
702.2451269096
 20
566.9911358955
 10
702.5954718774
 20
567.3546122987
 10
702.9333402008
 20
567.7312724224
 10
703.4110449323
 20
568.3174027767
 10
703.8452329763
 20
568.9212181621
 10
704.059307714
 20
569.2567812674
 10
704.2679647929
 20
569.624495265
 10
704.4629937734
 20
570.0229940186
 10
704.6163837412
 20
570.3962800581
  0
LINE
  5
153
330
1F
100
AcDbEntity
  8
0
  6
Continuous
 62
     7
370
    15
100
AcDbLine
 10
747.6947784239
 20
590.1620459443
 30
0.0
 11
757.9695981631
 21
584.2305187649
 31
0.0
  0
LWPOLYLINE
  5
154
330
1F
100
AcDbEntity
  8
0
  6
Continuous
 62
     7
370
    15
100
AcDbPolyline
 90
       11
 70
   128
 43
0.0
 10
744.8947751177
 20
588.974168709
 10
744.9802701258
 20
589.380550089
 10
745.1210950943
 20
589.7362863675
 10
745.3143795806
 20
590.034126554
 10
745.5561838572
 20
590.2679997567
 10
745.8415792154
 20
590.4331389264
 10
746.1647484271
 20
590.5261780228
 10
746.5191043178
 20
590.5452206256
 10
746.8974240335
 20
590.4898785882
 10
747.2919962641
 20
590.3612799502
 10
747.6947784239
 20
590.1620459443
  0
LINE
  5
155
330
1F
100
AcDbEntity
  8
0
  6
Continuous
 62
     7
370
    15
100
AcDbLine
 10
743.80306187
 20
580.7791891479
 30
0.0
 11
744.8947751177
 21
588.974168709
 31
0.0
  0
LWPOLYLINE
  5
156
330
1F
100
AcDbEntity
  8
0
  6
Continuous
 62
     7
370
    15
100
AcDbPolyline
 90
       30
 70
   128
 43
0.0
 10
722.8030370731
 20
571.8701098831
 10
723.8478454412
 20
571.2966847575
 10
724.8901177406
 20
570.7841113232
 10
725.9273240581
 20
570.3336337525
 10
726.9569467774
 20
569.946345492
 10
727.97648669
 20
569.6231866083
 10
728.9834690613
 20
569.3649415069
 10
729.9754496376
 20
569.1722370273
 10
730.9500205794
 20
569.0455409222
 10
731.9048163055
 20
568.9851607217
 10
732.8375192353
 20
568.991242987
 10
733.745865414
 20
569.0637729545
 10
734.6276500082
 20
569.2025745719
 10
735.4807326575
 20
569.4073109253
 10
736.30304267
 20
569.6774850571
 10
737.0925840483
 20
570.0124411721
 10
737.8474403344
 20
570.4113662297
 10
738.5657792617
 20
570.873291917
 10
739.2458572025
 20
571.3970969993
 10
739.8860233999
 20
571.9815100418
 10
740.4847239752
 20
572.6251124957
 10
741.0405056993
 20
573.3263421414
 10
741.5520195205
 20
574.0834968805
 10
742.0180238384
 20
574.8947388673
 10
742.4373875184
 20
575.7580989699
 10
742.8090926368
 20
576.6714815498
 10
743.1322369518
 20
577.6326695487
 10
743.4060360936
 20
578.63932987
 10
743.629825468
 20
579.6890190417
 10
743.80306187
 20
580.7791891479
  0
LINE
  5
157
330
1F
100
AcDbEntity
  8
0
  6
Continuous
 62
     7
370
    15
100
AcDbLine
 10
678.6741774849
 20
597.3451582717
 30
0.0
 11
722.8030370731
 21
571.8701098831
 31
0.0
  0
LWPOLYLINE
  5
158
330
1F
100
AcDbEntity
  8
0
  6
Continuous
 62
     7
370
    15
100
AcDbPolyline
 90
       30
 70
   128
 43
0.0
 10
657.6741526879
 20
630.5003500741
 10
657.8473890899
 20
629.2101654756
 10
658.0711784644
 20
627.9020945919
 10
658.3449776062
 20
626.5793125104
 10
658.6681219212
 20
625.2450300269
 10
659.0398270396
 20
623.9024858522
 10
659.4591907196
 20
622.5549387509
 10
659.9251950375
 20
621.2056596311
 10
660.4367088586
 20
619.857923605
 10
660.9924905828
 20
618.5150020394
 10
661.5911911581
 20
617.1801546148
 10
662.2313573555
 20
615.8566214134
 10
662.9114352962
 20
614.5476150542
 10
663.6297742236
 20
613.2563128952
 10
664.3846305097
 20
611.9858493208
 10
665.174171888
 20
610.7393081341
 10
665.9964819005
 20
609.5197150708
 10
666.8495645498
 20
608.3300304557
 10
667.731349144
 20
607.1731420165
 10
668.6396953227
 20
606.0518578744
 10
669.5723982524
 20
604.9688997284
 10
670.5271939785
 20
603.9268962484
 10
671.5017649203
 20
602.928376695
 10
672.4937454967
 20
601.9757647798
 10
673.5007278679
 20
601.0713727828
 10
674.5202677805
 20
600.2173959394
 10
675.5498904999
 20
599.4159071121
 10
676.5870968174
 20
598.6688517588
 10
677.6293691167
 20
597.9780432109
 10
678.6741774849
 20
597.3451582717
  0
LINE
  5
159
330
1F
100
AcDbEntity
  8
0
  6
Continuous
 62
     7
370
    15
100
AcDbLine
 10
651.7339935053
 20
681.9487021526
 30
0.0
 11
657.6741526879
 21
630.5003500741
 31
0.0
  0
ARC
  5
15A
330
1F
100
AcDbEntity
  8
0
  6
Continuous
 62
     7
370
    15
100
AcDbCircle
 10
645.5796995801
 20
681.1477474725
 30
0.0
 40
6.206195462468324
100
AcDbArc
 50
7.4151193042
 51
57.2840515213
  0
LINE
  5
15B
330
1F
100
AcDbEntity
  8
0
  6
Continuous
 62
     7
370
    15
100
AcDbLine
 10
637.2449568975
 20
693.117329684
 30
0.0
 11
648.9339901991
 21
686.3693943929
 31
0.0
  0
LWPOLYLINE
  5
15C
330
1F
100
AcDbEntity
  8
0
  6
Continuous
 62
     7
370
    15
100
AcDbPolyline
 90
       17
 70
   128
 43
0.0
 10
769.2833066621
 20
584.2305187649
 10
768.7015986859
 20
583.9261557239
 10
768.0710142768
 20
583.656173691
 10
767.3976263072
 20
583.4231727408
 10
766.6879198715
 20
583.2293967997
 10
765.9487298307
 20
583.0767120361
 10
765.1871749887
 20
582.9665888877
 10
764.4105895353
 20
582.9000879005
 10
763.6264524126
 20
582.8778495156
 10
762.84231529
 20
582.9000879005
 10
762.0657298365
 20
582.9665888877
 10
761.3041749946
 20
583.0767120361
 10
760.5649849537
 20
583.2293967997
 10
759.855278518
 20
583.4231727408
 10
759.1818905485
 20
583.656173691
 10
758.5513061393
 20
583.9261557239
 10
757.9695981631
 20
584.2305187649
  0
LINE
  5
15D
330
1F
100
AcDbEntity
  8
0
  6
Continuous
 62
     7
370
    15
100
AcDbLine
 10
800.3960050343
 20
602.191497225
 30
0.0
 11
769.2833066621
 21
584.2305187649
 31
0.0
  0
LWPOLYLINE
  5
15E
330
1F
100
AcDbEntity
  8
0
  6
Continuous
 62
     7
370
    15
100
AcDbPolyline
 90
        9
 70
   128
 43
0.0
 10
802.7391507848
 20
605.4571296723
 10
802.7006285982
 20
605.0044569469
 10
802.5854330281
 20
604.5561437072
 10
802.3946734707
 20
604.1165074549
 10
802.1301870449
 20
603.6897821274
 10
801.7945208996
 20
603.2800773228
 10
801.3909076832
 20
602.8913387226
 10
800.9232344117
 20
602.5273100917
 10
800.3960050343
 20
602.191497225
  0
LWPOLYLINE
  5
15F
330
1F
100
AcDbEntity
  8
0
  6
Continuous
 62
     7
370
    15
100
AcDbPolyline
 90
        9
 70
   128
 43
0.0
 10
637.2449568975
 20
693.117329684
 10
636.7177275201
 20
693.4531425507
 10
636.2500542486
 20
693.8171711815
 10
635.8464410322
 20
694.2059097818
 10
635.5107748869
 20
694.6156145863
 10
635.2462884612
 20
695.0423399138
 10
635.0555289038
 20
695.4819761661
 10
634.9403333336
 20
695.9302894058
 10
634.901811147
 20
696.3829621313
  0
LWPOLYLINE
  5
160
330
1F
100
AcDbEntity
  8
0
  6
Continuous
 62
     7
370
    15
100
AcDbPolyline
 90
       30
 70
   128
 43
0.0
 10
678.6741774849
 20
597.3451582717
 10
677.6293691167
 20
597.9780432109
 10
676.5870968174
 20
598.6688517588
 10
675.5498904999
 20
599.4159071121
 10
674.5202677805
 20
600.2173959394
 10
673.5007278679
 20
601.0713727828
 10
672.4937454967
 20
601.9757647798
 10
671.5017649203
 20
602.928376695
 10
670.5271939785
 20
603.9268962484
 10
669.5723982524
 20
604.9688997284
 10
668.6396953227
 20
606.0518578744
 10
667.731349144
 20
607.1731420165
 10
666.8495645498
 20
608.3300304557
 10
665.9964819005
 20
609.5197150708
 10
665.174171888
 20
610.7393081341
 10
664.3846305097
 20
611.9858493208
 10
663.6297742236
 20
613.2563128952
 10
662.9114352962
 20
614.5476150542
 10
662.2313573555
 20
615.8566214134
 10
661.5911911581
 20
617.1801546148
 10
660.9924905828
 20
618.5150020394
 10
660.4367088586
 20
619.857923605
 10
659.9251950375
 20
621.2056596311
 10
659.4591907196
 20
622.5549387509
 10
659.0398270396
 20
623.9024858522
 10
658.6681219212
 20
625.2450300269
 10
658.3449776062
 20
626.5793125104
 10
658.0711784644
 20
627.9020945919
 10
657.8473890899
 20
629.2101654756
 10
657.6741526879
 20
630.5003500741
  0
LWPOLYLINE
  5
161
330
1F
100
AcDbEntity
  8
0
  6
Continuous
 62
     7
370
    15
100
AcDbPolyline
 90
       30
 70
   128
 43
0.0
 10
743.80306187
 20
580.7791891479
 10
743.629825468
 20
579.6890190417
 10
743.4060360936
 20
578.63932987
 10
743.1322369518
 20
577.6326695487
 10
742.8090926368
 20
576.6714815498
 10
742.4373875184
 20
575.7580989699
 10
742.0180238384
 20
574.8947388673
 10
741.5520195205
 20
574.0834968805
 10
741.0405056993
 20
573.3263421414
 10
740.4847239752
 20
572.6251124957
 10
739.8860233999
 20
571.9815100418
 10
739.2458572025
 20
571.3970969993
 10
738.5657792617
 20
570.873291917
 10
737.8474403344
 20
570.4113662297
 10
737.0925840483
 20
570.0124411721
 10
736.30304267
 20
569.6774850571
 10
735.4807326575
 20
569.4073109253
 10
734.6276500082
 20
569.2025745719
 10
733.745865414
 20
569.0637729545
 10
732.8375192353
 20
568.991242987
 10
731.9048163055
 20
568.9851607217
 10
730.9500205794
 20
569.0455409222
 10
729.9754496376
 20
569.1722370273
 10
728.9834690613
 20
569.3649415069
 10
727.97648669
 20
569.6231866083
 10
726.9569467774
 20
569.946345492
 10
725.9273240581
 20
570.3336337525
 10
724.8901177406
 20
570.7841113232
 10
723.8478454412
 20
571.2966847575
 10
722.8030370731
 20
571.8701098831
  0
LWPOLYLINE
  5
162
330
1F
100
AcDbEntity
  8
0
  6
Continuous
 62
     7
370
    15
100
AcDbPolyline
 90
       11
 70
   128
 43
0.0
 10
747.6947784239
 20
590.1620459443
 10
747.2919962641
 20
590.3612799502
 10
746.8974240335
 20
590.4898785882
 10
746.5191043178
 20
590.5452206256
 10
746.1647484271
 20
590.5261780228
 10
745.8415792154
 20
590.4331389264
 10
745.5561838572
 20
590.2679997567
 10
745.3143795806
 20
590.034126554
 10
745.1210950943
 20
589.7362863675
 10
744.9802701258
 20
589.380550089
 10
744.8947751177
 20
588.974168709
  0
LWPOLYLINE
  5
163
330
1F
100
AcDbEntity
  8
0
  6
Continuous
 62
     7
370
    15
100
AcDbPolyline
 90
       17
 70
   128
 43
0.0
 10
757.9695981631
 20
584.2305187649
 10
758.5513061393
 20
583.9261557239
 10
759.1818905485
 20
583.656173691
 10
759.855278518
 20
583.4231727408
 10
760.5649849537
 20
583.2293967997
 10
761.3041749946
 20
583.0767120361
 10
762.0657298365
 20
582.9665888877
 10
762.84231529
 20
582.9000879005
 10
763.6264524126
 20
582.8778495156
 10
764.4105895353
 20
582.9000879005
 10
765.1871749887
 20
582.9665888877
 10
765.9487298307
 20
583.0767120361
 10
766.6879198715
 20
583.2293967997
 10
767.3976263072
 20
583.4231727408
 10
768.0710142768
 20
583.656173691
 10
768.7015986859
 20
583.9261557239
 10
769.2833066621
 20
584.2305187649
  0
LWPOLYLINE
  5
164
330
1F
100
AcDbEntity
  8
0
  6
Continuous
 62
     7
370
    15
100
AcDbPolyline
 90
        9
 70
   128
 43
0.0
 10
800.3960050343
 20
602.191497225
 10
800.9232344117
 20
602.5273100917
 10
801.3909076832
 20
602.8913387226
 10
801.7945208996
 20
603.2800773228
 10
802.1301870449
 20
603.6897821274
 10
802.3946734707
 20
604.1165074549
 10
802.5854330281
 20
604.5561437072
 10
802.7006285982
 20
605.0044569469
 10
802.7391507848
 20
605.4571296723
  0
LWPOLYLINE
  5
165
330
1F
100
AcDbEntity
  8
0
  6
Continuous
 62
     7
370
    15
100
AcDbPolyline
 90
        9
 70
   128
 43
0.0
 10
634.901811147
 20
696.3829621313
 10
634.9403333336
 20
695.9302894058
 10
635.0555289038
 20
695.4819761661
 10
635.2462884612
 20
695.0423399138
 10
635.5107748869
 20
694.6156145863
 10
635.8464410322
 20
694.2059097818
 10
636.2500542486
 20
693.8171711815
 10
636.7177275201
 20
693.4531425507
 10
637.2449568975
 20
693.117329684
  0
LINE
  5
166
330
1F
100
AcDbEntity
  8
0
  6
Continuous
 62
     7
370
    15
100
AcDbLine
 10
767.9137514917
 20
501.9454531161
 30
0.0
 11
767.9137514917
 21
501.4044475974
 31
0.0
  0
ELLIPSE
  5
167
330
1F
100
AcDbEntity
  8
0
  6
Continuous
 62
     7
370
    15
100
AcDbEllipse
 10
767.9137514917
 20
500.0979822983
 30
0.0
 11
2.262741699797061
 21
0.0
 31
0.0
210
0.0
220
0.0
230
1.0
 40
0.5773815452
 41
1.570796326794897
 42
2.356113226129753
  0
LINE
  5
168
330
1F
100
AcDbEntity
  8
0
  6
Continuous
 62
     7
370
    15
100
AcDbLine
 10
675.9898699374
 20
554.4709748658
 30
0.0
 11
675.9898699374
 21
551.3170387491
 31
0.0
  0
ELLIPSE
  5
169
330
1F
100
AcDbEntity
  8
0
  6
Continuous
 62
     7
370
    15
100
AcDbEllipse
 10
675.9898699374
 20
553.1645095668
 30
0.0
 11
2.262741699796948
 21
0.0
 31
0.0
210
0.0
220
0.0
230
1.0
 40
0.5773815452
 41
0.78547942746003
 42
1.570796326794897
  0
ARC
  5
16A
330
1F
100
AcDbEntity
  8
0
  6
Continuous
 62
     7
370
    15
100
AcDbCircle
 10
769.4427250941
 20
177.3117653106
 30
0.0
 40
2.400670081968349
100
AcDbArc
 50
270.0177401638
 51
5.9830350741
  0
ARC
  5
16B
330
1F
100
AcDbEntity
  8
0
  6
Continuous
 62
     7
370
    15
100
AcDbCircle
 10
769.445157331
 20
177.3095735123
 30
0.0
 40
5.598478423416582
100
AcDbArc
 50
269.9827151904
 51
5.9986399108
  0
LINE
  5
16C
330
1F
100
AcDbEntity
  8
0
  6
Continuous
 62
     7
370
    15
100
AcDbLine
 10
736.8849192421
 20
174.9110953437
 30
0.0
 11
704.3263700844
 21
174.9110953437
 31
0.0
  0
LINE
  5
16D
330
1F
100
AcDbEntity
  8
0
  6
Continuous
 62
     7
370
    15
100
AcDbLine
 10
769.4434683998
 20
174.9110953437
 30
0.0
 11
736.8849192421
 21
174.9110953437
 31
0.0
  0
LINE
  5
16E
330
1F
100
AcDbEntity
  8
0
  6
Continuous
 62
     7
370
    15
100
AcDbLine
 10
736.8849192421
 20
171.7110953437
 30
0.0
 11
769.4434683998
 21
171.7110953437
 31
0.0
  0
LINE
  5
16F
330
1F
100
AcDbEntity
  8
0
  6
Continuous
 62
     7
370
    15
100
AcDbLine
 10
704.3263700844
 20
171.7110953437
 30
0.0
 11
736.8849192421
 21
171.7110953437
 31
0.0
  0
ARC
  5
170
330
1F
100
AcDbEntity
  8
0
  6
Continuous
 62
     7
370
    15
100
AcDbCircle
 10
704.3277521989
 20
177.3123404888
 30
0.0
 40
2.401245542834163
100
AcDbArc
 50
174.0322032016
 51
269.9670215605
  0
ARC
  5
171
330
1F
100
AcDbEntity
  8
0
  6
Continuous
 62
     7
370
    15
100
AcDbCircle
 10
704.3275372573
 20
177.3121460016
 30
0.0
 40
5.601050779537598
100
AcDbArc
 50
174.0305844583
 51
269.9880604405
  0
LINE
  5
172
330
1F
100
AcDbEntity
  8
0
  6
Continuous
 62
     7
370
    15
100
AcDbLine
 10
775.0129218313
 20
177.8952087524
 30
0.0
 11
767.2519462215
 21
251.8952087524
 31
0.0
  0
LINE
  5
173
330
1F
100
AcDbEntity
  8
0
  6
Continuous
 62
     7
370
    15
100
AcDbLine
 10
764.0694014035
 20
251.5614296617
 30
0.0
 11
771.8303770133
 21
177.5614296617
 31
0.0
  0
LINE
  5
174
330
1F
100
AcDbEntity
  8
0
  6
Continuous
 62
     7
370
    15
100
AcDbLine
 10
706.5178922627
 20
251.8952087524
 30
0.0
 11
698.7569166529
 21
177.8952087524
 31
0.0
  0
LINE
  5
175
330
1F
100
AcDbEntity
  8
0
  6
Continuous
 62
     7
370
    15
100
AcDbLine
 10
701.9394614709
 20
177.5614296617
 30
0.0
 11
709.7004370807
 21
251.5614296617
 31
0.0
  0
ARC
  5
176
330
1F
100
AcDbEntity
  8
0
  6
Continuous
 62
     7
370
    15
100
AcDbCircle
 10
712.0881907801
 20
251.3101675446
 30
0.0
 40
2.400938368159728
100
AcDbArc
 50
90.0201670559
 51
173.9792968458
  0
ARC
  5
177
330
1F
100
AcDbEntity
  8
0
  6
Continuous
 62
     7
370
    15
100
AcDbCircle
 10
712.056924478
 20
251.3204168184
 30
0.0
 40
5.568775723876755
100
AcDbArc
 50
133.5004424226
 51
174.0814196996
  0
ARC
  5
178
330
1F
100
AcDbEntity
  8
0
  6
Continuous
 62
     7
370
    15
100
AcDbCircle
 10
761.6811520728
 20
251.3096170851
 30
0.0
 40
2.401489053233967
100
AcDbArc
 50
6.0325235209
 51
89.9680125773
  0
ARC
  5
179
330
1F
100
AcDbEntity
  8
0
  6
Continuous
 62
     7
370
    15
100
AcDbCircle
 10
761.6786067135
 20
251.3092819743
 30
0.0
 40
5.604053379303876
100
AcDbArc
 50
5.995647618
 51
45.9897262351
  0
LINE
  5
17A
330
1F
100
AcDbEntity
  8
0
  6
Continuous
 62
     7
370
    15
100
AcDbLine
 10
712.0873456942
 20
253.7110953437
 30
0.0
 11
761.68249279
 21
253.7110953437
 31
0.0
  0
LINE
  5
17B
330
1F
100
AcDbEntity
  8
0
  6
Continuous
 62
     7
370
    15
100
AcDbLine
 10
762.8849192421
 20
306.3110953437
 30
0.0
 11
758.8849192421
 21
306.3110953437
 31
0.0
  0
ARC
  5
17C
330
1F
100
AcDbEntity
  8
0
  6
Continuous
 62
     7
370
    15
100
AcDbCircle
 10
762.8849192421
 20
302.3110953437
 30
0.0
 40
4.0
100
AcDbArc
 50
0.0
 51
90.0
  0
LINE
  5
17D
330
1F
100
AcDbEntity
  8
0
  6
Continuous
 62
     7
370
    15
100
AcDbLine
 10
766.8849192421
 20
302.3110953437
 30
0.0
 11
766.8849192421
 21
299.3110953437
 31
0.0
  0
LINE
  5
17E
330
1F
100
AcDbEntity
  8
0
  6
Continuous
 62
     7
370
    15
100
AcDbLine
 10
766.8849192421
 20
299.3110953437
 30
0.0
 11
758.8849192421
 21
299.3110953437
 31
0.0
  0
LINE
  5
17F
330
1F
100
AcDbEntity
  8
0
  6
Continuous
 62
     7
370
    15
100
AcDbLine
 10
758.8849192421
 20
299.3110953437
 30
0.0
 11
714.8849192421
 21
299.3110953437
 31
0.0
  0
LINE
  5
180
330
1F
100
AcDbEntity
  8
0
  6
Continuous
 62
     7
370
    15
100
AcDbLine
 10
714.8849192421
 20
306.3110953437
 30
0.0
 11
758.8849192421
 21
306.3110953437
 31
0.0
  0
LINE
  5
181
330
1F
100
AcDbEntity
  8
0
  6
Continuous
 62
     7
370
    15
100
AcDbLine
 10
714.8849192421
 20
306.3110953437
 30
0.0
 11
710.8849192421
 21
306.3110953437
 31
0.0
  0
ARC
  5
182
330
1F
100
AcDbEntity
  8
0
  6
Continuous
 62
     7
370
    15
100
AcDbCircle
 10
710.8849192421
 20
302.3110953437
 30
0.0
 40
4.000000000000114
100
AcDbArc
 50
90.0
 51
180.0
  0
LINE
  5
183
330
1F
100
AcDbEntity
  8
0
  6
Continuous
 62
     7
370
    15
100
AcDbLine
 10
706.8849192421
 20
299.3110953437
 30
0.0
 11
706.8849192421
 21
302.3110953437
 31
0.0
  0
LINE
  5
184
330
1F
100
AcDbEntity
  8
0
  6
Continuous
 62
     7
370
    15
100
AcDbLine
 10
714.8849192421
 20
299.3110953437
 30
0.0
 11
706.8849192421
 21
299.3110953437
 31
0.0
  0
LINE
  5
185
330
1F
100
AcDbEntity
  8
0
  6
Continuous
 62
     7
370
    15
100
AcDbLine
 10
766.8849192421
 20
344.3009875576
 30
0.0
 11
766.8849192421
 21
302.3110953437
 31
0.0
  0
LINE
  5
186
330
1F
100
AcDbEntity
  8
0
  6
Continuous
 62
     7
370
    15
100
AcDbLine
 10
706.8849192421
 20
302.3110953437
 30
0.0
 11
706.8849192421
 21
344.3009875576
 31
0.0
  0
ARC
  5
187
330
1F
100
AcDbEntity
  8
0
  6
Continuous
 62
     7
370
    15
100
AcDbCircle
 10
762.8849192421
 20
350.3110953437
 30
0.0
 40
4.0
100
AcDbArc
 50
0.0
 51
90.0
  0
LINE
  5
188
330
1F
100
AcDbEntity
  8
0
  6
Continuous
 62
     7
370
    15
100
AcDbLine
 10
766.8849192421
 20
350.3110953437
 30
0.0
 11
766.8849192421
 21
344.3009875576
 31
0.0
  0
LINE
  5
189
330
1F
100
AcDbEntity
  8
0
  6
Continuous
 62
     7
370
    15
100
AcDbLine
 10
762.8849192421
 20
354.3110953437
 30
0.0
 11
710.8849192421
 21
354.3110953437
 31
0.0
  0
ARC
  5
18A
330
1F
100
AcDbEntity
  8
0
  6
Continuous
 62
     7
370
    15
100
AcDbCircle
 10
710.8849192421
 20
350.3110953437
 30
0.0
 40
4.000000000000114
100
AcDbArc
 50
90.0
 51
180.0
  0
LINE
  5
18B
330
1F
100
AcDbEntity
  8
0
  6
Continuous
 62
     7
370
    15
100
AcDbLine
 10
706.8849192421
 20
344.3009875576
 30
0.0
 11
706.8849192421
 21
350.3110953437
 31
0.0
  0
LINE
  5
18C
330
1F
100
AcDbEntity
  8
0
  6
Continuous
 62
     7
370
    15
100
AcDbLine
 10
766.8849192421
 20
299.3110953437
 30
0.0
 11
766.8849192421
 21
296.9110953437
 31
0.0
  0
ARC
  5
18D
330
1F
100
AcDbEntity
  8
0
  6
Continuous
 62
     7
370
    15
100
AcDbCircle
 10
765.2849192421
 20
296.9110953437
 30
0.0
 40
1.60000000000008
100
AcDbArc
 50
270.0
 51
0.0
  0
LINE
  5
18E
330
1F
100
AcDbEntity
  8
0
  6
Continuous
 62
     7
370
    15
100
AcDbLine
 10
765.2849192421
 20
295.3110953437
 30
0.0
 11
758.8849192421
 21
295.3110953437
 31
0.0
  0
LINE
  5
18F
330
1F
100
AcDbEntity
  8
0
  6
Continuous
 62
     7
370
    15
100
AcDbLine
 10
758.8849192421
 20
295.3110953437
 30
0.0
 11
714.8849192421
 21
295.3110953437
 31
0.0
  0
LINE
  5
190
330
1F
100
AcDbEntity
  8
0
  6
Continuous
 62
     7
370
    15
100
AcDbLine
 10
706.8849192421
 20
296.9110953437
 30
0.0
 11
706.8849192421
 21
299.3110953437
 31
0.0
  0
LINE
  5
191
330
1F
100
AcDbEntity
  8
0
  6
Continuous
 62
     7
370
    15
100
AcDbLine
 10
714.8849192421
 20
295.3110953437
 30
0.0
 11
708.4849192421
 21
295.3110953437
 31
0.0
  0
ARC
  5
192
330
1F
100
AcDbEntity
  8
0
  6
Continuous
 62
     7
370
    15
100
AcDbCircle
 10
708.4849192421
 20
296.9110953437
 30
0.0
 40
1.600000000000136
100
AcDbArc
 50
180.0
 51
270.0
  0
LINE
  5
193
330
1F
100
AcDbEntity
  8
0
  6
Continuous
 62
     7
370
    15
100
AcDbLine
 10
766.8849192421
 20
294.1636174986
 30
0.0
 11
766.8849192421
 21
296.9110953437
 31
0.0
  0
LINE
  5
194
330
1F
100
AcDbEntity
  8
0
  6
Continuous
 62
     7
370
    15
100
AcDbLine
 10
706.8849192421
 20
296.9110953437
 30
0.0
 11
706.8849192421
 21
294.1636174986
 31
0.0
  0
LINE
  5
195
330
1F
100
AcDbEntity
  8
0
  6
Continuous
 62
     7
370
    15
100
AcDbLine
 10
766.8849192421
 20
294.1636174986
 30
0.0
 11
766.8849192421
 21
284.729308525
 31
0.0
  0
LINE
  5
196
330
1F
100
AcDbEntity
  8
0
  6
Continuous
 62
     7
370
    15
100
AcDbLine
 10
706.8849192421
 20
284.729308525
 30
0.0
 11
706.8849192421
 21
294.1636174986
 31
0.0
  0
ARC
  5
197
330
1F
100
AcDbEntity
  8
0
  6
Continuous
 62
     7
370
    15
100
AcDbCircle
 10
765.2849192421
 20
256.9110953437
 30
0.0
 40
1.600000000000023
100
AcDbArc
 50
279.6172189383
 51
0.0
  0
LINE
  5
198
330
1F
100
AcDbEntity
  8
0
  6
Continuous
 62
     7
370
    15
100
AcDbLine
 10
766.8849192421
 20
284.729308525
 30
0.0
 11
766.8849192421
 21
256.9110953437
 31
0.0
  0
ARC
  5
199
330
1F
100
AcDbEntity
  8
0
  6
Continuous
 62
     7
370
    15
100
AcDbCircle
 10
708.4849192421
 20
256.9110953437
 30
0.0
 40
1.600000000000136
100
AcDbArc
 50
180.0
 51
260.4267006826
  0
LINE
  5
19A
330
1F
100
AcDbEntity
  8
0
  6
Continuous
 62
     7
370
    15
100
AcDbLine
 10
708.2725393052
 20
255.325253371
 30
0.0
 11
708.4849192421
 21
255.3110953437
 31
0.0
  0
LINE
  5
19B
330
1F
100
AcDbEntity
  8
0
  6
Continuous
 62
     7
370
    15
100
AcDbLine
 10
706.8849192421
 20
256.9110953437
 30
0.0
 11
706.8849192421
 21
284.729308525
 31
0.0
  0
LWPOLYLINE
  5
19C
330
1F
100
AcDbEntity
  8
0
  6
Continuous
 62
     7
370
    15
100
AcDbPolyline
 90
        7
 70
   128
 43
0.0
 10
767.2519462215
 20
251.8952087524
 10
767.2457871741
 20
251.9291996578
 10
767.175724707
 20
252.051998288
 10
767.034820144
 20
252.1596620442
 10
766.8296620257
 20
252.2471566887
 10
766.5698433179
 20
252.3103910692
 10
766.2675128544
 20
252.3464084164
  0
ENDSEC
  0
SECTION
  2
OBJECTS
  0
DICTIONARY
  5
C
330
0
100
AcDbDictionary
281
     1
  3
ACAD_GROUP
350
D
  3
ACAD_LAYOUT
350
1A
  3
ACAD_MLINESTYLE
350
17
  3
ACAD_PLOTSETTINGS
350
19
  3
ACAD_PLOTSTYLENAME
350
E
  3
ACAD_SCALELIST
350
47
  0
DICTIONARY
  5
D
102
{ACAD_REACTORS
330
C
102
}
330
C
100
AcDbDictionary
281
     1
  0
DICTIONARY
  5
1A
102
{ACAD_REACTORS
330
C
102
}
330
C
100
AcDbDictionary
281
     1
  3
Layout1
350
1E
  3
Layout2
350
26
  3
Model
350
22
  0
DICTIONARY
  5
17
102
{ACAD_REACTORS
330
C
102
}
330
C
100
AcDbDictionary
281
     1
  3
Standard
350
18
  0
DICTIONARY
  5
19
102
{ACAD_REACTORS
330
C
102
}
330
C
100
AcDbDictionary
281
     1
  0
ACDBDICTIONARYWDFLT
  5
E
102
{ACAD_REACTORS
330
C
102
}
330
C
100
AcDbDictionary
281
     1
  3
Normal
350
F
100
AcDbDictionaryWithDefault
340
F
  0
DICTIONARY
  5
47
102
{ACAD_REACTORS
330
C
102
}
330
C
100
AcDbDictionary
281
     1
  3
A0
350
48
  3
A1
350
49
  3
A2
350
4A
  3
A3
350
4B
  3
A4
350
4C
  3
A5
350
4D
  3
A6
350
4E
  3
A7
350
4F
  3
A8
350
50
  3
A9
350
51
  3
B0
350
52
  3
B1
350
53
  3
B2
350
54
  3
B3
350
55
  3
B4
350
56
  3
B5
350
57
  3
B6
350
58
  3
B7
350
59
  3
B8
350
5A
  3
B9
350
5B
  3
C0
350
5C
  3
C1
350
5D
  3
C2
350
5E
  3
C3
350
5F
  3
C4
350
60
  3
C5
350
61
  3
C6
350
62
  3
C7
350
63
  3
C8
350
64
  3
C9
350
65
  3
D0
350
66
  3
D1
350
67
  3
D2
350
68
  0
LAYOUT
  5
1E
102
{ACAD_REACTORS
330
1A
102
}
330
1A
100
AcDbPlotSettings
  1

  2
none_device
  4

  6

 40
0.0
 41
0.0
 42
0.0
 43
0.0
 44
0.0
 45
0.0
 46
0.0
 47
0.0
 48
0.0
 49
0.0
140
0.0
141
0.0
142
1.0
143
1.0
 70
   688
 72
     1
 73
     0
 74
     5
  7

 75
    16
147
1.0
148
0.0
149
0.0
100
AcDbLayout
  1
Layout1
 70
     1
 71
     1
 10
0.0
 20
0.0
 11
420.0
 21
297.0
 12
0.0
 22
0.0
 32
0.0
 14
1.0000000000E+20
 24
1.0000000000E+20
 34
1.0000000000E+20
 15
-1.0000000000E+20
 25
-1.0000000000E+20
 35
-1.0000000000E+20
146
0.0
 13
0.0
 23
0.0
 33
0.0
 16
1.0
 26
0.0
 36
0.0
 17
0.0
 27
1.0
 37
0.0
 76
     0
330
1B
  0
LAYOUT
  5
26
102
{ACAD_REACTORS
330
1A
102
}
330
1A
100
AcDbPlotSettings
  1

  2
none_device
  4

  6

 40
0.0
 41
0.0
 42
0.0
 43
0.0
 44
0.0
 45
0.0
 46
0.0
 47
0.0
 48
0.0
 49
0.0
140
0.0
141
0.0
142
1.0
143
1.0
 70
   688
 72
     1
 73
     0
 74
     5
  7

 75
    16
147
1.0
148
0.0
149
0.0
100
AcDbLayout
  1
Layout2
 70
     1
 71
     2
 10
0.0
 20
0.0
 11
0.0
 21
0.0
 12
0.0
 22
0.0
 32
0.0
 14
0.0
 24
0.0
 34
0.0
 15
0.0
 25
0.0
 35
0.0
146
0.0
 13
0.0
 23
0.0
 33
0.0
 16
1.0
 26
0.0
 36
0.0
 17
0.0
 27
1.0
 37
0.0
 76
     0
330
23
  0
LAYOUT
  5
22
102
{ACAD_REACTORS
330
1A
102
}
330
1A
100
AcDbPlotSettings
  1

  2
none_device
  4
Letter_(8.50_x_11.00_Inches)
  6

 40
6.35
 41
6.35
 42
6.35000508
 43
6.35000508
 44
215.9
 45
279.4
 46
0.0
 47
0.0
 48
0.0
 49
0.0
140
0.0
141
0.0
142
1.0
143
1.0
 70
  1712
 72
     1
 73
     0
 74
     0
  7

 75
     0
147
1.0
148
0.0
149
0.0
100
AcDbLayout
  1
Model
 70
     1
 71
     0
 10
0.0
 20
0.0
 11
1189.0
 21
841.0
 12
0.0
 22
0.0
 32
0.0
 14
0.0
 24
0.0
 34
0.0
 15
1189.0
 25
841.0
 35
0.0
146
0.0
 13
0.0
 23
0.0
 33
0.0
 16
1.0
 26
0.0
 36
0.0
 17
0.0
 27
1.0
 37
0.0
 76
     0
330
1F
331
29
  0
MLINESTYLE
  5
18
102
{ACAD_REACTORS
330
17
102
}
330
17
100
AcDbMlineStyle
  2
Standard
 70
     0
  3

 62
   256
 51
90.0
 52
90.0
 71
     2
 49
0.5
 62
   256
  6
BYLAYER
 49
-0.5
 62
   256
  6
BYLAYER
  0
ACDBPLACEHOLDER
  5
F
102
{ACAD_REACTORS
330
E
102
}
330
E
  0
SCALE
  5
48
102
{ACAD_REACTORS
330
47
102
}
330
47
100
AcDbScale
 70
     0
300
1:1
140
1.0
141
1.0
290
     1
  0
SCALE
  5
49
102
{ACAD_REACTORS
330
47
102
}
330
47
100
AcDbScale
 70
     0
300
1:2
140
1.0
141
2.0
290
     0
  0
SCALE
  5
4A
102
{ACAD_REACTORS
330
47
102
}
330
47
100
AcDbScale
 70
     0
300
1:4
140
1.0
141
4.0
290
     0
  0
SCALE
  5
4B
102
{ACAD_REACTORS
330
47
102
}
330
47
100
AcDbScale
 70
     0
300
1:5
140
1.0
141
5.0
290
     0
  0
SCALE
  5
4C
102
{ACAD_REACTORS
330
47
102
}
330
47
100
AcDbScale
 70
     0
300
1:8
140
1.0
141
8.0
290
     0
  0
SCALE
  5
4D
102
{ACAD_REACTORS
330
47
102
}
330
47
100
AcDbScale
 70
     0
300
1:10
140
1.0
141
10.0
290
     0
  0
SCALE
  5
4E
102
{ACAD_REACTORS
330
47
102
}
330
47
100
AcDbScale
 70
     0
300
1:16
140
1.0
141
16.0
290
     0
  0
SCALE
  5
4F
102
{ACAD_REACTORS
330
47
102
}
330
47
100
AcDbScale
 70
     0
300
1:20
140
1.0
141
20.0
290
     0
  0
SCALE
  5
50
102
{ACAD_REACTORS
330
47
102
}
330
47
100
AcDbScale
 70
     0
300
1:30
140
1.0
141
30.0
290
     0
  0
SCALE
  5
51
102
{ACAD_REACTORS
330
47
102
}
330
47
100
AcDbScale
 70
     0
300
1:40
140
1.0
141
40.0
290
     0
  0
SCALE
  5
52
102
{ACAD_REACTORS
330
47
102
}
330
47
100
AcDbScale
 70
     0
300
1:50
140
1.0
141
50.0
290
     0
  0
SCALE
  5
53
102
{ACAD_REACTORS
330
47
102
}
330
47
100
AcDbScale
 70
     0
300
1:100
140
1.0
141
100.0
290
     0
  0
SCALE
  5
54
102
{ACAD_REACTORS
330
47
102
}
330
47
100
AcDbScale
 70
     0
300
2:1
140
2.0
141
1.0
290
     0
  0
SCALE
  5
55
102
{ACAD_REACTORS
330
47
102
}
330
47
100
AcDbScale
 70
     0
300
4:1
140
4.0
141
1.0
290
     0
  0
SCALE
  5
56
102
{ACAD_REACTORS
330
47
102
}
330
47
100
AcDbScale
 70
     0
300
8:1
140
8.0
141
1.0
290
     0
  0
SCALE
  5
57
102
{ACAD_REACTORS
330
47
102
}
330
47
100
AcDbScale
 70
     0
300
10:1
140
10.0
141
1.0
290
     0
  0
SCALE
  5
58
102
{ACAD_REACTORS
330
47
102
}
330
47
100
AcDbScale
 70
     0
300
100:1
140
100.0
141
1.0
290
     0
  0
SCALE
  5
59
102
{ACAD_REACTORS
330
47
102
}
330
47
100
AcDbScale
 70
     0
300
1/128" = 1'-0"
140
0.0078125
141
12.0
290
     0
  0
SCALE
  5
5A
102
{ACAD_REACTORS
330
47
102
}
330
47
100
AcDbScale
 70
     0
300
1/64" = 1'-0"
140
0.015625
141
12.0
290
     0
  0
SCALE
  5
5B
102
{ACAD_REACTORS
330
47
102
}
330
47
100
AcDbScale
 70
     0
300
1/32" = 1'-0"
140
0.03125
141
12.0
290
     0
  0
SCALE
  5
5C
102
{ACAD_REACTORS
330
47
102
}
330
47
100
AcDbScale
 70
     0
300
1/16" = 1'-0"
140
0.0625
141
12.0
290
     0
  0
SCALE
  5
5D
102
{ACAD_REACTORS
330
47
102
}
330
47
100
AcDbScale
 70
     0
300
3/32" = 1'-0"
140
0.09375
141
12.0
290
     0
  0
SCALE
  5
5E
102
{ACAD_REACTORS
330
47
102
}
330
47
100
AcDbScale
 70
     0
300
1/8" = 1'-0"
140
0.125
141
12.0
290
     0
  0
SCALE
  5
5F
102
{ACAD_REACTORS
330
47
102
}
330
47
100
AcDbScale
 70
     0
300
3/16" = 1'-0"
140
0.1875
141
12.0
290
     0
  0
SCALE
  5
60
102
{ACAD_REACTORS
330
47
102
}
330
47
100
AcDbScale
 70
     0
300
1/4" = 1'-0"
140
0.25
141
12.0
290
     0
  0
SCALE
  5
61
102
{ACAD_REACTORS
330
47
102
}
330
47
100
AcDbScale
 70
     0
300
3/8" = 1'-0"
140
0.375
141
12.0
290
     0
  0
SCALE
  5
62
102
{ACAD_REACTORS
330
47
102
}
330
47
100
AcDbScale
 70
     0
300
1/2" = 1'-0"
140
0.5
141
12.0
290
     0
  0
SCALE
  5
63
102
{ACAD_REACTORS
330
47
102
}
330
47
100
AcDbScale
 70
     0
300
3/4" = 1'-0"
140
0.75
141
12.0
290
     0
  0
SCALE
  5
64
102
{ACAD_REACTORS
330
47
102
}
330
47
100
AcDbScale
 70
     0
300
1" = 1'-0"
140
1.0
141
12.0
290
     0
  0
SCALE
  5
65
102
{ACAD_REACTORS
330
47
102
}
330
47
100
AcDbScale
 70
     0
300
1-1/2" = 1'-0"
140
1.5
141
12.0
290
     0
  0
SCALE
  5
66
102
{ACAD_REACTORS
330
47
102
}
330
47
100
AcDbScale
 70
     0
300
3" = 1'-0"
140
3.0
141
12.0
290
     0
  0
SCALE
  5
67
102
{ACAD_REACTORS
330
47
102
}
330
47
100
AcDbScale
 70
     0
300
6" = 1'-0"
140
6.0
141
12.0
290
     0
  0
SCALE
  5
68
102
{ACAD_REACTORS
330
47
102
}
330
47
100
AcDbScale
 70
     0
300
1'-0" = 1'-0"
140
12.0
141
12.0
290
     0
  0
ENDSEC
  0
EOF
