  0
SECTION
  2
HEADER
  9
$ACADVER
  1
AC1024
  9
$ACADMAINTVER
 70
     6
  9
$DWGCODEPAGE
  3
ANSI_1252
  9
$INSBASE
 10
0.0
 20
0.0
 30
0.0
  9
$EXTMIN
 10
0.0
 20
0.0
 30
0.0
  9
$EXTMAX
 10
2000.0
 20
2000.0
 30
0.0
  9
$LIMMIN
 10
0.0
 20
0.0
  9
$LIMMAX
 10
2000.0
 20
2000.0
  9
$ORTHOMODE
 70
     0
  9
$REGENMODE
 70
     1
  9
$FILLMODE
 70
     1
  9
$QTEXTMODE
 70
     0
  9
$MIRRTEXT
 70
     1
  9
$LTSCALE
 40
1.0
  9
$ATTMODE
 70
     1
  9
$TEXTSIZE
 40
3.5
  9
$TRACEWID
 40
1.0
  9
$TEXTSTYLE
  7
Standard
  9
$CLAYER
  8
0
  9
$CELTYPE
  6
ByLayer
  9
$CECOLOR
 62
   256
  9
$CELTSCALE
 40
1.0
  9
$DISPSILH
 70
     0
  9
$DIMSCALE
 40
1.0
  9
$DIMASZ
 40
3.556
  9
$DIMEXO
 40
1.0
  9
$DIMDLI
 40
3.75
  9
$DIMRND
 40
0.0
  9
$DIMDLE
 40
0.0
  9
$DIMEXE
 40
1.0
  9
$DIMTP
 40
0.0
  9
$DIMTM
 40
0.0
  9
$DIMTXT
 40
3.5
  9
$DIMCEN
 40
2.5
  9
$DIMTSZ
 40
0.0
  9
$DIMTOL
 70
     0
  9
$DIMLIM
 70
     0
  9
$DIMTIH
 70
     1
  9
$DIMTOH
 70
     1
  9
$DIMSE1
 70
     0
  9
$DIMSE2
 70
     0
  9
$DIMTAD
 70
     1
  9
$DIMZIN
 70
     0
  9
$DIMBLK
  1

  9
$DIMASO
 70
     1
  9
$DIMSHO
 70
     1
  9
$DIMPOST
  1

  9
$DIMAPOST
  1

  9
$DIMALT
 70
     0
  9
$DIMALTD
 70
     3
  9
$DIMALTF
 40
0.0393700787
  9
$DIMLFAC
 40
1.0
  9
$DIMTOFL
 70
     1
  9
$DIMTVP
 40
0.0
  9
$DIMTIX
 70
     0
  9
$DIMSOXD
 70
     0
  9
$DIMSAH
 70
     0
  9
$DIMBLK1
  1

  9
$DIMBLK2
  1

  9
$DIMSTYLE
  2
ISO-25
  9
$DIMCLRD
 70
     0
  9
$DIMCLRE
 70
     0
  9
$DIMCLRT
 70
     0
  9
$DIMTFAC
 40
1.0
  9
$DIMGAP
 40
1.524
  9
$DIMJUST
 70
     0
  9
$DIMSD1
 70
     0
  9
$DIMSD2
 70
     0
  9
$DIMTOLJ
 70
     0
  9
$DIMTZIN
 70
     0
  9
$DIMALTZ
 70
     0
  9
$DIMALTTZ
 70
     0
  9
$DIMUPT
 70
     0
  9
$DIMDEC
 70
     2
  9
$DIMTDEC
 70
     2
  9
$DIMALTU
 70
     2
  9
$DIMALTTD
 70
     3
  9
$DIMTXSTY
  7
Standard
  9
$DIMAUNIT
 70
     0
  9
$DIMADEC
 70
     2
  9
$DIMALTRND
 40
0.0
  9
$DIMAZIN
 70
     0
  9
$DIMDSEP
 70
    44
  9
$DIMATFIT
 70
     3
  9
$DIMFRAC
 70
     0
  9
$DIMLDRBLK
  1

  9
$DIMLUNIT
 70
     2
  9
$DIMLWD
 70
    -2
  9
$DIMLWE
 70
    -2
  9
$DIMTMOVE
 70
     0
  9
$DIMFXL
 40
1.0
  9
$DIMFXLON
 70
     0
  9
$DIMJOGANG
 40
0.7853981634
  9
$DIMTFILL
 70
     0
  9
$DIMTFILLCLR
 70
     0
  9
$DIMARCSYM
 70
     0
  9
$DIMLTYPE
  6

  9
$DIMLTEX1
  6

  9
$DIMLTEX2
  6

  9
$DIMTXTDIRECTION
 70
     0
  9
$LUNITS
 70
     2
  9
$LUPREC
 70
     2
  9
$SKETCHINC
 40
1.0
  9
$FILLETRAD
 40
10.0
  9
$AUNITS
 70
     0
  9
$AUPREC
 70
     2
  9
$MENU
  1
.
  9
$ELEVATION
 40
0.0
  9
$PELEVATION
 40
0.0
  9
$THICKNESS
 40
0.0
  9
$LIMCHECK
 70
     0
  9
$CHAMFERA
 40
0.0
  9
$CHAMFERB
 40
0.0
  9
$CHAMFERC
 40
0.0
  9
$CHAMFERD
 40
0.0
  9
$SKPOLY
 70
     0
  9
$TDCREATE
 40
2458774.450032361
  9
$TDUCREATE
 40
2458774.408365694
  9
$TDUPDATE
 40
2458774.450032836
  9
$TDUUPDATE
 40
2458774.408366169
  9
$TDINDWG
 40
0.0000000116
  9
$TDUSRTIMER
 40
0.0000000116
  9
$USRTIMER
 70
     1
  9
$ANGBASE
 50
0.0
  9
$ANGDIR
 70
     0
  9
$PDMODE
 70
     0
  9
$PDSIZE
 40
-1.0
  9
$PLINEWID
 40
0.0
  9
$SPLFRAME
 70
     0
  9
$SPLINETYPE
 70
     6
  9
$SPLINESEGS
 70
     8
  9
$HANDSEED
  5
5DF
  9
$SURFTAB1
 70
     6
  9
$SURFTAB2
 70
     6
  9
$SURFTYPE
 70
     6
  9
$SURFU
 70
     6
  9
$SURFV
 70
     6
  9
$UCSBASE
  2

  9
$UCSNAME
  2

  9
$UCSORG
 10
0.0
 20
0.0
 30
0.0
  9
$UCSXDIR
 10
1.0
 20
0.0
 30
0.0
  9
$UCSYDIR
 10
0.0
 20
1.0
 30
0.0
  9
$UCSORTHOREF
  2

  9
$UCSORTHOVIEW
 70
     0
  9
$UCSORGTOP
 10
0.0
 20
0.0
 30
0.0
  9
$UCSORGBOTTOM
 10
0.0
 20
0.0
 30
0.0
  9
$UCSORGLEFT
 10
0.0
 20
0.0
 30
0.0
  9
$UCSORGRIGHT
 10
0.0
 20
0.0
 30
0.0
  9
$UCSORGFRONT
 10
0.0
 20
0.0
 30
0.0
  9
$UCSORGBACK
 10
0.0
 20
0.0
 30
0.0
  9
$PUCSBASE
  2

  9
$PUCSNAME
  2

  9
$PUCSORG
 10
0.0
 20
0.0
 30
0.0
  9
$PUCSXDIR
 10
1.0
 20
0.0
 30
0.0
  9
$PUCSYDIR
 10
0.0
 20
1.0
 30
0.0
  9
$PUCSORTHOREF
  2

  9
$PUCSORTHOVIEW
 70
     0
  9
$PUCSORGTOP
 10
0.0
 20
0.0
 30
0.0
  9
$PUCSORGBOTTOM
 10
0.0
 20
0.0
 30
0.0
  9
$PUCSORGLEFT
 10
0.0
 20
0.0
 30
0.0
  9
$PUCSORGRIGHT
 10
0.0
 20
0.0
 30
0.0
  9
$PUCSORGFRONT
 10
0.0
 20
0.0
 30
0.0
  9
$PUCSORGBACK
 10
0.0
 20
0.0
 30
0.0
  9
$USERI1
 70
     0
  9
$USERI2
 70
     0
  9
$USERI3
 70
     0
  9
$USERI4
 70
     0
  9
$USERI5
 70
     0
  9
$USERR1
 40
0.0
  9
$USERR2
 40
0.0
  9
$USERR3
 40
0.0
  9
$USERR4
 40
0.0
  9
$USERR5
 40
0.0
  9
$WORLDVIEW
 70
     1
  9
$SHADEDGE
 70
     3
  9
$SHADEDIF
 70
    70
  9
$TILEMODE
 70
     1
  9
$MAXACTVP
 70
    64
  9
$PINSBASE
 10
0.0
 20
0.0
 30
0.0
  9
$PLIMCHECK
 70
     0
  9
$PEXTMIN
 10
1.0000000000E+20
 20
1.0000000000E+20
 30
1.0000000000E+20
  9
$PEXTMAX
 10
-1.0000000000E+20
 20
-1.0000000000E+20
 30
-1.0000000000E+20
  9
$PLIMMIN
 10
0.0
 20
0.0
  9
$PLIMMAX
 10
420.0
 20
297.0
  9
$UNITMODE
 70
     0
  9
$VISRETAIN
 70
     1
  9
$PLINEGEN
 70
     0
  9
$PSLTSCALE
 70
     1
  9
$TREEDEPTH
 70
  3020
  9
$CMLSTYLE
  2
Standard
  9
$CMLJUST
 70
     0
  9
$CMLSCALE
 40
20.0
  9
$PROXYGRAPHICS
 70
     1
  9
$MEASUREMENT
 70
     1
  9
$CELWEIGHT
370
    -1
  9
$ENDCAPS
280
     0
  9
$JOINSTYLE
280
     0
  9
$LWDISPLAY
290
     1
  9
$INSUNITS
 70
     4
  9
$HYPERLINKBASE
  1

  9
$STYLESHEET
  1

  9
$XEDIT
290
     1
  9
$CEPSNTYPE
380
     0
  9
$PSTYLEMODE
290
     1
  9
$FINGERPRINTGUID
  2
{FEB6EE18-F0E6-4D67-8D27-DD1C06DDEF8E}
  9
$VERSIONGUID
  2
{FAEB1C32-E019-11D5-929B-00C0DF256EC4}
  9
$EXTNAMES
290
     1
  9
$PSVPSCALE
 40
0.0
  9
$OLESTARTUP
290
     0
  9
$SORTENTS
280
   127
  9
$INDEXCTL
280
     0
  9
$HIDETEXT
280
     1
  9
$XCLIPFRAME
280
     2
  9
$HALOGAP
280
     0
  9
$OBSCOLOR
 70
   257
  9
$OBSLTYPE
280
     0
  9
$INTERSECTIONDISPLAY
280
     0
  9
$INTERSECTIONCOLOR
 70
   257
  9
$DIMASSOC
280
     2
  9
$PROJECTNAME
  1

  9
$CAMERADISPLAY
290
     0
  9
$LENSLENGTH
 40
50.0
  9
$CAMERAHEIGHT
 40
0.0
  9
$STEPSPERSEC
 40
2.0
  9
$STEPSIZE
 40
6.0
  9
$3DDWFPREC
 40
2.0
  9
$PSOLWIDTH
 40
5.0
  9
$PSOLHEIGHT
 40
80.0
  9
$LOFTANG1
 40
1.5707963268
  9
$LOFTANG2
 40
1.5707963268
  9
$LOFTMAG1
 40
0.0
  9
$LOFTMAG2
 40
0.0
  9
$LOFTPARAM
 70
     7
  9
$LOFTNORMALS
280
     1
  9
$LATITUDE
 40
37.795
  9
$LONGITUDE
 40
-122.394
  9
$NORTHDIRECTION
 40
0.0
  9
$TIMEZONE
 70
 -8000
  9
$LIGHTGLYPHDISPLAY
280
     1
  9
$TILEMODELIGHTSYNCH
280
     1
  9
$CMATERIAL
347
44
  9
$SOLIDHIST
280
     0
  9
$SHOWHIST
280
     1
  9
$DWFFRAME
280
     2
  9
$DGNFRAME
280
     2
  9
$REALWORLDSCALE
290
     1
  9
$INTERFERECOLOR
 62
   256
  9
$CSHADOW
280
     0
  9
$SHADOWPLANELOCATION
 40
0.0
  0
ENDSEC
  0
SECTION
  2
CLASSES
  0
CLASS
  1
ACDBDICTIONARYWDFLT
  2
AcDbDictionaryWithDefault
  3
ObjectDBX Classes
 90
        0
 91
        4
280
     0
281
     0
  0
CLASS
  1
VISUALSTYLE
  2
AcDbVisualStyle
  3
ObjectDBX Classes
 90
     4095
 91
        4
280
     0
281
     0
  0
CLASS
  1
MATERIAL
  2
AcDbMaterial
  3
ObjectDBX Classes
 90
     1153
 91
        4
280
     0
281
     0
  0
CLASS
  1
SCALE
  2
AcDbScale
  3
ObjectDBX Classes
 90
     1153
 91
        4
280
     0
281
     0
  0
CLASS
  1
TABLESTYLE
  2
AcDbTableStyle
  3
ObjectDBX Classes
 90
     4095
 91
        4
280
     0
281
     0
  0
CLASS
  1
MLEADERSTYLE
  2
AcDbMLeaderStyle
  3
ACDB_MLEADERSTYLE_CLASS
 90
     4095
 91
        4
280
     0
281
     0
  0
CLASS
  1
SUN
  2
AcDbSun
  3
SCENEOE
 90
     1153
 91
        4
280
     0
281
     0
  0
CLASS
  1
DICTIONARYVAR
  2
AcDbDictionaryVar
  3
ObjectDBX Classes
 90
        0
 91
        4
280
     0
281
     0
  0
CLASS
  1
CELLSTYLEMAP
  2
AcDbCellStyleMap
  3
ObjectDBX Classes
 90
     1152
 91
        4
280
     0
281
     0
  0
ENDSEC
  0
SECTION
  2
TABLES
  0
TABLE
  2
VPORT
  5
8
330
0
100
AcDbSymbolTable
 70
     1
  0
VPORT
  5
29
330
8
100
AcDbSymbolTableRecord
100
AcDbViewportTableRecord
  2
*Active
 70
     0
 10
0.0
 20
0.0
 11
1.0
 21
1.0
 12
1000.0
 22
1000.0
 13
0.0
 23
0.0
 14
10.0
 24
10.0
 15
10.0
 25
10.0
 16
0.0
 26
0.0
 36
1.0
 17
0.0
 27
0.0
 37
0.0
 40
2000.0
 41
1.0
 42
50.0
 43
0.0
 44
0.0
 50
0.0
 51
0.0
 71
     0
 72
  2000
 73
     1
 74
     3
 75
     0
 76
     0
 77
     0
 78
     0
281
     0
 65
     1
110
0.0
120
0.0
130
0.0
111
1.0
121
0.0
131
0.0
112
0.0
122
1.0
132
0.0
 79
     0
146
0.0
 60
     3
 61
     5
292
     1
282
     1
141
0.0
142
0.0
 63
   250
361
6D
  0
ENDTAB
  0
TABLE
  2
LTYPE
  5
5
330
0
100
AcDbSymbolTable
 70
     6
  0
LTYPE
  5
14
330
5
100
AcDbSymbolTableRecord
100
AcDbLinetypeTableRecord
  2
ByBlock
 70
     0
  3

 72
    65
 73
     0
 40
0.0
  0
LTYPE
  5
15
330
5
100
AcDbSymbolTableRecord
100
AcDbLinetypeTableRecord
  2
ByLayer
 70
     0
  3

 72
    65
 73
     0
 40
0.0
  0
LTYPE
  5
16
330
5
100
AcDbSymbolTableRecord
100
AcDbLinetypeTableRecord
  2
Continuous
 70
     0
  3
Solid line
 72
    65
 73
     0
 40
0.0
  0
LTYPE
  5
6E
330
5
100
AcDbSymbolTableRecord
100
AcDbLinetypeTableRecord
  2
HIDDEN
 70
     0
  3
Hidden __ __ __ __ __ __ __ __ __ __ __ __ __ __
 72
    65
 73
     2
 40
1.905
 49
1.27
 74
     0
 49
-0.635
 74
     0
  0
LTYPE
  5
6F
330
5
100
AcDbSymbolTableRecord
100
AcDbLinetypeTableRecord
  2
PHANTOM
 70
     0
  3
Phantom ______  __  __  ______  __  __  ______
 72
    65
 73
     6
 40
12.7
 49
6.35
 74
     0
 49
-1.27
 74
     0
 49
1.27
 74
     0
 49
-1.27
 74
     0
 49
1.27
 74
     0
 49
-1.27
 74
     0
  0
LTYPE
  5
70
330
5
100
AcDbSymbolTableRecord
100
AcDbLinetypeTableRecord
  2
CENTER
 70
     0
  3
Center ____ _ ____ _ ____ _ ____ _ ____ _ ____
 72
    65
 73
     4
 40
10.16
 49
6.35
 74
     0
 49
-1.27
 74
     0
 49
1.27
 74
     0
 49
-1.27
 74
     0
  0
LTYPE
  5
71
330
5
100
AcDbSymbolTableRecord
100
AcDbLinetypeTableRecord
  2
CENTERX2
 70
     0
  3
Center (2x) ________  __  ________  __  _____
 72
    65
 73
     4
 40
20.32
 49
12.7
 74
     0
 49
-2.54
 74
     0
 49
2.54
 74
     0
 49
-2.54
 74
     0
  0
LTYPE
  5
72
330
5
100
AcDbSymbolTableRecord
100
AcDbLinetypeTableRecord
  2
DOT2
 70
     0
  3
Dot (.5x) ........................................
 72
    65
 73
     2
 40
0.635
 49
0.0
 74
     0
 49
-0.635
 74
     0
  0
ENDTAB
  0
TABLE
  2
LAYER
  5
2
330
0
100
AcDbSymbolTable
 70
     1
  0
LAYER
  5
10
330
2
100
AcDbSymbolTableRecord
100
AcDbLayerTableRecord
  2
0
 70
     0
 62
     7
  6
Continuous
370
    -3
390
F
347
46
  0
ENDTAB
  0
TABLE
  2
STYLE
  5
3
330
0
100
AcDbSymbolTable
 70
     1
  0
STYLE
  5
11
330
3
100
AcDbSymbolTableRecord
100
AcDbTextStyleTableRecord
  2
Standard
 70
     0
 40
0.0
 41
1.0
 50
0.0
 71
     0
 42
3.5
  3
txt
  4

  0
ENDTAB
  0
TABLE
  2
VIEW
  5
6
330
0
100
AcDbSymbolTable
 70
     0
  0
ENDTAB
  0
TABLE
  2
UCS
  5
7
330
0
100
AcDbSymbolTable
 70
     0
  0
ENDTAB
  0
TABLE
  2
APPID
  5
9
330
0
100
AcDbSymbolTable
 70
     1
  0
APPID
  5
12
330
9
100
AcDbSymbolTableRecord
100
AcDbRegAppTableRecord
  2
ACAD
 70
     0
  0
ENDTAB
  0
TABLE
  2
DIMSTYLE
  5
A
330
0
100
AcDbSymbolTable
 70
     1
100
AcDbDimStyleTable
  0
DIMSTYLE
105
27
330
A
100
AcDbSymbolTableRecord
100
AcDbDimStyleTableRecord
  2
ISO-25
 70
     0
 41
2.5
 42
0.625
 43
3.75
 44
1.25
 73
     0
 74
     0
 77
     1
 78
     8
140
2.5
141
2.5
143
0.0393700787
147
0.625
171
     3
172
     1
178
     0
271
     2
272
     2
274
     3
278
    44
283
     0
284
     8
340
11
  0
ENDTAB
  0
TABLE
  2
BLOCK_RECORD
  5
1
330
0
100
AcDbSymbolTable
 70
     1
  0
BLOCK_RECORD
  5
1F
330
1
100
AcDbSymbolTableRecord
100
AcDbBlockTableRecord
  2
*Model_Space
340
22
 70
     0
280
     1
281
     0
  0
BLOCK_RECORD
  5
1B
330
1
100
AcDbSymbolTableRecord
100
AcDbBlockTableRecord
  2
*Paper_Space
340
1E
 70
     0
280
     1
281
     0
  0
BLOCK_RECORD
  5
23
330
1
100
AcDbSymbolTableRecord
100
AcDbBlockTableRecord
  2
*Paper_Space0
340
26
 70
     0
280
     1
281
     0
  0
ENDTAB
  0
ENDSEC
  0
SECTION
  2
BLOCKS
  0
BLOCK
  5
20
330
1F
100
AcDbEntity
  8
0
100
AcDbBlockBegin
  2
*Model_Space
 70
     0
 10
0.0
 20
0.0
 30
0.0
  3
*Model_Space
  1

  0
ENDBLK
  5
21
330
1F
100
AcDbEntity
  8
0
100
AcDbBlockEnd
  0
BLOCK
  5
1C
330
1B
100
AcDbEntity
 67
     1
  8
0
100
AcDbBlockBegin
  2
*Paper_Space
 70
     0
 10
0.0
 20
0.0
 30
0.0
  3
*Paper_Space
  1

  0
ENDBLK
  5
1D
330
1B
100
AcDbEntity
 67
     1
  8
0
100
AcDbBlockEnd
  0
BLOCK
  5
24
330
23
100
AcDbEntity
  8
0
100
AcDbBlockBegin
  2
*Paper_Space0
 70
     0
 10
0.0
 20
0.0
 30
0.0
  3
*Paper_Space0
  1

  0
ENDBLK
  5
25
330
23
100
AcDbEntity
  8
0
100
AcDbBlockEnd
  0
ENDSEC
  0
SECTION
  2
ENTITIES
  0
LINE
  5
73
330
1F
100
AcDbEntity
  8
0
  6
Continuous
 62
     7
370
    15
100
AcDbLine
 10
424.8623708277
 20
334.0569755543
 30
0.0
 11
423.3518382548
 21
333.1449220438
 31
0.0
  0
ARC
  5
74
330
1F
100
AcDbEntity
  8
0
  6
Continuous
 62
     7
370
    15
100
AcDbCircle
 10
447.3623717218
 20
295.0858323831
 30
0.0
 40
45.00000000000003
100
AcDbArc
 50
237.7531924889
 51
251.2026311756
  0
ARC
  5
75
330
1F
100
AcDbEntity
  8
0
  6
Continuous
 62
     7
370
    15
100
AcDbCircle
 10
447.3623717218
 20
295.0858323831
 30
0.0
 40
45.00000000000001
100
AcDbArc
 50
290.1478862872
 51
303.6901904174
  0
LINE
  5
76
330
1F
100
AcDbEntity
  8
0
  6
Continuous
 62
     7
370
    15
100
AcDbLine
 10
472.323960626
 20
332.52804191
 30
0.0
 11
469.8623726158
 21
334.0569755543
 31
0.0
  0
ARC
  5
77
330
1F
100
AcDbEntity
  8
0
  6
Continuous
 62
     7
370
    15
100
AcDbCircle
 10
417.3623717218
 20
347.0473566102
 30
0.0
 40
15.00000000000003
100
AcDbArc
 50
300.0
 51
0.0
  0
ARC
  5
78
330
1F
100
AcDbEntity
  8
0
  6
Continuous
 62
     7
370
    15
100
AcDbCircle
 10
477.3623717218
 20
347.0473566102
 30
0.0
 40
15.00000000000002
100
AcDbArc
 50
194.8351115819
 51
240.0
  0
LINE
  5
79
330
1F
100
AcDbEntity
  8
0
  6
Continuous
 62
     7
370
    15
100
AcDbLine
 10
432.3623720571
 20
347.0858319212
 30
0.0
 11
432.3623720571
 21
347.0473561917
 31
0.0
  0
LINE
  5
7A
330
1F
100
AcDbEntity
  8
0
  6
Continuous
 62
     7
370
    15
100
AcDbLine
 10
450.3623717479
 20
407.0858324427
 30
0.0
 11
450.3623717479
 21
1407.0857951898
 31
0.0
  0
LINE
  5
7B
330
1F
100
AcDbEntity
  8
0
  6
Continuous
 62
     7
370
    15
100
AcDbLine
 10
444.3623716957
 20
1407.0857951898
 30
0.0
 11
444.3623716957
 21
407.0858324427
 31
0.0
  0
ARC
  5
7C
330
1F
100
AcDbEntity
  8
0
  6
Continuous
 62
     7
370
    15
100
AcDbCircle
 10
428.3623717218
 20
384.5858323831
 30
0.0
 40
1.5
100
AcDbArc
 50
90.0
 51
270.0
  0
ARC
  5
7D
330
1F
100
AcDbEntity
  8
0
  6
Continuous
 62
     7
370
    15
100
AcDbCircle
 10
466.3623717218
 20
384.5858323831
 30
0.0
 40
1.5
100
AcDbArc
 50
270.0
 51
90.0
  0
LINE
  5
7E
330
1F
100
AcDbEntity
  8
0
  6
Continuous
 62
     7
370
    15
100
AcDbLine
 10
428.3623723327
 20
383.0858322341
 30
0.0
 11
428.3623723327
 21
369.5858328153
 31
0.0
  0
LINE
  5
7F
330
1F
100
AcDbEntity
  8
0
  6
Continuous
 62
     7
370
    15
100
AcDbLine
 10
466.3623711108
 20
369.5858328153
 30
0.0
 11
466.3623711108
 21
383.0858322341
 31
0.0
  0
LINE
  5
80
330
1F
100
AcDbEntity
  8
0
  6
Continuous
 62
     7
370
    15
100
AcDbLine
 10
428.3623723327
 20
348.5858321671
 30
0.0
 11
429.3623724966
 21
347.8358325098
 31
0.0
  0
LINE
  5
81
330
1F
100
AcDbEntity
  8
0
  6
Continuous
 62
     7
370
    15
100
AcDbLine
 10
465.3623709469
 20
347.8358325098
 30
0.0
 11
466.3623711108
 21
348.5858321671
 31
0.0
  0
LINE
  5
82
330
1F
100
AcDbEntity
  8
0
  6
Continuous
 62
     7
370
    15
100
AcDbLine
 10
466.3623711108
 20
348.5858321671
 30
0.0
 11
465.3623709469
 21
349.33583229
 31
0.0
  0
LINE
  5
83
330
1F
100
AcDbEntity
  8
0
  6
Continuous
 62
     7
370
    15
100
AcDbLine
 10
429.3623724966
 20
349.33583229
 30
0.0
 11
428.3623723327
 21
348.5858321671
 31
0.0
  0
LINE
  5
84
330
1F
100
AcDbEntity
  8
0
  6
Continuous
 62
     7
370
    15
100
AcDbLine
 10
466.3623711108
 20
347.0858319212
 30
0.0
 11
465.3623709469
 21
347.8358325098
 31
0.0
  0
LINE
  5
85
330
1F
100
AcDbEntity
  8
0
  6
Continuous
 62
     7
370
    15
100
AcDbLine
 10
429.3623724966
 20
347.8358325098
 30
0.0
 11
428.3623723327
 21
347.0858319212
 31
0.0
  0
LINE
  5
86
330
1F
100
AcDbEntity
  8
0
  6
Continuous
 62
     7
370
    15
100
AcDbLine
 10
466.3623711108
 20
350.0858324129
 30
0.0
 11
465.3623709469
 21
350.8358325359
 31
0.0
  0
LINE
  5
87
330
1F
100
AcDbEntity
  8
0
  6
Continuous
 62
     7
370
    15
100
AcDbLine
 10
429.3623724966
 20
350.8358325359
 30
0.0
 11
428.3623723327
 21
350.0858324129
 31
0.0
  0
LINE
  5
88
330
1F
100
AcDbEntity
  8
0
  6
Continuous
 62
     7
370
    15
100
AcDbLine
 10
428.3623723327
 20
350.0858324129
 30
0.0
 11
429.3623724966
 21
349.33583229
 31
0.0
  0
LINE
  5
89
330
1F
100
AcDbEntity
  8
0
  6
Continuous
 62
     7
370
    15
100
AcDbLine
 10
465.3623709469
 20
349.33583229
 30
0.0
 11
466.3623711108
 21
350.0858324129
 31
0.0
  0
LINE
  5
8A
330
1F
100
AcDbEntity
  8
0
  6
Continuous
 62
     7
370
    15
100
AcDbLine
 10
428.3623723327
 20
351.5858321931
 30
0.0
 11
429.3623724966
 21
350.8358325359
 31
0.0
  0
LINE
  5
8B
330
1F
100
AcDbEntity
  8
0
  6
Continuous
 62
     7
370
    15
100
AcDbLine
 10
465.3623709469
 20
350.8358325359
 30
0.0
 11
466.3623711108
 21
351.5858321931
 31
0.0
  0
LINE
  5
8C
330
1F
100
AcDbEntity
  8
0
  6
Continuous
 62
     7
370
    15
100
AcDbLine
 10
466.3623711108
 20
351.5858321931
 30
0.0
 11
465.3623709469
 21
352.3358323161
 31
0.0
  0
LINE
  5
8D
330
1F
100
AcDbEntity
  8
0
  6
Continuous
 62
     7
370
    15
100
AcDbLine
 10
429.3623724966
 20
352.3358323161
 30
0.0
 11
428.3623723327
 21
351.5858321931
 31
0.0
  0
LINE
  5
8E
330
1F
100
AcDbEntity
  8
0
  6
Continuous
 62
     7
370
    15
100
AcDbLine
 10
428.3623723327
 20
353.085832439
 30
0.0
 11
429.3623724966
 21
352.3358323161
 31
0.0
  0
LINE
  5
8F
330
1F
100
AcDbEntity
  8
0
  6
Continuous
 62
     7
370
    15
100
AcDbLine
 10
465.3623709469
 20
352.3358323161
 30
0.0
 11
466.3623711108
 21
353.085832439
 31
0.0
  0
LINE
  5
90
330
1F
100
AcDbEntity
  8
0
  6
Continuous
 62
     7
370
    15
100
AcDbLine
 10
466.3623711108
 20
353.085832439
 30
0.0
 11
465.3623709469
 21
353.8358323291
 31
0.0
  0
LINE
  5
91
330
1F
100
AcDbEntity
  8
0
  6
Continuous
 62
     7
370
    15
100
AcDbLine
 10
429.3623724966
 20
353.8358323291
 30
0.0
 11
428.3623723327
 21
353.085832439
 31
0.0
  0
LINE
  5
92
330
1F
100
AcDbEntity
  8
0
  6
Continuous
 62
     7
370
    15
100
AcDbLine
 10
428.3623723327
 20
354.5858323356
 30
0.0
 11
429.3623724966
 21
353.8358323291
 31
0.0
  0
LINE
  5
93
330
1F
100
AcDbEntity
  8
0
  6
Continuous
 62
     7
370
    15
100
AcDbLine
 10
465.3623709469
 20
353.8358323291
 30
0.0
 11
466.3623711108
 21
354.5858323356
 31
0.0
  0
LINE
  5
94
330
1F
100
AcDbEntity
  8
0
  6
Continuous
 62
     7
370
    15
100
AcDbLine
 10
466.3623711108
 20
354.5858323356
 30
0.0
 11
465.3623709469
 21
355.3358323712
 31
0.0
  0
LINE
  5
95
330
1F
100
AcDbEntity
  8
0
  6
Continuous
 62
     7
370
    15
100
AcDbLine
 10
429.3623724966
 20
355.3358323712
 30
0.0
 11
428.3623723327
 21
354.5858323356
 31
0.0
  0
LINE
  5
96
330
1F
100
AcDbEntity
  8
0
  6
Continuous
 62
     7
370
    15
100
AcDbLine
 10
429.0290391087
 20
355.5858323831
 30
0.0
 11
429.3623724966
 21
355.3358323712
 31
0.0
  0
LINE
  5
97
330
1F
100
AcDbEntity
  8
0
  6
Continuous
 62
     7
370
    15
100
AcDbLine
 10
465.3623709469
 20
355.3358323712
 30
0.0
 11
465.6957043349
 21
355.5858323831
 31
0.0
  0
LINE
  5
98
330
1F
100
AcDbEntity
  8
0
  6
Continuous
 62
     7
370
    15
100
AcDbLine
 10
439.8623718894
 20
407.0858324427
 30
0.0
 11
439.8623718894
 21
396.335833009
 31
0.0
  0
LINE
  5
99
330
1F
100
AcDbEntity
  8
0
  6
Continuous
 62
     7
370
    15
100
AcDbLine
 10
454.8623715541
 20
396.335833009
 30
0.0
 11
454.8623715541
 21
407.0858324427
 31
0.0
  0
LINE
  5
9A
330
1F
100
AcDbEntity
  8
0
  6
Continuous
 62
     7
370
    15
100
AcDbLine
 10
581.2661880641
 20
96.3358471651
 30
0.0
 11
581.2661880641
 21
101.3358423967
 31
0.0
  0
LINE
  5
9B
330
1F
100
AcDbEntity
  8
0
  6
Continuous
 62
     7
370
    15
100
AcDbLine
 10
581.2661880641
 20
96.3358471651
 30
0.0
 11
577.9571468025
 21
96.3358471651
 31
0.0
  0
LINE
  5
9C
330
1F
100
AcDbEntity
  8
0
  6
Continuous
 62
     7
370
    15
100
AcDbLine
 10
581.2661880641
 20
396.335833009
 30
0.0
 11
577.9571468025
 21
396.335833009
 31
0.0
  0
LINE
  5
9D
330
1F
100
AcDbEntity
  8
0
  6
Continuous
 62
     7
370
    15
100
AcDbLine
 10
581.2661880641
 20
391.3358340521
 30
0.0
 11
581.2661880641
 21
396.335833009
 31
0.0
  0
LINE
  5
9E
330
1F
100
AcDbEntity
  8
0
  6
Continuous
 62
     7
370
    15
100
AcDbLine
 10
581.2661880641
 20
101.3358423967
 30
0.0
 11
581.2661880641
 21
391.3358340521
 31
0.0
  0
LWPOLYLINE
  5
9F
330
1F
100
AcDbEntity
  8
0
  6
Continuous
 62
     7
370
    15
100
AcDbPolyline
 90
        9
 70
   128
 43
0.0
 10
323.2569554835
 20
396.335833009
 10
323.5583910733
 20
396.2397577722
 10
323.8482335596
 20
395.955231275
 10
324.1153592258
 20
395.493179794
 10
324.3495011716
 20
394.8713655133
 10
324.5416516452
 20
394.1136824448
 10
324.6844345718
 20
393.2492511828
 10
324.7723588734
 20
392.3112826903
 10
324.8020419865
 20
391.3358340521
  0
LINE
  5
A0
330
1F
100
AcDbEntity
  8
0
  6
Continuous
 62
     7
370
    15
100
AcDbLine
 10
323.2569554835
 20
396.335833009
 30
0.0
 11
331.3409397393
 21
396.335833009
 31
0.0
  0
ARC
  5
A1
330
1F
100
AcDbEntity
  8
0
  6
Continuous
 62
     7
370
    15
100
AcDbCircle
 10
331.1350181439
 20
395.3382191773
 30
0.0
 40
1.018644717529413
100
AcDbArc
 50
23.8094706758
 51
78.3371392317
  0
LINE
  5
A2
330
1F
100
AcDbEntity
  8
0
  6
Continuous
 62
     7
370
    15
100
AcDbLine
 10
324.8020419865
 20
101.3358423967
 30
0.0
 11
324.8020419865
 21
391.3358340521
 31
0.0
  0
LINE
  5
A3
330
1F
100
AcDbEntity
  8
0
  6
Continuous
 62
     7
370
    15
100
AcDbLine
 10
323.2569554835
 20
96.3358471651
 30
0.0
 11
331.3409397393
 21
96.3358471651
 31
0.0
  0
LWPOLYLINE
  5
A4
330
1F
100
AcDbEntity
  8
0
  6
Continuous
 62
     7
370
    15
100
AcDbPolyline
 90
        9
 70
   128
 43
0.0
 10
323.2569554835
 20
96.3358471651
 10
323.5583910733
 20
96.4319000501
 10
323.8482335596
 20
96.716422822
 10
324.1153592258
 20
97.1784780283
 10
324.3495011716
 20
97.8003034849
 10
324.5416516452
 20
98.5579679269
 10
324.6844345718
 20
99.4224140901
 10
324.7723588734
 20
100.3603825826
 10
324.8020419865
 20
101.3358423967
  0
ARC
  5
A5
330
1F
100
AcDbEntity
  8
0
  6
Continuous
 62
     7
370
    15
100
AcDbCircle
 10
331.1350995495
 20
97.3333811022
 30
0.0
 40
1.018550018153973
100
AcDbArc
 50
281.6592845827
 51
336.1912586818
  0
LINE
  5
A6
330
1F
100
AcDbEntity
  8
0
  6
Continuous
 62
     7
370
    15
100
AcDbLine
 10
317.0766169219
 20
396.335833009
 30
0.0
 11
323.2569554835
 21
396.335833009
 31
0.0
  0
LINE
  5
A7
330
1F
100
AcDbEntity
  8
0
  6
Continuous
 62
     7
370
    15
100
AcDbLine
 10
317.0766169219
 20
96.3358471651
 30
0.0
 11
323.2569554835
 21
96.3358471651
 31
0.0
  0
LWPOLYLINE
  5
A8
330
1F
100
AcDbEntity
  8
0
  6
Continuous
 62
     7
370
    15
100
AcDbPolyline
 90
        9
 70
   128
 43
0.0
 10
317.0766169219
 20
96.3358471651
 10
316.7751813321
 20
96.4319000501
 10
316.4853388458
 20
96.716422822
 10
316.2182206302
 20
97.1784780283
 10
315.9840786844
 20
97.8003034849
 10
315.7919282108
 20
98.5579679269
 10
315.6491452842
 20
99.4224140901
 10
315.5612284332
 20
100.3603825826
 10
315.5315304189
 20
101.3358423967
  0
LINE
  5
A9
330
1F
100
AcDbEntity
  8
0
  6
Continuous
 62
     7
370
    15
100
AcDbLine
 10
315.5315304189
 20
101.3358423967
 30
0.0
 11
315.5315304189
 21
391.3358340521
 31
0.0
  0
LWPOLYLINE
  5
AA
330
1F
100
AcDbEntity
  8
0
  6
Continuous
 62
     7
370
    15
100
AcDbPolyline
 90
        9
 70
   128
 43
0.0
 10
315.5315304189
 20
391.3358340521
 10
315.5612284332
 20
392.3112826903
 10
315.6491452842
 20
393.2492511828
 10
315.7919282108
 20
394.1136824448
 10
315.9840786844
 20
394.8713655133
 10
316.2182206302
 20
395.493179794
 10
316.4853388458
 20
395.955231275
 10
316.7751813321
 20
396.2397577722
 10
317.0766169219
 20
396.335833009
  0
LINE
  5
AB
330
1F
100
AcDbEntity
  8
0
  6
Continuous
 62
     7
370
    15
100
AcDbLine
 10
391.2424417227
 20
101.3358423967
 30
0.0
 11
391.2424417227
 21
125.0858346481
 31
0.0
  0
LINE
  5
AC
330
1F
100
AcDbEntity
  8
0
  6
Continuous
 62
     7
370
    15
100
AcDbLine
 10
391.2424417227
 20
137.0858291645
 30
0.0
 11
391.2424417227
 21
355.5858323831
 31
0.0
  0
LINE
  5
AD
330
1F
100
AcDbEntity
  8
0
  6
Continuous
 62
     7
370
    15
100
AcDbLine
 10
391.2424417227
 20
367.5858324874
 30
0.0
 11
391.2424417227
 21
391.3358340521
 31
0.0
  0
ARC
  5
AE
330
1F
100
AcDbEntity
  8
0
  6
Continuous
 62
     7
370
    15
100
AcDbCircle
 10
396.1231919252
 20
101.2164451444
 30
0.0
 40
4.882210385047924
100
AcDbArc
 50
178.5986591753
 51
268.5274213348
  0
ARC
  5
AF
330
1F
100
AcDbEntity
  8
0
  6
Continuous
 62
     7
370
    15
100
AcDbCircle
 10
396.1232312284
 20
391.4551975611
 30
0.0
 40
4.882248851382833
100
AcDbArc
 50
91.4730284565
 51
181.4009336684
  0
ARC
  5
B0
330
1F
100
AcDbEntity
  8
0
  6
Continuous
 62
     7
370
    15
100
AcDbCircle
 10
436.8623717218
 20
101.3358323831
 30
0.0
 40
5.0
100
AcDbArc
 50
180.0
 51
270.0
  0
LINE
  5
B1
330
1F
100
AcDbEntity
  8
0
  6
Continuous
 62
     7
370
    15
100
AcDbLine
 10
431.8623719751
 20
101.3358423967
 30
0.0
 11
431.8623719751
 21
125.0858346481
 31
0.0
  0
LINE
  5
B2
330
1F
100
AcDbEntity
  8
0
  6
Continuous
 62
     7
370
    15
100
AcDbLine
 10
431.8623719751
 20
137.0858291645
 30
0.0
 11
431.8623719751
 21
252.8395319838
 31
0.0
  0
LINE
  5
B3
330
1F
100
AcDbEntity
  8
0
  6
Continuous
 62
     7
370
    15
100
AcDbLine
 10
431.8623719751
 20
343.2067839909
 30
0.0
 11
431.8623719751
 21
347.0858319212
 31
0.0
  0
LINE
  5
B4
330
1F
100
AcDbEntity
  8
0
  6
Continuous
 62
     7
370
    15
100
AcDbLine
 10
431.8623719751
 20
386.0858327259
 30
0.0
 11
431.8623719751
 21
391.3358340521
 31
0.0
  0
ARC
  5
B5
330
1F
100
AcDbEntity
  8
0
  6
Continuous
 62
     7
370
    15
100
AcDbCircle
 10
436.8623717218
 20
391.3358323831
 30
0.0
 40
5.0
100
AcDbArc
 50
90.0
 51
180.0
  0
LINE
  5
B6
330
1F
100
AcDbEntity
  8
0
  6
Continuous
 62
     7
370
    15
100
AcDbLine
 10
477.0792434006
 20
96.3358471651
 30
0.0
 11
476.1281861006
 21
96.3358471651
 31
0.0
  0
ARC
  5
B7
330
1F
100
AcDbEntity
  8
0
  6
Continuous
 62
     7
370
    15
100
AcDbCircle
 10
476.253653602
 20
101.2164433492
 30
0.0
 40
4.882208640232482
100
AcDbArc
 50
178.5986376008
 51
268.5273980803
  0
LINE
  5
B8
330
1F
100
AcDbEntity
  8
0
  6
Continuous
 62
     7
370
    15
100
AcDbLine
 10
471.3729051887
 20
101.3358423967
 30
0.0
 11
471.3729051887
 21
125.0858346481
 31
0.0
  0
LINE
  5
B9
330
1F
100
AcDbEntity
  8
0
  6
Continuous
 62
     7
370
    15
100
AcDbLine
 10
471.3729051887
 20
137.0858291645
 30
0.0
 11
471.3729051887
 21
257.0267433781
 31
0.0
  0
LINE
  5
BA
330
1F
100
AcDbEntity
  8
0
  6
Continuous
 62
     7
370
    15
100
AcDbLine
 10
471.3729051887
 20
333.1449220438
 30
0.0
 11
471.3729051887
 21
355.5858323831
 31
0.0
  0
LINE
  5
BB
330
1F
100
AcDbEntity
  8
0
  6
Continuous
 62
     7
370
    15
100
AcDbLine
 10
471.3729051887
 20
367.5858324874
 30
0.0
 11
471.3729051887
 21
391.3358340521
 31
0.0
  0
ARC
  5
BC
330
1F
100
AcDbEntity
  8
0
  6
Continuous
 62
     7
370
    15
100
AcDbCircle
 10
476.2536929053
 20
391.4551993563
 30
0.0
 40
4.882247106607622
100
AcDbArc
 50
91.4730517116
 51
181.4009552423
  0
LINE
  5
BD
330
1F
100
AcDbEntity
  8
0
  6
Continuous
 62
     7
370
    15
100
AcDbLine
 10
477.0792434006
 20
396.335833009
 30
0.0
 11
476.1281861006
 21
396.335833009
 31
0.0
  0
LINE
  5
BE
330
1F
100
AcDbEntity
  8
0
  6
Continuous
 62
     7
370
    15
100
AcDbLine
 10
513.3872190504
 20
96.3358471651
 30
0.0
 11
512.5782052069
 21
96.3358471651
 31
0.0
  0
ARC
  5
BF
330
1F
100
AcDbEntity
  8
0
  6
Continuous
 62
     7
370
    15
100
AcDbCircle
 10
513.1119774322
 20
100.9039514279
 30
0.0
 40
4.599183551940391
100
AcDbArc
 50
174.6116427834
 51
263.3353451139
  0
LINE
  5
C0
330
1F
100
AcDbEntity
  8
0
  6
Continuous
 62
     7
370
    15
100
AcDbLine
 10
508.5331173628
 20
101.3358423967
 30
0.0
 11
508.5331173628
 21
125.0858346481
 31
0.0
  0
LINE
  5
C1
330
1F
100
AcDbEntity
  8
0
  6
Continuous
 62
     7
370
    15
100
AcDbLine
 10
508.5331173628
 20
137.0858291645
 30
0.0
 11
508.5331173628
 21
355.5858323831
 31
0.0
  0
LINE
  5
C2
330
1F
100
AcDbEntity
  8
0
  6
Continuous
 62
     7
370
    15
100
AcDbLine
 10
508.5331173628
 20
367.5858324874
 30
0.0
 11
508.5331173628
 21
391.3358340521
 31
0.0
  0
ARC
  5
C3
330
1F
100
AcDbEntity
  8
0
  6
Continuous
 62
     7
370
    15
100
AcDbCircle
 10
513.1120191842
 20
391.7676946463
 30
0.0
 40
4.599222267218658
100
AcDbArc
 50
96.6651222035
 51
185.3879316468
  0
LINE
  5
C4
330
1F
100
AcDbEntity
  8
0
  6
Continuous
 62
     7
370
    15
100
AcDbLine
 10
513.3872190504
 20
396.335833009
 30
0.0
 11
512.5782052069
 21
396.335833009
 31
0.0
  0
LINE
  5
C5
330
1F
100
AcDbEntity
  8
0
  6
Continuous
 62
     7
370
    15
100
AcDbLine
 10
543.2322258144
 20
96.3358471651
 30
0.0
 11
542.6444420605
 21
96.3358471651
 31
0.0
  0
LWPOLYLINE
  5
C6
330
1F
100
AcDbEntity
  8
0
  6
Continuous
 62
     7
370
    15
100
AcDbPolyline
 90
        9
 70
   128
 43
0.0
 10
542.6444420605
 20
96.3358471651
 10
542.0710826307
 20
96.4319000501
 10
541.5197620182
 20
96.716422822
 10
541.0116622238
 20
97.1784780283
 10
540.5663037687
 20
97.8003034849
 10
540.2008155375
 20
98.5579679269
 10
539.9292269736
 20
99.4224140901
 10
539.7619837909
 20
100.3603825826
 10
539.7055158406
 20
101.3358423967
  0
LINE
  5
C7
330
1F
100
AcDbEntity
  8
0
  6
Continuous
 62
     7
370
    15
100
AcDbLine
 10
539.7055158406
 20
101.3358423967
 30
0.0
 11
539.7055158406
 21
125.0858346481
 31
0.0
  0
LINE
  5
C8
330
1F
100
AcDbEntity
  8
0
  6
Continuous
 62
     7
370
    15
100
AcDbLine
 10
539.7055158406
 20
137.0858291645
 30
0.0
 11
539.7055158406
 21
355.5858323831
 31
0.0
  0
LINE
  5
C9
330
1F
100
AcDbEntity
  8
0
  6
Continuous
 62
     7
370
    15
100
AcDbLine
 10
539.7055158406
 20
367.5858324874
 30
0.0
 11
539.7055158406
 21
391.3358340521
 31
0.0
  0
LWPOLYLINE
  5
CA
330
1F
100
AcDbEntity
  8
0
  6
Continuous
 62
     7
370
    15
100
AcDbPolyline
 90
        9
 70
   128
 43
0.0
 10
542.6444420605
 20
396.335833009
 10
542.0710826307
 20
396.2397577722
 10
541.5197620182
 20
395.955231275
 10
541.0116622238
 20
395.493179794
 10
540.5663037687
 20
394.8713655133
 10
540.2008155375
 20
394.1136824448
 10
539.9292269736
 20
393.2492511828
 10
539.7619837909
 20
392.3112826903
 10
539.7055158406
 20
391.3358340521
  0
LINE
  5
CB
330
1F
100
AcDbEntity
  8
0
  6
Continuous
 62
     7
370
    15
100
AcDbLine
 10
543.2322258144
 20
396.335833009
 30
0.0
 11
542.6444420605
 21
396.335833009
 31
0.0
  0
LWPOLYLINE
  5
CC
330
1F
100
AcDbEntity
  8
0
  6
Continuous
 62
     7
370
    15
100
AcDbPolyline
 90
        3
 70
   128
 43
0.0
 10
332.860165277
 20
96.3358471651
 10
332.2868132978
 20
96.4319000501
 10
331.8644324332
 20
96.6315458078
  0
LWPOLYLINE
  5
CD
330
1F
100
AcDbEntity
  8
0
  6
Continuous
 62
     7
370
    15
100
AcDbPolyline
 90
        3
 70
   128
 43
0.0
 10
332.860165277
 20
396.335833009
 10
332.2868132978
 20
396.2397577722
 10
331.8644324332
 20
396.0401045639
  0
ARC
  5
CE
330
1F
100
AcDbEntity
  8
0
  6
Continuous
 62
     7
370
    15
100
AcDbCircle
 10
360.6948170307
 20
391.7677015608
 30
0.0
 40
4.599214896801052
100
AcDbArc
 50
96.6650786241
 51
185.3880268291
  0
LINE
  5
CF
330
1F
100
AcDbEntity
  8
0
  6
Continuous
 62
     7
370
    15
100
AcDbLine
 10
356.1159232645
 20
101.3358423967
 30
0.0
 11
356.1159232645
 21
125.0858346481
 31
0.0
  0
LINE
  5
D0
330
1F
100
AcDbEntity
  8
0
  6
Continuous
 62
     7
370
    15
100
AcDbLine
 10
356.1159232645
 20
137.0858291645
 30
0.0
 11
356.1159232645
 21
355.5858323831
 31
0.0
  0
LINE
  5
D1
330
1F
100
AcDbEntity
  8
0
  6
Continuous
 62
     7
370
    15
100
AcDbLine
 10
356.1159232645
 20
367.5858324874
 30
0.0
 11
356.1159232645
 21
391.3358340521
 31
0.0
  0
ARC
  5
D2
330
1F
100
AcDbEntity
  8
0
  6
Continuous
 62
     7
370
    15
100
AcDbCircle
 10
360.6947752788
 20
100.9039445134
 30
0.0
 40
4.599176181669255
100
AcDbArc
 50
174.6115476011
 51
263.3353886933
  0
LINE
  5
D3
330
1F
100
AcDbEntity
  8
0
  6
Continuous
 62
     7
370
    15
100
AcDbLine
 10
313.4585553794
 20
96.3358471651
 30
0.0
 11
317.0766169219
 21
96.3358471651
 31
0.0
  0
LINE
  5
D4
330
1F
100
AcDbEntity
  8
0
  6
Continuous
 62
     7
370
    15
100
AcDbLine
 10
313.4585553794
 20
96.3358471651
 30
0.0
 11
313.4585553794
 21
101.3358423967
 31
0.0
  0
LINE
  5
D5
330
1F
100
AcDbEntity
  8
0
  6
Continuous
 62
     7
370
    15
100
AcDbLine
 10
313.4585553794
 20
396.335833009
 30
0.0
 11
313.4585553794
 21
391.3358340521
 31
0.0
  0
LINE
  5
D6
330
1F
100
AcDbEntity
  8
0
  6
Continuous
 62
     7
370
    15
100
AcDbLine
 10
313.4585553794
 20
396.335833009
 30
0.0
 11
317.0766169219
 21
396.335833009
 31
0.0
  0
LINE
  5
D7
330
1F
100
AcDbEntity
  8
0
  6
Continuous
 62
     7
370
    15
100
AcDbLine
 10
313.4585553794
 20
101.3358423967
 30
0.0
 11
313.4585553794
 21
391.3358340521
 31
0.0
  0
LINE
  5
D8
330
1F
100
AcDbEntity
  8
0
  6
Continuous
 62
     7
370
    15
100
AcDbLine
 10
563.6928239851
 20
96.3358471651
 30
0.0
 11
563.3838037043
 21
96.3358471651
 31
0.0
  0
LWPOLYLINE
  5
D9
330
1F
100
AcDbEntity
  8
0
  6
Continuous
 62
     7
370
    15
100
AcDbPolyline
 90
        3
 70
   128
 43
0.0
 10
563.3838037043
 20
96.3358471651
 10
563.0823755651
 20
96.4319000501
 10
562.8603110104
 20
96.6315458078
  0
LWPOLYLINE
  5
DA
330
1F
100
AcDbEntity
  8
0
  6
Continuous
 62
     7
370
    15
100
AcDbPolyline
 90
        3
 70
   128
 43
0.0
 10
563.3838037043
 20
396.335833009
 10
563.0823755651
 20
396.2397577722
 10
562.8603110104
 20
396.0401045639
  0
LINE
  5
DB
330
1F
100
AcDbEntity
  8
0
  6
Continuous
 62
     7
370
    15
100
AcDbLine
 10
563.6928239851
 20
396.335833009
 30
0.0
 11
563.3838037043
 21
396.335833009
 31
0.0
  0
ARC
  5
DC
330
1F
100
AcDbEntity
  8
0
  6
Continuous
 62
     7
370
    15
100
AcDbCircle
 10
457.8623717218
 20
391.3358323831
 30
0.0
 40
5.0
100
AcDbArc
 50
0.0
 51
90.0
  0
LINE
  5
DD
330
1F
100
AcDbEntity
  8
0
  6
Continuous
 62
     7
370
    15
100
AcDbLine
 10
462.8623714685
 20
101.3358423967
 30
0.0
 11
462.8623714685
 21
391.3358340521
 31
0.0
  0
ARC
  5
DE
330
1F
100
AcDbEntity
  8
0
  6
Continuous
 62
     7
370
    15
100
AcDbCircle
 10
437.8623717218
 20
391.3358323831
 30
0.0
 40
5.0
100
AcDbArc
 50
90.0
 51
180.0
  0
LINE
  5
DF
330
1F
100
AcDbEntity
  8
0
  6
Continuous
 62
     7
370
    15
100
AcDbLine
 10
437.8623720273
 20
396.335833009
 30
0.0
 11
457.8623715802
 21
396.335833009
 31
0.0
  0
ARC
  5
E0
330
1F
100
AcDbEntity
  8
0
  6
Continuous
 62
     7
370
    15
100
AcDbCircle
 10
437.8623717218
 20
101.3358323831
 30
0.0
 40
5.0
100
AcDbArc
 50
180.0
 51
270.0
  0
LINE
  5
E1
330
1F
100
AcDbEntity
  8
0
  6
Continuous
 62
     7
370
    15
100
AcDbLine
 10
432.862372139
 20
101.3358423967
 30
0.0
 11
432.862372139
 21
391.3358340521
 31
0.0
  0
ARC
  5
E2
330
1F
100
AcDbEntity
  8
0
  6
Continuous
 62
     7
370
    15
100
AcDbCircle
 10
457.8623717218
 20
101.3358323831
 30
0.0
 40
5.0
100
AcDbArc
 50
270.0
 51
0.0
  0
LINE
  5
E3
330
1F
100
AcDbEntity
  8
0
  6
Continuous
 62
     7
370
    15
100
AcDbLine
 10
437.8623720273
 20
96.3358471651
 30
0.0
 11
457.8623715802
 21
96.3358471651
 31
0.0
  0
LINE
  5
E4
330
1F
100
AcDbEntity
  8
0
  6
Continuous
 62
     7
370
    15
100
AcDbLine
 10
360.9700286775
 20
396.335833009
 30
0.0
 11
377.1503651529
 21
396.335833009
 31
0.0
  0
ARC
  5
E5
330
1F
100
AcDbEntity
  8
0
  6
Continuous
 62
     7
370
    15
100
AcDbCircle
 10
376.6165555055
 20
391.7677015608
 30
0.0
 40
4.599214896801052
100
AcDbArc
 50
354.6119731709
 51
83.3349213759
  0
LINE
  5
E6
330
1F
100
AcDbEntity
  8
0
  6
Continuous
 62
     7
370
    15
100
AcDbLine
 10
381.1954492717
 20
101.3358423967
 30
0.0
 11
381.1954492717
 21
391.3358340521
 31
0.0
  0
ARC
  5
E7
330
1F
100
AcDbEntity
  8
0
  6
Continuous
 62
     7
370
    15
100
AcDbCircle
 10
376.6165972575
 20
100.9039445134
 30
0.0
 40
4.599176181669255
100
AcDbArc
 50
276.6646113067
 51
5.3884523989
  0
LINE
  5
E8
330
1F
100
AcDbEntity
  8
0
  6
Continuous
 62
     7
370
    15
100
AcDbLine
 10
360.9700286775
 20
96.3358471651
 30
0.0
 11
377.1503651529
 21
96.3358471651
 31
0.0
  0
ARC
  5
E9
330
1F
100
AcDbEntity
  8
0
  6
Continuous
 62
     7
370
    15
100
AcDbCircle
 10
361.5038016423
 20
100.9039554376
 30
0.0
 40
4.599187620413453
100
AcDbArc
 50
174.6116977385
 51
263.3353417616
  0
LINE
  5
EA
330
1F
100
AcDbEntity
  8
0
  6
Continuous
 62
     7
370
    15
100
AcDbLine
 10
356.9249371081
 20
101.3358423967
 30
0.0
 11
356.9249371081
 21
391.3358340521
 31
0.0
  0
ARC
  5
EB
330
1F
100
AcDbEntity
  8
0
  6
Continuous
 62
     7
370
    15
100
AcDbCircle
 10
361.5038433941
 20
391.7676906366
 30
0.0
 40
4.599226335605142
100
AcDbArc
 50
96.6651255538
 51
185.3878766937
  0
LINE
  5
EC
330
1F
100
AcDbEntity
  8
0
  6
Continuous
 62
     7
370
    15
100
AcDbLine
 10
386.1916260808
 20
101.3358423967
 30
0.0
 11
386.1916260808
 21
391.3358340521
 31
0.0
  0
LINE
  5
ED
330
1F
100
AcDbEntity
  8
0
  6
Continuous
 62
     7
370
    15
100
AcDbLine
 10
377.1503651529
 20
96.3358471651
 30
0.0
 11
382.1465382367
 21
96.3358471651
 31
0.0
  0
ARC
  5
EE
330
1F
100
AcDbEntity
  8
0
  6
Continuous
 62
     7
370
    15
100
AcDbCircle
 10
381.6127660113
 20
100.9039514279
 30
0.0
 40
4.599183551940365
100
AcDbArc
 50
276.6646548861
 51
5.3883572166
  0
LINE
  5
EF
330
1F
100
AcDbEntity
  8
0
  6
Continuous
 62
     7
370
    15
100
AcDbLine
 10
377.1503651529
 20
396.335833009
 30
0.0
 11
382.1465382367
 21
396.335833009
 31
0.0
  0
ARC
  5
F0
330
1F
100
AcDbEntity
  8
0
  6
Continuous
 62
     7
370
    15
100
AcDbCircle
 10
381.6127242593
 20
391.7676946463
 30
0.0
 40
4.599222267218771
100
AcDbArc
 50
354.6120683532
 51
83.3348777965
  0
LINE
  5
F1
330
1F
100
AcDbEntity
  8
0
  6
Continuous
 62
     7
370
    15
100
AcDbLine
 10
348.1425875812
 20
101.3358423967
 30
0.0
 11
348.1425875812
 21
391.3358340521
 31
0.0
  0
LINE
  5
F2
330
1F
100
AcDbEntity
  8
0
  6
Continuous
 62
     7
370
    15
100
AcDbLine
 10
355.019227603
 20
101.3358423967
 30
0.0
 11
355.019227603
 21
391.3358340521
 31
0.0
  0
LINE
  5
F3
330
1F
100
AcDbEntity
  8
0
  6
Continuous
 62
     7
370
    15
100
AcDbLine
 10
333.4479564815
 20
396.335833009
 30
0.0
 11
345.2036613613
 21
396.335833009
 31
0.0
  0
LWPOLYLINE
  5
F4
330
1F
100
AcDbEntity
  8
0
  6
Continuous
 62
     7
370
    15
100
AcDbPolyline
 90
        9
 70
   128
 43
0.0
 10
345.2036613613
 20
396.335833009
 10
345.7770133405
 20
396.2397577722
 10
346.3283339529
 20
395.955231275
 10
346.8364411979
 20
395.493179794
 10
347.2817922025
 20
394.8713655133
 10
347.6472878843
 20
394.1136824448
 10
347.9188689976
 20
393.2492511828
 10
348.0861121803
 20
392.3112826903
 10
348.1425875812
 20
391.3358340521
  0
LWPOLYLINE
  5
F5
330
1F
100
AcDbEntity
  8
0
  6
Continuous
 62
     7
370
    15
100
AcDbPolyline
 90
        9
 70
   128
 43
0.0
 10
345.2036613613
 20
96.3358471651
 10
345.7770133405
 20
96.4319000501
 10
346.3283339529
 20
96.716422822
 10
346.8364411979
 20
97.1784780283
 10
347.2817922025
 20
97.8003034849
 10
347.6472878843
 20
98.5579679269
 10
347.9188689976
 20
99.4224140901
 10
348.0861121803
 20
100.3603825826
 10
348.1425875812
 20
101.3358423967
  0
LINE
  5
F6
330
1F
100
AcDbEntity
  8
0
  6
Continuous
 62
     7
370
    15
100
AcDbLine
 10
333.4479564815
 20
96.3358471651
 30
0.0
 11
345.2036613613
 21
96.3358471651
 31
0.0
  0
LWPOLYLINE
  5
F7
330
1F
100
AcDbEntity
  8
0
  6
Continuous
 62
     7
370
    15
100
AcDbPolyline
 90
        9
 70
   128
 43
0.0
 10
333.4479564815
 20
96.3358471651
 10
332.8745970517
 20
96.4319000501
 10
332.3232764392
 20
96.716422822
 10
331.8151766448
 20
97.1784780283
 10
331.3698181897
 20
97.8003034849
 10
331.0043225079
 20
98.5579679269
 10
330.7327413946
 20
99.4224140901
 10
330.5654982119
 20
100.3603825826
 10
330.5090302616
 20
101.3358423967
  0
LINE
  5
F8
330
1F
100
AcDbEntity
  8
0
  6
Continuous
 62
     7
370
    15
100
AcDbLine
 10
330.5090302616
 20
101.3358423967
 30
0.0
 11
330.5090302616
 21
391.3358340521
 31
0.0
  0
LWPOLYLINE
  5
F9
330
1F
100
AcDbEntity
  8
0
  6
Continuous
 62
     7
370
    15
100
AcDbPolyline
 90
        9
 70
   128
 43
0.0
 10
330.5090302616
 20
391.3358340521
 10
330.5654982119
 20
392.3112826903
 10
330.7327413946
 20
393.2492511828
 10
331.0043225079
 20
394.1136824448
 10
331.3698181897
 20
394.8713655133
 10
331.8151766448
 20
395.493179794
 10
332.3232764392
 20
395.955231275
 10
332.8745970517
 20
396.2397577722
 10
333.4479564815
 20
396.335833009
  0
LINE
  5
FA
330
1F
100
AcDbEntity
  8
0
  6
Continuous
 62
     7
370
    15
100
AcDbLine
 10
345.2036613613
 20
96.3358471651
 30
0.0
 11
352.0803013831
 21
96.3358471651
 31
0.0
  0
LWPOLYLINE
  5
FB
330
1F
100
AcDbEntity
  8
0
  6
Continuous
 62
     7
370
    15
100
AcDbPolyline
 90
        9
 70
   128
 43
0.0
 10
352.0803013831
 20
96.3358471651
 10
352.6536608129
 20
96.4319000501
 10
353.2049814253
 20
96.716422822
 10
353.7130812197
 20
97.1784780283
 10
354.1584396749
 20
97.8003034849
 10
354.5239279061
 20
98.5579679269
 10
354.79551647
 20
99.4224140901
 10
354.9627596526
 20
100.3603825826
 10
355.019227603
 20
101.3358423967
  0
LINE
  5
FC
330
1F
100
AcDbEntity
  8
0
  6
Continuous
 62
     7
370
    15
100
AcDbLine
 10
345.2036613613
 20
396.335833009
 30
0.0
 11
352.0803013831
 21
396.335833009
 31
0.0
  0
LWPOLYLINE
  5
FD
330
1F
100
AcDbEntity
  8
0
  6
Continuous
 62
     7
370
    15
100
AcDbPolyline
 90
        9
 70
   128
 43
0.0
 10
352.0803013831
 20
396.335833009
 10
352.6536608129
 20
396.2397577722
 10
353.2049814253
 20
395.955231275
 10
353.7130812197
 20
395.493179794
 10
354.1584396749
 20
394.8713655133
 10
354.5239279061
 20
394.1136824448
 10
354.79551647
 20
393.2492511828
 10
354.9627596526
 20
392.3112826903
 10
355.019227603
 20
391.3358340521
  0
LINE
  5
FE
330
1F
100
AcDbEntity
  8
0
  6
Continuous
 62
     7
370
    15
100
AcDbLine
 10
420.7251938074
 20
101.3358423967
 30
0.0
 11
420.7251938074
 21
391.3358340521
 31
0.0
  0
LINE
  5
FF
330
1F
100
AcDbEntity
  8
0
  6
Continuous
 62
     7
370
    15
100
AcDbLine
 10
423.3518382548
 20
101.3358423967
 30
0.0
 11
423.3518382548
 21
391.3358340521
 31
0.0
  0
ARC
  5
100
330
1F
100
AcDbEntity
  8
0
  6
Continuous
 62
     7
370
    15
100
AcDbCircle
 10
415.8444060908
 20
391.4551993563
 30
0.0
 40
4.882247106607581
100
AcDbArc
 50
358.5990447577
 51
88.5269482884
  0
LINE
  5
101
330
1F
100
AcDbEntity
  8
0
  6
Continuous
 62
     7
370
    15
100
AcDbLine
 10
415.9699128955
 20
396.335833009
 30
0.0
 11
418.5965573429
 21
396.335833009
 31
0.0
  0
ARC
  5
102
330
1F
100
AcDbEntity
  8
0
  6
Continuous
 62
     7
370
    15
100
AcDbCircle
 10
418.4710505383
 20
391.4551993563
 30
0.0
 40
4.882247106607581
100
AcDbArc
 50
358.5990447577
 51
88.5269482884
  0
LINE
  5
103
330
1F
100
AcDbEntity
  8
0
  6
Continuous
 62
     7
370
    15
100
AcDbLine
 10
415.9699128955
 20
96.3358471651
 30
0.0
 11
418.5965573429
 21
96.3358471651
 31
0.0
  0
ARC
  5
104
330
1F
100
AcDbEntity
  8
0
  6
Continuous
 62
     7
370
    15
100
AcDbCircle
 10
415.8444453941
 20
101.2164433492
 30
0.0
 40
4.882208640232482
100
AcDbArc
 50
271.4726019197
 51
1.4013623992
  0
ARC
  5
105
330
1F
100
AcDbEntity
  8
0
  6
Continuous
 62
     7
370
    15
100
AcDbCircle
 10
418.4710898415
 20
101.2164433492
 30
0.0
 40
4.882208640232482
100
AcDbArc
 50
271.4726019197
 51
1.4013623992
  0
LINE
  5
106
330
1F
100
AcDbEntity
  8
0
  6
Continuous
 62
     7
370
    15
100
AcDbLine
 10
396.9487817972
 20
396.335833009
 30
0.0
 11
415.9699128955
 21
396.335833009
 31
0.0
  0
LINE
  5
107
330
1F
100
AcDbEntity
  8
0
  6
Continuous
 62
     7
370
    15
100
AcDbLine
 10
396.9487817972
 20
96.3358471651
 30
0.0
 11
415.9699128955
 21
96.3358471651
 31
0.0
  0
ARC
  5
108
330
1F
100
AcDbEntity
  8
0
  6
Continuous
 62
     7
370
    15
100
AcDbCircle
 10
397.0742473451
 20
101.2164414914
 30
0.0
 40
4.88220673276605
100
AcDbArc
 50
178.5986152432
 51
268.5274204378
  0
LINE
  5
109
330
1F
100
AcDbEntity
  8
0
  6
Continuous
 62
     7
370
    15
100
AcDbLine
 10
392.1935008853
 20
101.3358423967
 30
0.0
 11
392.1935008853
 21
391.3358340521
 31
0.0
  0
ARC
  5
10A
330
1F
100
AcDbEntity
  8
0
  6
Continuous
 62
     7
370
    15
100
AcDbCircle
 10
397.0742866483
 20
391.4552012142
 30
0.0
 40
4.882245199103949
100
AcDbArc
 50
91.4730293542
 51
181.4009775998
  0
LINE
  5
10B
330
1F
100
AcDbEntity
  8
0
  6
Continuous
 62
     7
370
    15
100
AcDbLine
 10
479.7058897107
 20
396.335833009
 30
0.0
 11
477.0792434006
 21
396.335833009
 31
0.0
  0
ARC
  5
10C
330
1F
100
AcDbEntity
  8
0
  6
Continuous
 62
     7
370
    15
100
AcDbCircle
 10
479.8313964783
 20
391.455195755
 30
0.0
 40
4.88225070570456
100
AcDbArc
 50
91.4730501906
 51
181.4009119343
  0
ARC
  5
10D
330
1F
100
AcDbEntity
  8
0
  6
Continuous
 62
     7
370
    15
100
AcDbCircle
 10
477.204752113
 20
391.4551957236
 30
0.0
 40
4.882250787072191
100
AcDbArc
 50
91.4730729969
 51
181.4009115425
  0
LINE
  5
10E
330
1F
100
AcDbEntity
  8
0
  6
Continuous
 62
     7
370
    15
100
AcDbLine
 10
479.7058897107
 20
396.335833009
 30
0.0
 11
498.7270170837
 21
396.335833009
 31
0.0
  0
ARC
  5
10F
330
1F
100
AcDbEntity
  8
0
  6
Continuous
 62
     7
370
    15
100
AcDbCircle
 10
498.6015122151
 20
391.4551975611
 30
0.0
 40
4.882248851382833
100
AcDbArc
 50
358.5990663316
 51
88.5269715435
  0
LINE
  5
110
330
1F
100
AcDbEntity
  8
0
  6
Continuous
 62
     7
370
    15
100
AcDbLine
 10
503.4823017209
 20
101.3358423967
 30
0.0
 11
503.4823017209
 21
391.3358340521
 31
0.0
  0
ARC
  5
111
330
1F
100
AcDbEntity
  8
0
  6
Continuous
 62
     7
370
    15
100
AcDbCircle
 10
498.6015515183
 20
101.2164451444
 30
0.0
 40
4.882210385047921
100
AcDbArc
 50
271.4725786652
 51
1.4013408247
  0
LINE
  5
112
330
1F
100
AcDbEntity
  8
0
  6
Continuous
 62
     7
370
    15
100
AcDbLine
 10
479.7058897107
 20
96.3358471651
 30
0.0
 11
498.7270170837
 21
96.3358471651
 31
0.0
  0
ARC
  5
113
330
1F
100
AcDbEntity
  8
0
  6
Continuous
 62
     7
370
    15
100
AcDbCircle
 10
479.8313571751
 20
101.2164469504
 30
0.0
 40
4.88221223929912
100
AcDbArc
 50
178.5986809091
 51
268.527399601
  0
LINE
  5
114
330
1F
100
AcDbEntity
  8
0
  6
Continuous
 62
     7
370
    15
100
AcDbLine
 10
474.9506050735
 20
101.3358423967
 30
0.0
 11
474.9506050735
 21
391.3358340521
 31
0.0
  0
LINE
  5
115
330
1F
100
AcDbEntity
  8
0
  6
Continuous
 62
     7
370
    15
100
AcDbLine
 10
479.7058897107
 20
96.3358471651
 30
0.0
 11
477.0792434006
 21
96.3358471651
 31
0.0
  0
ARC
  5
116
330
1F
100
AcDbEntity
  8
0
  6
Continuous
 62
     7
370
    15
100
AcDbCircle
 10
477.2047128097
 20
101.2164469818
 30
0.0
 40
4.882212320627985
100
AcDbArc
 50
178.5986813006
 51
268.527376795
  0
LINE
  5
117
330
1F
100
AcDbEntity
  8
0
  6
Continuous
 62
     7
370
    15
100
AcDbLine
 10
472.323960626
 20
101.3358423967
 30
0.0
 11
472.323960626
 21
391.3358340521
 31
0.0
  0
LWPOLYLINE
  5
118
330
1F
100
AcDbEntity
  8
0
  6
Continuous
 62
     7
370
    15
100
AcDbPolyline
 90
        9
 70
   128
 43
0.0
 10
571.7768007903
 20
96.3358471651
 10
571.4753726511
 20
96.4319000501
 10
571.1855227142
 20
96.716422822
 10
570.918397048
 20
97.1784780283
 10
570.6842625528
 20
97.8003034849
 10
570.4921120792
 20
98.5579679269
 10
570.3493291526
 20
99.4224140901
 10
570.261404851
 20
100.3603825826
 10
570.2317142873
 20
101.3358423967
  0
LINE
  5
119
330
1F
100
AcDbEntity
  8
0
  6
Continuous
 62
     7
370
    15
100
AcDbLine
 10
571.7768007903
 20
96.3358471651
 30
0.0
 11
563.6928239851
 21
96.3358471651
 31
0.0
  0
ARC
  5
11A
330
1F
100
AcDbEntity
  8
0
  6
Continuous
 62
     7
370
    15
100
AcDbCircle
 10
563.8557058288
 20
97.2460009624
 30
0.0
 40
0.9246136651344401
100
AcDbArc
 50
210.962725699
 51
259.8537103643
  0
LINE
  5
11B
330
1F
100
AcDbEntity
  8
0
  6
Continuous
 62
     7
370
    15
100
AcDbLine
 10
571.7768007903
 20
396.335833009
 30
0.0
 11
563.6928239851
 21
396.335833009
 31
0.0
  0
LWPOLYLINE
  5
11C
330
1F
100
AcDbEntity
  8
0
  6
Continuous
 62
     7
370
    15
100
AcDbPolyline
 90
        9
 70
   128
 43
0.0
 10
570.2317142873
 20
391.3358340521
 10
570.261404851
 20
392.3112826903
 10
570.3493291526
 20
393.2492511828
 10
570.4921120792
 20
394.1136824448
 10
570.6842625528
 20
394.8713655133
 10
570.918397048
 20
395.493179794
 10
571.1855227142
 20
395.955231275
 10
571.4753726511
 20
396.2397577722
 10
571.7768007903
 20
396.335833009
  0
ARC
  5
11D
330
1F
100
AcDbEntity
  8
0
  6
Continuous
 62
     7
370
    15
100
AcDbCircle
 10
563.8558396974
 20
395.4255054999
 30
0.0
 40
0.9248082483039052
100
AcDbArc
 50
100.1525577715
 51
149.0333022186
  0
LINE
  5
11E
330
1F
100
AcDbEntity
  8
0
  6
Continuous
 62
     7
370
    15
100
AcDbLine
 10
571.7768007903
 20
396.335833009
 30
0.0
 11
577.9571468025
 21
396.335833009
 31
0.0
  0
LWPOLYLINE
  5
11F
330
1F
100
AcDbEntity
  8
0
  6
Continuous
 62
     7
370
    15
100
AcDbPolyline
 90
        9
 70
   128
 43
0.0
 10
577.9571468025
 20
396.335833009
 10
578.2585674911
 20
396.2397577722
 10
578.5484248786
 20
395.955231275
 10
578.8155430942
 20
395.493179794
 10
579.04968504
 20
394.8713655133
 10
579.2418355136
 20
394.1136824448
 10
579.3846184402
 20
393.2492511828
 10
579.4725352912
 20
392.3112826903
 10
579.5022333055
 20
391.3358340521
  0
LINE
  5
120
330
1F
100
AcDbEntity
  8
0
  6
Continuous
 62
     7
370
    15
100
AcDbLine
 10
579.5022333055
 20
101.3358423967
 30
0.0
 11
579.5022333055
 21
391.3358340521
 31
0.0
  0
LWPOLYLINE
  5
121
330
1F
100
AcDbEntity
  8
0
  6
Continuous
 62
     7
370
    15
100
AcDbPolyline
 90
        9
 70
   128
 43
0.0
 10
577.9571468025
 20
96.3358471651
 10
578.2585674911
 20
96.4319000501
 10
578.5484248786
 20
96.716422822
 10
578.8155430942
 20
97.1784780283
 10
579.04968504
 20
97.8003034849
 10
579.2418355136
 20
98.5579679269
 10
579.3846184402
 20
99.4224140901
 10
579.4725352912
 20
100.3603825826
 10
579.5022333055
 20
101.3358423967
  0
LINE
  5
122
330
1F
100
AcDbEntity
  8
0
  6
Continuous
 62
     7
370
    15
100
AcDbLine
 10
571.7768007903
 20
96.3358471651
 30
0.0
 11
577.9571468025
 21
96.3358471651
 31
0.0
  0
LINE
  5
123
330
1F
100
AcDbEntity
  8
0
  6
Continuous
 62
     7
370
    15
100
AcDbLine
 10
570.2317142873
 20
101.3358423967
 30
0.0
 11
570.2317142873
 21
391.3358340521
 31
0.0
  0
ARC
  5
124
330
1F
100
AcDbEntity
  8
0
  6
Continuous
 62
     7
370
    15
100
AcDbCircle
 10
518.9171741926
 20
100.9039559715
 30
0.0
 40
4.599189206025108
100
AcDbArc
 50
174.6117062815
 51
263.335230013
  0
LINE
  5
125
330
1F
100
AcDbEntity
  8
0
  6
Continuous
 62
     7
370
    15
100
AcDbLine
 10
518.3833921342
 20
96.3358471651
 30
0.0
 11
513.3872190504
 21
96.3358471651
 31
0.0
  0
ARC
  5
126
330
1F
100
AcDbEntity
  8
0
  6
Continuous
 62
     7
370
    15
100
AcDbCircle
 10
513.9209915119
 20
100.9039482074
 30
0.0
 40
4.599180380625861
100
AcDbArc
 50
174.6115987587
 51
263.3353375358
  0
LINE
  5
127
330
1F
100
AcDbEntity
  8
0
  6
Continuous
 62
     7
370
    15
100
AcDbLine
 10
514.3383080154
 20
101.3358423967
 30
0.0
 11
514.3383080154
 21
391.3358340521
 31
0.0
  0
LINE
  5
128
330
1F
100
AcDbEntity
  8
0
  6
Continuous
 62
     7
370
    15
100
AcDbLine
 10
509.3421349316
 20
101.3358423967
 30
0.0
 11
509.3421349316
 21
391.3358340521
 31
0.0
  0
LINE
  5
129
330
1F
100
AcDbEntity
  8
0
  6
Continuous
 62
     7
370
    15
100
AcDbLine
 10
518.3833921342
 20
396.335833009
 30
0.0
 11
534.5637360602
 21
396.335833009
 31
0.0
  0
ARC
  5
12A
330
1F
100
AcDbEntity
  8
0
  6
Continuous
 62
     7
370
    15
100
AcDbCircle
 10
534.0299264129
 20
391.7677015608
 30
0.0
 40
4.599214896801052
100
AcDbArc
 50
354.6119731709
 51
83.3349213759
  0
LINE
  5
12B
330
1F
100
AcDbEntity
  8
0
  6
Continuous
 62
     7
370
    15
100
AcDbLine
 10
538.608820179
 20
101.3358423967
 30
0.0
 11
538.608820179
 21
391.3358340521
 31
0.0
  0
ARC
  5
12C
330
1F
100
AcDbEntity
  8
0
  6
Continuous
 62
     7
370
    15
100
AcDbCircle
 10
534.0299681648
 20
100.9039445134
 30
0.0
 40
4.599176181669276
100
AcDbArc
 50
276.6646113067
 51
5.3884523989
  0
LINE
  5
12D
330
1F
100
AcDbEntity
  8
0
  6
Continuous
 62
     7
370
    15
100
AcDbLine
 10
518.3833921342
 20
96.3358471651
 30
0.0
 11
534.5637360602
 21
96.3358471651
 31
0.0
  0
ARC
  5
12E
330
1F
100
AcDbEntity
  8
0
  6
Continuous
 62
     7
370
    15
100
AcDbCircle
 10
518.9172159446
 20
391.7676901027
 30
0.0
 40
4.599227921411188
100
AcDbArc
 50
96.6652373037
 51
185.3878681495
  0
LINE
  5
12F
330
1F
100
AcDbEntity
  8
0
  6
Continuous
 62
     7
370
    15
100
AcDbLine
 10
518.3833921342
 20
396.335833009
 30
0.0
 11
513.3872190504
 21
396.335833009
 31
0.0
  0
ARC
  5
130
330
1F
100
AcDbEntity
  8
0
  6
Continuous
 62
     7
370
    15
100
AcDbCircle
 10
513.9210332638
 20
391.7676978668
 30
0.0
 40
4.599219095842288
100
AcDbArc
 50
96.6651297814
 51
185.3879756718
  0
LINE
  5
131
330
1F
100
AcDbEntity
  8
0
  6
Continuous
 62
     7
370
    15
100
AcDbLine
 10
547.1699470668
 20
101.3358423967
 30
0.0
 11
547.1699470668
 21
391.3358340521
 31
0.0
  0
LINE
  5
132
330
1F
100
AcDbEntity
  8
0
  6
Continuous
 62
     7
370
    15
100
AcDbLine
 10
540.2932995944
 20
101.3358423967
 30
0.0
 11
540.2932995944
 21
391.3358340521
 31
0.0
  0
LINE
  5
133
330
1F
100
AcDbEntity
  8
0
  6
Continuous
 62
     7
370
    15
100
AcDbLine
 10
550.1088732868
 20
396.335833009
 30
0.0
 11
543.2322258144
 21
396.335833009
 31
0.0
  0
LWPOLYLINE
  5
134
330
1F
100
AcDbEntity
  8
0
  6
Continuous
 62
     7
370
    15
100
AcDbPolyline
 90
        9
 70
   128
 43
0.0
 10
547.1699470668
 20
391.3358340521
 10
547.2264150172
 20
392.3112826903
 10
547.3936581998
 20
393.2492511828
 10
547.6652393132
 20
394.1136824448
 10
548.0307349949
 20
394.8713655133
 10
548.4760934501
 20
395.493179794
 10
548.9841932445
 20
395.955231275
 10
549.5355138569
 20
396.2397577722
 10
550.1088732868
 20
396.335833009
  0
LWPOLYLINE
  5
135
330
1F
100
AcDbEntity
  8
0
  6
Continuous
 62
     7
370
    15
100
AcDbPolyline
 90
        9
 70
   128
 43
0.0
 10
540.2932995944
 20
391.3358340521
 10
540.3497675448
 20
392.3112826903
 10
540.5170107274
 20
393.2492511828
 10
540.7885992914
 20
394.1136824448
 10
541.1540875225
 20
394.8713655133
 10
541.5994459777
 20
395.493179794
 10
542.1075457721
 20
395.955231275
 10
542.6588663845
 20
396.2397577722
 10
543.2322258144
 20
396.335833009
  0
LWPOLYLINE
  5
136
330
1F
100
AcDbEntity
  8
0
  6
Continuous
 62
     7
370
    15
100
AcDbPolyline
 90
        9
 70
   128
 43
0.0
 10
550.1088732868
 20
96.3358471651
 10
549.5355138569
 20
96.4319000501
 10
548.9841932445
 20
96.716422822
 10
548.4760934501
 20
97.1784780283
 10
548.0307349949
 20
97.8003034849
 10
547.6652393132
 20
98.5579679269
 10
547.3936581998
 20
99.4224140901
 10
547.2264150172
 20
100.3603825826
 10
547.1699470668
 20
101.3358423967
  0
LINE
  5
137
330
1F
100
AcDbEntity
  8
0
  6
Continuous
 62
     7
370
    15
100
AcDbLine
 10
550.1088732868
 20
96.3358471651
 30
0.0
 11
543.2322258144
 21
96.3358471651
 31
0.0
  0
LWPOLYLINE
  5
138
330
1F
100
AcDbEntity
  8
0
  6
Continuous
 62
     7
370
    15
100
AcDbPolyline
 90
        9
 70
   128
 43
0.0
 10
543.2322258144
 20
96.3358471651
 10
542.6588663845
 20
96.4319000501
 10
542.1075457721
 20
96.716422822
 10
541.5994459777
 20
97.1784780283
 10
541.1540875225
 20
97.8003034849
 10
540.7885992914
 20
98.5579679269
 10
540.5170107274
 20
99.4224140901
 10
540.3497675448
 20
100.3603825826
 10
540.2932995944
 20
101.3358423967
  0
LINE
  5
139
330
1F
100
AcDbEntity
  8
0
  6
Continuous
 62
     7
370
    15
100
AcDbLine
 10
550.1088732868
 20
396.335833009
 30
0.0
 11
561.8645781665
 21
396.335833009
 31
0.0
  0
LWPOLYLINE
  5
13A
330
1F
100
AcDbEntity
  8
0
  6
Continuous
 62
     7
370
    15
100
AcDbPolyline
 90
        9
 70
   128
 43
0.0
 10
561.8645781665
 20
396.335833009
 10
562.4379301458
 20
396.2397577722
 10
562.9892507582
 20
395.955231275
 10
563.4973580032
 20
395.493179794
 10
563.9427090078
 20
394.8713655133
 10
564.3082046895
 20
394.1136824448
 10
564.5797858029
 20
393.2492511828
 10
564.7470289855
 20
392.3112826903
 10
564.8035043865
 20
391.3358340521
  0
LINE
  5
13B
330
1F
100
AcDbEntity
  8
0
  6
Continuous
 62
     7
370
    15
100
AcDbLine
 10
564.8035043865
 20
101.3358423967
 30
0.0
 11
564.8035043865
 21
391.3358340521
 31
0.0
  0
LWPOLYLINE
  5
13C
330
1F
100
AcDbEntity
  8
0
  6
Continuous
 62
     7
370
    15
100
AcDbPolyline
 90
        9
 70
   128
 43
0.0
 10
561.8645781665
 20
96.3358471651
 10
562.4379301458
 20
96.4319000501
 10
562.9892507582
 20
96.716422822
 10
563.4973580032
 20
97.1784780283
 10
563.9427090078
 20
97.8003034849
 10
564.3082046895
 20
98.5579679269
 10
564.5797858029
 20
99.4224140901
 10
564.7470289855
 20
100.3603825826
 10
564.8035043865
 20
101.3358423967
  0
LINE
  5
13D
330
1F
100
AcDbEntity
  8
0
  6
Continuous
 62
     7
370
    15
100
AcDbLine
 10
550.1088732868
 20
96.3358471651
 30
0.0
 11
561.8645781665
 21
96.3358471651
 31
0.0
  0
LINE
  5
13E
330
1F
100
AcDbEntity
  8
0
  6
Continuous
 62
     7
370
    15
100
AcDbLine
 10
462.8623714685
 20
125.0858346481
 30
0.0
 11
472.323960626
 21
125.0858346481
 31
0.0
  0
LINE
  5
13F
330
1F
100
AcDbEntity
  8
0
  6
Continuous
 62
     7
370
    15
100
AcDbLine
 10
462.8623714685
 20
137.0858291645
 30
0.0
 11
472.323960626
 21
137.0858291645
 31
0.0
  0
LINE
  5
140
330
1F
100
AcDbEntity
  8
0
  6
Continuous
 62
     7
370
    15
100
AcDbLine
 10
423.3518382548
 20
125.0858346481
 30
0.0
 11
432.862372139
 21
125.0858346481
 31
0.0
  0
LINE
  5
141
330
1F
100
AcDbEntity
  8
0
  6
Continuous
 62
     7
370
    15
100
AcDbLine
 10
423.3518382548
 20
137.0858291645
 30
0.0
 11
432.862372139
 21
137.0858291645
 31
0.0
  0
LINE
  5
142
330
1F
100
AcDbEntity
  8
0
  6
Continuous
 62
     7
370
    15
100
AcDbLine
 10
503.4823017209
 20
125.0858346481
 30
0.0
 11
509.3421349316
 21
125.0858346481
 31
0.0
  0
LINE
  5
143
330
1F
100
AcDbEntity
  8
0
  6
Continuous
 62
     7
370
    15
100
AcDbLine
 10
503.4823017209
 20
137.0858291645
 30
0.0
 11
509.3421349316
 21
137.0858291645
 31
0.0
  0
LINE
  5
144
330
1F
100
AcDbEntity
  8
0
  6
Continuous
 62
     7
370
    15
100
AcDbLine
 10
386.1916260808
 20
125.0858346481
 30
0.0
 11
392.1935008853
 21
125.0858346481
 31
0.0
  0
LINE
  5
145
330
1F
100
AcDbEntity
  8
0
  6
Continuous
 62
     7
370
    15
100
AcDbLine
 10
386.1916260808
 20
137.0858291645
 30
0.0
 11
392.1935008853
 21
137.0858291645
 31
0.0
  0
LINE
  5
146
330
1F
100
AcDbEntity
  8
0
  6
Continuous
 62
     7
370
    15
100
AcDbLine
 10
538.608820179
 20
125.0858346481
 30
0.0
 11
539.8843744784
 21
125.0858346481
 31
0.0
  0
LINE
  5
147
330
1F
100
AcDbEntity
  8
0
  6
Continuous
 62
     7
370
    15
100
AcDbLine
 10
538.608820179
 20
137.0858291645
 30
0.0
 11
539.8843744784
 21
137.0858291645
 31
0.0
  0
LINE
  5
148
330
1F
100
AcDbEntity
  8
0
  6
Continuous
 62
     7
370
    15
100
AcDbLine
 10
355.019227603
 20
125.0858346481
 30
0.0
 11
356.9249371081
 21
125.0858346481
 31
0.0
  0
LINE
  5
149
330
1F
100
AcDbEntity
  8
0
  6
Continuous
 62
     7
370
    15
100
AcDbLine
 10
355.019227603
 20
137.0858291645
 30
0.0
 11
356.9249371081
 21
137.0858291645
 31
0.0
  0
LINE
  5
14A
330
1F
100
AcDbEntity
  8
0
  6
Continuous
 62
     7
370
    15
100
AcDbLine
 10
539.8843744784
 20
125.0858346481
 30
0.0
 11
540.2932995944
 21
125.0858346481
 31
0.0
  0
LINE
  5
14B
330
1F
100
AcDbEntity
  8
0
  6
Continuous
 62
     7
370
    15
100
AcDbLine
 10
539.8843744784
 20
137.0858291645
 30
0.0
 11
540.2932995944
 21
137.0858291645
 31
0.0
  0
LINE
  5
14C
330
1F
100
AcDbEntity
  8
0
  6
Continuous
 62
     7
370
    15
100
AcDbLine
 10
462.8623714685
 20
367.5858324874
 30
0.0
 11
472.323960626
 21
367.5858324874
 31
0.0
  0
LINE
  5
14D
330
1F
100
AcDbEntity
  8
0
  6
Continuous
 62
     7
370
    15
100
AcDbLine
 10
462.8623714685
 20
355.5858323831
 30
0.0
 11
472.323960626
 21
355.5858323831
 31
0.0
  0
LINE
  5
14E
330
1F
100
AcDbEntity
  8
0
  6
Continuous
 62
     7
370
    15
100
AcDbLine
 10
423.3518382548
 20
367.5858324874
 30
0.0
 11
432.862372139
 21
367.5858324874
 31
0.0
  0
LINE
  5
14F
330
1F
100
AcDbEntity
  8
0
  6
Continuous
 62
     7
370
    15
100
AcDbLine
 10
423.3518382548
 20
355.5858323831
 30
0.0
 11
432.862372139
 21
355.5858323831
 31
0.0
  0
LINE
  5
150
330
1F
100
AcDbEntity
  8
0
  6
Continuous
 62
     7
370
    15
100
AcDbLine
 10
386.1916260808
 20
367.5858324874
 30
0.0
 11
392.1935008853
 21
367.5858324874
 31
0.0
  0
LINE
  5
151
330
1F
100
AcDbEntity
  8
0
  6
Continuous
 62
     7
370
    15
100
AcDbLine
 10
386.1916260808
 20
355.5858323831
 30
0.0
 11
392.1935008853
 21
355.5858323831
 31
0.0
  0
LINE
  5
152
330
1F
100
AcDbEntity
  8
0
  6
Continuous
 62
     7
370
    15
100
AcDbLine
 10
503.4823017209
 20
367.5858324874
 30
0.0
 11
509.3421349316
 21
367.5858324874
 31
0.0
  0
LINE
  5
153
330
1F
100
AcDbEntity
  8
0
  6
Continuous
 62
     7
370
    15
100
AcDbLine
 10
503.4823017209
 20
355.5858323831
 30
0.0
 11
509.3421349316
 21
355.5858323831
 31
0.0
  0
LINE
  5
154
330
1F
100
AcDbEntity
  8
0
  6
Continuous
 62
     7
370
    15
100
AcDbLine
 10
538.608820179
 20
367.5858324874
 30
0.0
 11
539.8843744784
 21
367.5858324874
 31
0.0
  0
LINE
  5
155
330
1F
100
AcDbEntity
  8
0
  6
Continuous
 62
     7
370
    15
100
AcDbLine
 10
538.608820179
 20
355.5858323831
 30
0.0
 11
539.8843744784
 21
355.5858323831
 31
0.0
  0
LINE
  5
156
330
1F
100
AcDbEntity
  8
0
  6
Continuous
 62
     7
370
    15
100
AcDbLine
 10
355.019227603
 20
367.5858324874
 30
0.0
 11
356.9249371081
 21
367.5858324874
 31
0.0
  0
LINE
  5
157
330
1F
100
AcDbEntity
  8
0
  6
Continuous
 62
     7
370
    15
100
AcDbLine
 10
355.019227603
 20
355.5858323831
 30
0.0
 11
356.9249371081
 21
355.5858323831
 31
0.0
  0
LINE
  5
158
330
1F
100
AcDbEntity
  8
0
  6
Continuous
 62
     7
370
    15
100
AcDbLine
 10
539.8843744784
 20
367.5858324874
 30
0.0
 11
540.2932995944
 21
367.5858324874
 31
0.0
  0
LINE
  5
159
330
1F
100
AcDbEntity
  8
0
  6
Continuous
 62
     7
370
    15
100
AcDbLine
 10
539.8843744784
 20
355.5858323831
 30
0.0
 11
540.2932995944
 21
355.5858323831
 31
0.0
  0
CIRCLE
  5
15A
330
1F
100
AcDbEntity
  8
0
  6
Continuous
 62
     7
370
    15
100
AcDbCircle
 10
447.3623717218
 20
401.0858323831
 30
0.0
 40
2.5
  0
LINE
  5
15B
330
1F
100
AcDbEntity
  8
0
  6
Continuous
 62
     7
370
    15
100
AcDbLine
 10
444.3623716957
 20
1407.0857951898
 30
0.0
 11
450.3623717479
 21
1407.0857951898
 31
0.0
  0
LINE
  5
15C
330
1F
100
AcDbEntity
  8
0
  6
Continuous
 62
     7
370
    15
100
AcDbLine
 10
432.6619850486
 20
367.5858324874
 30
0.0
 11
432.6619850486
 21
369.5858328153
 31
0.0
  0
LINE
  5
15D
330
1F
100
AcDbEntity
  8
0
  6
Continuous
 62
     7
370
    15
100
AcDbLine
 10
432.6619850486
 20
369.5858328153
 30
0.0
 11
432.862372139
 21
369.5858328153
 31
0.0
  0
LINE
  5
15E
330
1F
100
AcDbEntity
  8
0
  6
Continuous
 62
     7
370
    15
100
AcDbLine
 10
432.1491839378
 20
367.5858324874
 30
0.0
 11
432.1491839378
 21
369.5858328153
 31
0.0
  0
LINE
  5
15F
330
1F
100
AcDbEntity
  8
0
  6
Continuous
 62
     7
370
    15
100
AcDbLine
 10
432.6619850486
 20
369.5858328153
 30
0.0
 11
432.1491839378
 21
369.5858328153
 31
0.0
  0
LINE
  5
160
330
1F
100
AcDbEntity
  8
0
  6
Continuous
 62
     7
370
    15
100
AcDbLine
 10
431.8960970282
 20
367.5858324874
 30
0.0
 11
431.8960970282
 21
369.5858328153
 31
0.0
  0
LINE
  5
161
330
1F
100
AcDbEntity
  8
0
  6
Continuous
 62
     7
370
    15
100
AcDbLine
 10
431.8960970282
 20
369.5858328153
 30
0.0
 11
432.1491839378
 21
369.5858328153
 31
0.0
  0
LINE
  5
162
330
1F
100
AcDbEntity
  8
0
  6
Continuous
 62
     7
370
    15
100
AcDbLine
 10
463.3345389753
 20
367.5858324874
 30
0.0
 11
463.3345389753
 21
369.5858328153
 31
0.0
  0
LINE
  5
163
330
1F
100
AcDbEntity
  8
0
  6
Continuous
 62
     7
370
    15
100
AcDbLine
 10
462.8623714685
 20
369.5858328153
 30
0.0
 11
463.3345389753
 21
369.5858328153
 31
0.0
  0
LINE
  5
164
330
1F
100
AcDbEntity
  8
0
  6
Continuous
 62
     7
370
    15
100
AcDbLine
 10
431.3902044683
 20
367.5858324874
 30
0.0
 11
431.3902044683
 21
369.5858328153
 31
0.0
  0
LINE
  5
165
330
1F
100
AcDbEntity
  8
0
  6
Continuous
 62
     7
370
    15
100
AcDbLine
 10
431.8960970282
 20
369.5858328153
 30
0.0
 11
431.3902044683
 21
369.5858328153
 31
0.0
  0
LINE
  5
166
330
1F
100
AcDbEntity
  8
0
  6
Continuous
 62
     7
370
    15
100
AcDbLine
 10
463.5677589118
 20
367.5858324874
 30
0.0
 11
463.5677589118
 21
369.5858328153
 31
0.0
  0
LINE
  5
167
330
1F
100
AcDbEntity
  8
0
  6
Continuous
 62
     7
370
    15
100
AcDbLine
 10
463.5677589118
 20
369.5858328153
 30
0.0
 11
463.3345389753
 21
369.5858328153
 31
0.0
  0
LINE
  5
168
330
1F
100
AcDbEntity
  8
0
  6
Continuous
 62
     7
370
    15
100
AcDbLine
 10
431.1569845318
 20
367.5858324874
 30
0.0
 11
431.1569845318
 21
369.5858328153
 31
0.0
  0
LINE
  5
169
330
1F
100
AcDbEntity
  8
0
  6
Continuous
 62
     7
370
    15
100
AcDbLine
 10
431.1569845318
 20
369.5858328153
 30
0.0
 11
431.3902044683
 21
369.5858328153
 31
0.0
  0
LINE
  5
16A
330
1F
100
AcDbEntity
  8
0
  6
Continuous
 62
     7
370
    15
100
AcDbLine
 10
464.0658674776
 20
367.5858324874
 30
0.0
 11
464.0658674776
 21
369.5858328153
 31
0.0
  0
LINE
  5
16B
330
1F
100
AcDbEntity
  8
0
  6
Continuous
 62
     7
370
    15
100
AcDbLine
 10
463.5677589118
 20
369.5858328153
 30
0.0
 11
464.0658674776
 21
369.5858328153
 31
0.0
  0
LINE
  5
16C
330
1F
100
AcDbEntity
  8
0
  6
Continuous
 62
     7
370
    15
100
AcDbLine
 10
430.658875966
 20
367.5858324874
 30
0.0
 11
430.658875966
 21
369.5858328153
 31
0.0
  0
LINE
  5
16D
330
1F
100
AcDbEntity
  8
0
  6
Continuous
 62
     7
370
    15
100
AcDbLine
 10
431.1569845318
 20
369.5858328153
 30
0.0
 11
430.658875966
 21
369.5858328153
 31
0.0
  0
LINE
  5
16E
330
1F
100
AcDbEntity
  8
0
  6
Continuous
 62
     7
370
    15
100
AcDbLine
 10
464.2788181095
 20
367.5858324874
 30
0.0
 11
464.2788181095
 21
369.5858328153
 31
0.0
  0
LINE
  5
16F
330
1F
100
AcDbEntity
  8
0
  6
Continuous
 62
     7
370
    15
100
AcDbLine
 10
464.2788181095
 20
369.5858328153
 30
0.0
 11
464.0658674776
 21
369.5858328153
 31
0.0
  0
LINE
  5
170
330
1F
100
AcDbEntity
  8
0
  6
Continuous
 62
     7
370
    15
100
AcDbLine
 10
430.445925334
 20
367.5858324874
 30
0.0
 11
430.445925334
 21
369.5858328153
 31
0.0
  0
LINE
  5
171
330
1F
100
AcDbEntity
  8
0
  6
Continuous
 62
     7
370
    15
100
AcDbLine
 10
430.445925334
 20
369.5858328153
 30
0.0
 11
430.658875966
 21
369.5858328153
 31
0.0
  0
LINE
  5
172
330
1F
100
AcDbEntity
  8
0
  6
Continuous
 62
     7
370
    15
100
AcDbLine
 10
464.7682784139
 20
367.5858324874
 30
0.0
 11
464.7682784139
 21
369.5858328153
 31
0.0
  0
LINE
  5
173
330
1F
100
AcDbEntity
  8
0
  6
Continuous
 62
     7
370
    15
100
AcDbLine
 10
464.2788181095
 20
369.5858328153
 30
0.0
 11
464.7682784139
 21
369.5858328153
 31
0.0
  0
LINE
  5
174
330
1F
100
AcDbEntity
  8
0
  6
Continuous
 62
     7
370
    15
100
AcDbLine
 10
429.9564650296
 20
367.5858324874
 30
0.0
 11
429.9564650296
 21
369.5858328153
 31
0.0
  0
LINE
  5
175
330
1F
100
AcDbEntity
  8
0
  6
Continuous
 62
     7
370
    15
100
AcDbLine
 10
430.445925334
 20
369.5858328153
 30
0.0
 11
429.9564650296
 21
369.5858328153
 31
0.0
  0
LINE
  5
176
330
1F
100
AcDbEntity
  8
0
  6
Continuous
 62
     7
370
    15
100
AcDbLine
 10
464.9605928003
 20
367.5858324874
 30
0.0
 11
464.9605928003
 21
369.5858328153
 31
0.0
  0
LINE
  5
177
330
1F
100
AcDbEntity
  8
0
  6
Continuous
 62
     7
370
    15
100
AcDbLine
 10
464.9605928003
 20
369.5858328153
 30
0.0
 11
464.7682784139
 21
369.5858328153
 31
0.0
  0
LINE
  5
178
330
1F
100
AcDbEntity
  8
0
  6
Continuous
 62
     7
370
    15
100
AcDbLine
 10
429.7641506433
 20
367.5858324874
 30
0.0
 11
429.7641506433
 21
369.5858328153
 31
0.0
  0
LINE
  5
179
330
1F
100
AcDbEntity
  8
0
  6
Continuous
 62
     7
370
    15
100
AcDbLine
 10
429.7641506433
 20
369.5858328153
 30
0.0
 11
429.9564650296
 21
369.5858328153
 31
0.0
  0
LINE
  5
17A
330
1F
100
AcDbEntity
  8
0
  6
Continuous
 62
     7
370
    15
100
AcDbLine
 10
465.4405573397
 20
367.5858324874
 30
0.0
 11
465.4405573397
 21
369.5858328153
 31
0.0
  0
LINE
  5
17B
330
1F
100
AcDbEntity
  8
0
  6
Continuous
 62
     7
370
    15
100
AcDbLine
 10
464.9605928003
 20
369.5858328153
 30
0.0
 11
465.4405573397
 21
369.5858328153
 31
0.0
  0
LINE
  5
17C
330
1F
100
AcDbEntity
  8
0
  6
Continuous
 62
     7
370
    15
100
AcDbLine
 10
429.2841861039
 20
367.5858324874
 30
0.0
 11
429.2841861039
 21
369.5858328153
 31
0.0
  0
LINE
  5
17D
330
1F
100
AcDbEntity
  8
0
  6
Continuous
 62
     7
370
    15
100
AcDbLine
 10
429.7641506433
 20
369.5858328153
 30
0.0
 11
429.2841861039
 21
369.5858328153
 31
0.0
  0
LINE
  5
17E
330
1F
100
AcDbEntity
  8
0
  6
Continuous
 62
     7
370
    15
100
AcDbLine
 10
465.6119002043
 20
367.5858324874
 30
0.0
 11
465.6119002043
 21
369.5858328153
 31
0.0
  0
LINE
  5
17F
330
1F
100
AcDbEntity
  8
0
  6
Continuous
 62
     7
370
    15
100
AcDbLine
 10
465.6119002043
 20
369.5858328153
 30
0.0
 11
465.4405573397
 21
369.5858328153
 31
0.0
  0
LINE
  5
180
330
1F
100
AcDbEntity
  8
0
  6
Continuous
 62
     7
370
    15
100
AcDbLine
 10
429.1128432392
 20
367.5858324874
 30
0.0
 11
429.1128432392
 21
369.5858328153
 31
0.0
  0
LINE
  5
181
330
1F
100
AcDbEntity
  8
0
  6
Continuous
 62
     7
370
    15
100
AcDbLine
 10
429.1128432392
 20
369.5858328153
 30
0.0
 11
429.2841861039
 21
369.5858328153
 31
0.0
  0
LINE
  5
182
330
1F
100
AcDbEntity
  8
0
  6
Continuous
 62
     7
370
    15
100
AcDbLine
 10
466.0815401017
 20
367.5858324874
 30
0.0
 11
466.0815401017
 21
369.5858328153
 31
0.0
  0
LINE
  5
183
330
1F
100
AcDbEntity
  8
0
  6
Continuous
 62
     7
370
    15
100
AcDbLine
 10
465.6119002043
 20
369.5858328153
 30
0.0
 11
466.0815401017
 21
369.5858328153
 31
0.0
  0
LINE
  5
184
330
1F
100
AcDbEntity
  8
0
  6
Continuous
 62
     7
370
    15
100
AcDbLine
 10
428.6432033419
 20
367.5858324874
 30
0.0
 11
428.6432033419
 21
369.5858328153
 31
0.0
  0
LINE
  5
185
330
1F
100
AcDbEntity
  8
0
  6
Continuous
 62
     7
370
    15
100
AcDbLine
 10
429.1128432392
 20
369.5858328153
 30
0.0
 11
428.6432033419
 21
369.5858328153
 31
0.0
  0
LINE
  5
186
330
1F
100
AcDbEntity
  8
0
  6
Continuous
 62
     7
370
    15
100
AcDbLine
 10
466.2316134214
 20
367.5858324874
 30
0.0
 11
466.2316134214
 21
369.5858328153
 31
0.0
  0
LINE
  5
187
330
1F
100
AcDbEntity
  8
0
  6
Continuous
 62
     7
370
    15
100
AcDbLine
 10
466.2316134214
 20
369.5858328153
 30
0.0
 11
466.0815401017
 21
369.5858328153
 31
0.0
  0
LINE
  5
188
330
1F
100
AcDbEntity
  8
0
  6
Continuous
 62
     7
370
    15
100
AcDbLine
 10
428.4931300222
 20
367.5858324874
 30
0.0
 11
428.4931300222
 21
369.5858328153
 31
0.0
  0
LINE
  5
189
330
1F
100
AcDbEntity
  8
0
  6
Continuous
 62
     7
370
    15
100
AcDbLine
 10
428.4931300222
 20
369.5858328153
 30
0.0
 11
428.6432033419
 21
369.5858328153
 31
0.0
  0
LINE
  5
18A
330
1F
100
AcDbEntity
  8
0
  6
Continuous
 62
     7
370
    15
100
AcDbLine
 10
466.6901165634
 20
367.5858324874
 30
0.0
 11
466.6901165634
 21
369.5858328153
 31
0.0
  0
LINE
  5
18B
330
1F
100
AcDbEntity
  8
0
  6
Continuous
 62
     7
370
    15
100
AcDbLine
 10
466.2316134214
 20
369.5858328153
 30
0.0
 11
466.6901165634
 21
369.5858328153
 31
0.0
  0
LINE
  5
18C
330
1F
100
AcDbEntity
  8
0
  6
Continuous
 62
     7
370
    15
100
AcDbLine
 10
428.0346268802
 20
367.5858324874
 30
0.0
 11
428.0346268802
 21
369.5858328153
 31
0.0
  0
LINE
  5
18D
330
1F
100
AcDbEntity
  8
0
  6
Continuous
 62
     7
370
    15
100
AcDbLine
 10
428.4931300222
 20
369.5858328153
 30
0.0
 11
428.0346268802
 21
369.5858328153
 31
0.0
  0
LINE
  5
18E
330
1F
100
AcDbEntity
  8
0
  6
Continuous
 62
     7
370
    15
100
AcDbLine
 10
466.818663293
 20
367.5858324874
 30
0.0
 11
466.818663293
 21
369.5858328153
 31
0.0
  0
LINE
  5
18F
330
1F
100
AcDbEntity
  8
0
  6
Continuous
 62
     7
370
    15
100
AcDbLine
 10
466.818663293
 20
369.5858328153
 30
0.0
 11
466.6901165634
 21
369.5858328153
 31
0.0
  0
LINE
  5
190
330
1F
100
AcDbEntity
  8
0
  6
Continuous
 62
     7
370
    15
100
AcDbLine
 10
427.9060801505
 20
367.5858324874
 30
0.0
 11
427.9060801505
 21
369.5858328153
 31
0.0
  0
LINE
  5
191
330
1F
100
AcDbEntity
  8
0
  6
Continuous
 62
     7
370
    15
100
AcDbLine
 10
427.9060801505
 20
369.5858328153
 30
0.0
 11
428.0346268802
 21
369.5858328153
 31
0.0
  0
LINE
  5
192
330
1F
100
AcDbEntity
  8
0
  6
Continuous
 62
     7
370
    15
100
AcDbLine
 10
467.2652324676
 20
367.5858324874
 30
0.0
 11
467.2652324676
 21
369.5858328153
 31
0.0
  0
LINE
  5
193
330
1F
100
AcDbEntity
  8
0
  6
Continuous
 62
     7
370
    15
100
AcDbLine
 10
466.818663293
 20
369.5858328153
 30
0.0
 11
467.2652324676
 21
369.5858328153
 31
0.0
  0
LINE
  5
194
330
1F
100
AcDbEntity
  8
0
  6
Continuous
 62
     7
370
    15
100
AcDbLine
 10
427.459510976
 20
367.5858324874
 30
0.0
 11
427.459510976
 21
369.5858328153
 31
0.0
  0
LINE
  5
195
330
1F
100
AcDbEntity
  8
0
  6
Continuous
 62
     7
370
    15
100
AcDbLine
 10
427.9060801505
 20
369.5858328153
 30
0.0
 11
427.459510976
 21
369.5858328153
 31
0.0
  0
LINE
  5
196
330
1F
100
AcDbEntity
  8
0
  6
Continuous
 62
     7
370
    15
100
AcDbLine
 10
467.3720290898
 20
367.5858324874
 30
0.0
 11
467.3720290898
 21
369.5858328153
 31
0.0
  0
LINE
  5
197
330
1F
100
AcDbEntity
  8
0
  6
Continuous
 62
     7
370
    15
100
AcDbLine
 10
467.3720290898
 20
369.5858328153
 30
0.0
 11
467.2652324676
 21
369.5858328153
 31
0.0
  0
LINE
  5
198
330
1F
100
AcDbEntity
  8
0
  6
Continuous
 62
     7
370
    15
100
AcDbLine
 10
427.3527143537
 20
367.5858324874
 30
0.0
 11
427.3527143537
 21
369.5858328153
 31
0.0
  0
LINE
  5
199
330
1F
100
AcDbEntity
  8
0
  6
Continuous
 62
     7
370
    15
100
AcDbLine
 10
427.3527143537
 20
369.5858328153
 30
0.0
 11
427.459510976
 21
369.5858328153
 31
0.0
  0
LINE
  5
19A
330
1F
100
AcDbEntity
  8
0
  6
Continuous
 62
     7
370
    15
100
AcDbLine
 10
467.8058931618
 20
367.5858324874
 30
0.0
 11
467.8058931618
 21
369.5858328153
 31
0.0
  0
LINE
  5
19B
330
1F
100
AcDbEntity
  8
0
  6
Continuous
 62
     7
370
    15
100
AcDbLine
 10
467.3720290898
 20
369.5858328153
 30
0.0
 11
467.8058931618
 21
369.5858328153
 31
0.0
  0
LINE
  5
19C
330
1F
100
AcDbEntity
  8
0
  6
Continuous
 62
     7
370
    15
100
AcDbLine
 10
426.9188502817
 20
367.5858324874
 30
0.0
 11
426.9188502817
 21
369.5858328153
 31
0.0
  0
LINE
  5
19D
330
1F
100
AcDbEntity
  8
0
  6
Continuous
 62
     7
370
    15
100
AcDbLine
 10
427.3527143537
 20
369.5858328153
 30
0.0
 11
426.9188502817
 21
369.5858328153
 31
0.0
  0
LINE
  5
19E
330
1F
100
AcDbEntity
  8
0
  6
Continuous
 62
     7
370
    15
100
AcDbLine
 10
467.8907534122
 20
367.5858324874
 30
0.0
 11
467.8907534122
 21
369.5858328153
 31
0.0
  0
LINE
  5
19F
330
1F
100
AcDbEntity
  8
0
  6
Continuous
 62
     7
370
    15
100
AcDbLine
 10
467.8907534122
 20
369.5858328153
 30
0.0
 11
467.8058931618
 21
369.5858328153
 31
0.0
  0
LINE
  5
1A0
330
1F
100
AcDbEntity
  8
0
  6
Continuous
 62
     7
370
    15
100
AcDbLine
 10
426.8339900314
 20
367.5858324874
 30
0.0
 11
426.8339900314
 21
369.5858328153
 31
0.0
  0
LINE
  5
1A1
330
1F
100
AcDbEntity
  8
0
  6
Continuous
 62
     7
370
    15
100
AcDbLine
 10
426.8339900314
 20
369.5858328153
 30
0.0
 11
426.9188502817
 21
369.5858328153
 31
0.0
  0
LINE
  5
1A2
330
1F
100
AcDbEntity
  8
0
  6
Continuous
 62
     7
370
    15
100
AcDbLine
 10
468.3111617356
 20
367.5858324874
 30
0.0
 11
468.3111617356
 21
369.5858328153
 31
0.0
  0
LINE
  5
1A3
330
1F
100
AcDbEntity
  8
0
  6
Continuous
 62
     7
370
    15
100
AcDbLine
 10
467.8907534122
 20
369.5858328153
 30
0.0
 11
468.3111617356
 21
369.5858328153
 31
0.0
  0
LINE
  5
1A4
330
1F
100
AcDbEntity
  8
0
  6
Continuous
 62
     7
370
    15
100
AcDbLine
 10
426.413581708
 20
367.5858324874
 30
0.0
 11
426.413581708
 21
369.5858328153
 31
0.0
  0
LINE
  5
1A5
330
1F
100
AcDbEntity
  8
0
  6
Continuous
 62
     7
370
    15
100
AcDbLine
 10
426.8339900314
 20
369.5858328153
 30
0.0
 11
426.413581708
 21
369.5858328153
 31
0.0
  0
LINE
  5
1A6
330
1F
100
AcDbEntity
  8
0
  6
Continuous
 62
     7
370
    15
100
AcDbLine
 10
468.3739403277
 20
367.5858324874
 30
0.0
 11
468.3739403277
 21
369.5858328153
 31
0.0
  0
LINE
  5
1A7
330
1F
100
AcDbEntity
  8
0
  6
Continuous
 62
     7
370
    15
100
AcDbLine
 10
468.3739403277
 20
369.5858328153
 30
0.0
 11
468.3111617356
 21
369.5858328153
 31
0.0
  0
LINE
  5
1A8
330
1F
100
AcDbEntity
  8
0
  6
Continuous
 62
     7
370
    15
100
AcDbLine
 10
426.3508031159
 20
367.5858324874
 30
0.0
 11
426.3508031159
 21
369.5858328153
 31
0.0
  0
LINE
  5
1A9
330
1F
100
AcDbEntity
  8
0
  6
Continuous
 62
     7
370
    15
100
AcDbLine
 10
426.3508031159
 20
369.5858328153
 30
0.0
 11
426.413581708
 21
369.5858328153
 31
0.0
  0
LINE
  5
1AA
330
1F
100
AcDbEntity
  8
0
  6
Continuous
 62
     7
370
    15
100
AcDbLine
 10
468.7801646083
 20
367.5858324874
 30
0.0
 11
468.7801646083
 21
369.5858328153
 31
0.0
  0
LINE
  5
1AB
330
1F
100
AcDbEntity
  8
0
  6
Continuous
 62
     7
370
    15
100
AcDbLine
 10
468.3739403277
 20
369.5858328153
 30
0.0
 11
468.7801646083
 21
369.5858328153
 31
0.0
  0
LINE
  5
1AC
330
1F
100
AcDbEntity
  8
0
  6
Continuous
 62
     7
370
    15
100
AcDbLine
 10
425.9445788353
 20
367.5858324874
 30
0.0
 11
425.9445788353
 21
369.5858328153
 31
0.0
  0
LINE
  5
1AD
330
1F
100
AcDbEntity
  8
0
  6
Continuous
 62
     7
370
    15
100
AcDbLine
 10
426.3508031159
 20
369.5858328153
 30
0.0
 11
425.9445788353
 21
369.5858328153
 31
0.0
  0
LINE
  5
1AE
330
1F
100
AcDbEntity
  8
0
  6
Continuous
 62
     7
370
    15
100
AcDbLine
 10
468.8207535087
 20
367.5858324874
 30
0.0
 11
468.8207535087
 21
369.5858328153
 31
0.0
  0
LINE
  5
1AF
330
1F
100
AcDbEntity
  8
0
  6
Continuous
 62
     7
370
    15
100
AcDbLine
 10
468.8207535087
 20
369.5858328153
 30
0.0
 11
468.7801646083
 21
369.5858328153
 31
0.0
  0
LINE
  5
1B0
330
1F
100
AcDbEntity
  8
0
  6
Continuous
 62
     7
370
    15
100
AcDbLine
 10
425.9039899348
 20
367.5858324874
 30
0.0
 11
425.9039899348
 21
369.5858328153
 31
0.0
  0
LINE
  5
1B1
330
1F
100
AcDbEntity
  8
0
  6
Continuous
 62
     7
370
    15
100
AcDbLine
 10
425.9039899348
 20
369.5858328153
 30
0.0
 11
425.9445788353
 21
369.5858328153
 31
0.0
  0
LINE
  5
1B2
330
1F
100
AcDbEntity
  8
0
  6
Continuous
 62
     7
370
    15
100
AcDbLine
 10
425.5126537769
 20
367.5858324874
 30
0.0
 11
425.5126537769
 21
369.5858328153
 31
0.0
  0
LINE
  5
1B3
330
1F
100
AcDbEntity
  8
0
  6
Continuous
 62
     7
370
    15
100
AcDbLine
 10
425.9039899348
 20
369.5858328153
 30
0.0
 11
425.5126537769
 21
369.5858328153
 31
0.0
  0
LINE
  5
1B4
330
1F
100
AcDbEntity
  8
0
  6
Continuous
 62
     7
370
    15
100
AcDbLine
 10
469.2120896666
 20
367.5858324874
 30
0.0
 11
469.2120896666
 21
369.5858328153
 31
0.0
  0
LINE
  5
1B5
330
1F
100
AcDbEntity
  8
0
  6
Continuous
 62
     7
370
    15
100
AcDbLine
 10
468.8207535087
 20
369.5858328153
 30
0.0
 11
469.2120896666
 21
369.5858328153
 31
0.0
  0
LINE
  5
1B6
330
1F
100
AcDbEntity
  8
0
  6
Continuous
 62
     7
370
    15
100
AcDbLine
 10
469.2304162323
 20
367.5858324874
 30
0.0
 11
469.2304162323
 21
369.5858328153
 31
0.0
  0
LINE
  5
1B7
330
1F
100
AcDbEntity
  8
0
  6
Continuous
 62
     7
370
    15
100
AcDbLine
 10
469.2304162323
 20
369.5858328153
 30
0.0
 11
469.2120896666
 21
369.5858328153
 31
0.0
  0
LINE
  5
1B8
330
1F
100
AcDbEntity
  8
0
  6
Continuous
 62
     7
370
    15
100
AcDbLine
 10
425.4943272113
 20
367.5858324874
 30
0.0
 11
425.4943272113
 21
369.5858328153
 31
0.0
  0
LINE
  5
1B9
330
1F
100
AcDbEntity
  8
0
  6
Continuous
 62
     7
370
    15
100
AcDbLine
 10
425.4943272113
 20
369.5858328153
 30
0.0
 11
425.5126537769
 21
369.5858328153
 31
0.0
  0
LINE
  5
1BA
330
1F
100
AcDbEntity
  8
0
  6
Continuous
 62
     7
370
    15
100
AcDbLine
 10
469.6061881273
 20
367.5858324874
 30
0.0
 11
469.6061881273
 21
369.5858328153
 31
0.0
  0
LINE
  5
1BB
330
1F
100
AcDbEntity
  8
0
  6
Continuous
 62
     7
370
    15
100
AcDbLine
 10
469.2304162323
 20
369.5858328153
 30
0.0
 11
469.6061881273
 21
369.5858328153
 31
0.0
  0
LINE
  5
1BC
330
1F
100
AcDbEntity
  8
0
  6
Continuous
 62
     7
370
    15
100
AcDbLine
 10
425.1185553162
 20
367.5858324874
 30
0.0
 11
425.1185553162
 21
369.5858328153
 31
0.0
  0
LINE
  5
1BD
330
1F
100
AcDbEntity
  8
0
  6
Continuous
 62
     7
370
    15
100
AcDbLine
 10
425.4943272113
 20
369.5858328153
 30
0.0
 11
425.1185553162
 21
369.5858328153
 31
0.0
  0
LINE
  5
1BE
330
1F
100
AcDbEntity
  8
0
  6
Continuous
 62
     7
370
    15
100
AcDbLine
 10
424.7629633187
 20
367.5858324874
 30
0.0
 11
424.7629633187
 21
369.5858328153
 31
0.0
  0
LINE
  5
1BF
330
1F
100
AcDbEntity
  8
0
  6
Continuous
 62
     7
370
    15
100
AcDbLine
 10
425.1185553162
 20
369.5858328153
 30
0.0
 11
424.7629633187
 21
369.5858328153
 31
0.0
  0
LINE
  5
1C0
330
1F
100
AcDbEntity
  8
0
  6
Continuous
 62
     7
370
    15
100
AcDbLine
 10
469.9617801248
 20
367.5858324874
 30
0.0
 11
469.9617801248
 21
369.5858328153
 31
0.0
  0
LINE
  5
1C1
330
1F
100
AcDbEntity
  8
0
  6
Continuous
 62
     7
370
    15
100
AcDbLine
 10
469.6061881273
 20
369.5858328153
 30
0.0
 11
469.9617801248
 21
369.5858328153
 31
0.0
  0
LINE
  5
1C2
330
1F
100
AcDbEntity
  8
0
  6
Continuous
 62
     7
370
    15
100
AcDbLine
 10
424.4464961826
 20
367.5858324874
 30
0.0
 11
424.4464961826
 21
369.5858328153
 31
0.0
  0
LINE
  5
1C3
330
1F
100
AcDbEntity
  8
0
  6
Continuous
 62
     7
370
    15
100
AcDbLine
 10
424.7629633187
 20
369.5858328153
 30
0.0
 11
424.4464961826
 21
369.5858328153
 31
0.0
  0
LINE
  5
1C4
330
1F
100
AcDbEntity
  8
0
  6
Continuous
 62
     7
370
    15
100
AcDbLine
 10
470.278247261
 20
367.5858324874
 30
0.0
 11
470.278247261
 21
369.5858328153
 31
0.0
  0
LINE
  5
1C5
330
1F
100
AcDbEntity
  8
0
  6
Continuous
 62
     7
370
    15
100
AcDbLine
 10
469.9617801248
 20
369.5858328153
 30
0.0
 11
470.278247261
 21
369.5858328153
 31
0.0
  0
LINE
  5
1C6
330
1F
100
AcDbEntity
  8
0
  6
Continuous
 62
     7
370
    15
100
AcDbLine
 10
470.5550419181
 20
367.5858324874
 30
0.0
 11
470.5550419181
 21
369.5858328153
 31
0.0
  0
LINE
  5
1C7
330
1F
100
AcDbEntity
  8
0
  6
Continuous
 62
     7
370
    15
100
AcDbLine
 10
470.278247261
 20
369.5858328153
 30
0.0
 11
470.5550419181
 21
369.5858328153
 31
0.0
  0
LINE
  5
1C8
330
1F
100
AcDbEntity
  8
0
  6
Continuous
 62
     7
370
    15
100
AcDbLine
 10
424.1697015255
 20
367.5858324874
 30
0.0
 11
424.1697015255
 21
369.5858328153
 31
0.0
  0
LINE
  5
1C9
330
1F
100
AcDbEntity
  8
0
  6
Continuous
 62
     7
370
    15
100
AcDbLine
 10
424.4464961826
 20
369.5858328153
 30
0.0
 11
424.1697015255
 21
369.5858328153
 31
0.0
  0
LINE
  5
1CA
330
1F
100
AcDbEntity
  8
0
  6
Continuous
 62
     7
370
    15
100
AcDbLine
 10
470.791687259
 20
367.5858324874
 30
0.0
 11
470.791687259
 21
369.5858328153
 31
0.0
  0
LINE
  5
1CB
330
1F
100
AcDbEntity
  8
0
  6
Continuous
 62
     7
370
    15
100
AcDbLine
 10
470.5550419181
 20
369.5858328153
 30
0.0
 11
470.791687259
 21
369.5858328153
 31
0.0
  0
LINE
  5
1CC
330
1F
100
AcDbEntity
  8
0
  6
Continuous
 62
     7
370
    15
100
AcDbLine
 10
423.9330561846
 20
367.5858324874
 30
0.0
 11
423.9330561846
 21
369.5858328153
 31
0.0
  0
LINE
  5
1CD
330
1F
100
AcDbEntity
  8
0
  6
Continuous
 62
     7
370
    15
100
AcDbLine
 10
424.1697015255
 20
369.5858328153
 30
0.0
 11
423.9330561846
 21
369.5858328153
 31
0.0
  0
LINE
  5
1CE
330
1F
100
AcDbEntity
  8
0
  6
Continuous
 62
     7
370
    15
100
AcDbLine
 10
470.9877716391
 20
367.5858324874
 30
0.0
 11
470.9877716391
 21
369.5858328153
 31
0.0
  0
LINE
  5
1CF
330
1F
100
AcDbEntity
  8
0
  6
Continuous
 62
     7
370
    15
100
AcDbLine
 10
470.791687259
 20
369.5858328153
 30
0.0
 11
470.9877716391
 21
369.5858328153
 31
0.0
  0
LINE
  5
1D0
330
1F
100
AcDbEntity
  8
0
  6
Continuous
 62
     7
370
    15
100
AcDbLine
 10
423.7369718044
 20
367.5858324874
 30
0.0
 11
423.7369718044
 21
369.5858328153
 31
0.0
  0
LINE
  5
1D1
330
1F
100
AcDbEntity
  8
0
  6
Continuous
 62
     7
370
    15
100
AcDbLine
 10
423.9330561846
 20
369.5858328153
 30
0.0
 11
423.7369718044
 21
369.5858328153
 31
0.0
  0
LINE
  5
1D2
330
1F
100
AcDbEntity
  8
0
  6
Continuous
 62
     7
370
    15
100
AcDbLine
 10
471.1429560571
 20
367.5858324874
 30
0.0
 11
471.1429560571
 21
369.5858328153
 31
0.0
  0
LINE
  5
1D3
330
1F
100
AcDbEntity
  8
0
  6
Continuous
 62
     7
370
    15
100
AcDbLine
 10
470.9877716391
 20
369.5858328153
 30
0.0
 11
471.1429560571
 21
369.5858328153
 31
0.0
  0
LINE
  5
1D4
330
1F
100
AcDbEntity
  8
0
  6
Continuous
 62
     7
370
    15
100
AcDbLine
 10
423.5817873865
 20
367.5858324874
 30
0.0
 11
423.5817873865
 21
369.5858328153
 31
0.0
  0
LINE
  5
1D5
330
1F
100
AcDbEntity
  8
0
  6
Continuous
 62
     7
370
    15
100
AcDbLine
 10
423.7369718044
 20
369.5858328153
 30
0.0
 11
423.5817873865
 21
369.5858328153
 31
0.0
  0
LINE
  5
1D6
330
1F
100
AcDbEntity
  8
0
  6
Continuous
 62
     7
370
    15
100
AcDbLine
 10
471.256972292
 20
367.5858324874
 30
0.0
 11
471.256972292
 21
369.5858328153
 31
0.0
  0
LINE
  5
1D7
330
1F
100
AcDbEntity
  8
0
  6
Continuous
 62
     7
370
    15
100
AcDbLine
 10
471.1429560571
 20
369.5858328153
 30
0.0
 11
471.256972292
 21
369.5858328153
 31
0.0
  0
LINE
  5
1D8
330
1F
100
AcDbEntity
  8
0
  6
Continuous
 62
     7
370
    15
100
AcDbLine
 10
423.4677711516
 20
367.5858324874
 30
0.0
 11
423.4677711516
 21
369.5858328153
 31
0.0
  0
LINE
  5
1D9
330
1F
100
AcDbEntity
  8
0
  6
Continuous
 62
     7
370
    15
100
AcDbLine
 10
423.5817873865
 20
369.5858328153
 30
0.0
 11
423.4677711516
 21
369.5858328153
 31
0.0
  0
LINE
  5
1DA
330
1F
100
AcDbEntity
  8
0
  6
Continuous
 62
     7
370
    15
100
AcDbLine
 10
471.3296210407
 20
367.5858324874
 30
0.0
 11
471.3296210407
 21
369.5858328153
 31
0.0
  0
LINE
  5
1DB
330
1F
100
AcDbEntity
  8
0
  6
Continuous
 62
     7
370
    15
100
AcDbLine
 10
471.256972292
 20
369.5858328153
 30
0.0
 11
471.3296210407
 21
369.5858328153
 31
0.0
  0
LINE
  5
1DC
330
1F
100
AcDbEntity
  8
0
  6
Continuous
 62
     7
370
    15
100
AcDbLine
 10
423.3951224028
 20
367.5858324874
 30
0.0
 11
423.3951224028
 21
369.5858328153
 31
0.0
  0
LINE
  5
1DD
330
1F
100
AcDbEntity
  8
0
  6
Continuous
 62
     7
370
    15
100
AcDbLine
 10
423.4677711516
 20
369.5858328153
 30
0.0
 11
423.3951224028
 21
369.5858328153
 31
0.0
  0
LINE
  5
1DE
330
1F
100
AcDbEntity
  8
0
  6
Continuous
 62
     7
370
    15
100
AcDbLine
 10
471.3607793688
 20
367.5858324874
 30
0.0
 11
471.3607793688
 21
369.5858328153
 31
0.0
  0
LINE
  5
1DF
330
1F
100
AcDbEntity
  8
0
  6
Continuous
 62
     7
370
    15
100
AcDbLine
 10
471.3296210407
 20
369.5858328153
 30
0.0
 11
471.3607793688
 21
369.5858328153
 31
0.0
  0
LINE
  5
1E0
330
1F
100
AcDbEntity
  8
0
  6
Continuous
 62
     7
370
    15
100
AcDbLine
 10
423.3639640748
 20
367.5858324874
 30
0.0
 11
423.3639640748
 21
369.5858328153
 31
0.0
  0
LINE
  5
1E1
330
1F
100
AcDbEntity
  8
0
  6
Continuous
 62
     7
370
    15
100
AcDbLine
 10
423.3951224028
 20
369.5858328153
 30
0.0
 11
423.3639640748
 21
369.5858328153
 31
0.0
  0
LINE
  5
1E2
330
1F
100
AcDbEntity
  8
0
  6
Continuous
 62
     7
370
    15
100
AcDbLine
 10
428.3623723327
 20
383.0858322341
 30
0.0
 11
432.862372139
 21
383.0858322341
 31
0.0
  0
LINE
  5
1E3
330
1F
100
AcDbEntity
  8
0
  6
Continuous
 62
     7
370
    15
100
AcDbLine
 10
462.8623714685
 20
383.0858322341
 30
0.0
 11
466.3623711108
 21
383.0858322341
 31
0.0
  0
LINE
  5
1E4
330
1F
100
AcDbEntity
  8
0
  6
Continuous
 62
     7
370
    15
100
AcDbLine
 10
428.3623723327
 20
386.0858327259
 30
0.0
 11
432.862372139
 21
386.0858327259
 31
0.0
  0
LINE
  5
1E5
330
1F
100
AcDbEntity
  8
0
  6
Continuous
 62
     7
370
    15
100
AcDbLine
 10
462.8623714685
 20
386.0858327259
 30
0.0
 11
466.3623711108
 21
386.0858327259
 31
0.0
  0
LINE
  5
1E6
330
1F
100
AcDbEntity
  8
0
  6
Continuous
 62
     7
370
    15
100
AcDbLine
 10
429.3623724966
 20
347.8358325098
 30
0.0
 11
432.862372139
 21
347.8358325098
 31
0.0
  0
LINE
  5
1E7
330
1F
100
AcDbEntity
  8
0
  6
Continuous
 62
     7
370
    15
100
AcDbLine
 10
462.8623714685
 20
347.8358325098
 30
0.0
 11
465.3623709469
 21
347.8358325098
 31
0.0
  0
LINE
  5
1E8
330
1F
100
AcDbEntity
  8
0
  6
Continuous
 62
     7
370
    15
100
AcDbLine
 10
428.3623723327
 20
348.5858321671
 30
0.0
 11
432.862372139
 21
348.5858321671
 31
0.0
  0
LINE
  5
1E9
330
1F
100
AcDbEntity
  8
0
  6
Continuous
 62
     7
370
    15
100
AcDbLine
 10
462.8623714685
 20
348.5858321671
 30
0.0
 11
466.3623711108
 21
348.5858321671
 31
0.0
  0
LINE
  5
1EA
330
1F
100
AcDbEntity
  8
0
  6
Continuous
 62
     7
370
    15
100
AcDbLine
 10
429.3623724966
 20
349.33583229
 30
0.0
 11
432.862372139
 21
349.33583229
 31
0.0
  0
LINE
  5
1EB
330
1F
100
AcDbEntity
  8
0
  6
Continuous
 62
     7
370
    15
100
AcDbLine
 10
462.8623714685
 20
349.33583229
 30
0.0
 11
465.3623709469
 21
349.33583229
 31
0.0
  0
LINE
  5
1EC
330
1F
100
AcDbEntity
  8
0
  6
Continuous
 62
     7
370
    15
100
AcDbLine
 10
428.3623723327
 20
347.0858319212
 30
0.0
 11
432.862372139
 21
347.0858319212
 31
0.0
  0
LINE
  5
1ED
330
1F
100
AcDbEntity
  8
0
  6
Continuous
 62
     7
370
    15
100
AcDbLine
 10
462.8623714685
 20
347.0858319212
 30
0.0
 11
466.3623711108
 21
347.0858319212
 31
0.0
  0
LINE
  5
1EE
330
1F
100
AcDbEntity
  8
0
  6
Continuous
 62
     7
370
    15
100
AcDbLine
 10
428.3623723327
 20
350.0858324129
 30
0.0
 11
432.862372139
 21
350.0858324129
 31
0.0
  0
LINE
  5
1EF
330
1F
100
AcDbEntity
  8
0
  6
Continuous
 62
     7
370
    15
100
AcDbLine
 10
462.8623714685
 20
350.0858324129
 30
0.0
 11
466.3623711108
 21
350.0858324129
 31
0.0
  0
LINE
  5
1F0
330
1F
100
AcDbEntity
  8
0
  6
Continuous
 62
     7
370
    15
100
AcDbLine
 10
429.3623724966
 20
350.8358325359
 30
0.0
 11
432.862372139
 21
350.8358325359
 31
0.0
  0
LINE
  5
1F1
330
1F
100
AcDbEntity
  8
0
  6
Continuous
 62
     7
370
    15
100
AcDbLine
 10
462.8623714685
 20
350.8358325359
 30
0.0
 11
465.3623709469
 21
350.8358325359
 31
0.0
  0
LINE
  5
1F2
330
1F
100
AcDbEntity
  8
0
  6
Continuous
 62
     7
370
    15
100
AcDbLine
 10
428.3623723327
 20
351.5858321931
 30
0.0
 11
432.862372139
 21
351.5858321931
 31
0.0
  0
LINE
  5
1F3
330
1F
100
AcDbEntity
  8
0
  6
Continuous
 62
     7
370
    15
100
AcDbLine
 10
462.8623714685
 20
351.5858321931
 30
0.0
 11
466.3623711108
 21
351.5858321931
 31
0.0
  0
LINE
  5
1F4
330
1F
100
AcDbEntity
  8
0
  6
Continuous
 62
     7
370
    15
100
AcDbLine
 10
429.3623724966
 20
352.3358323161
 30
0.0
 11
432.862372139
 21
352.3358323161
 31
0.0
  0
LINE
  5
1F5
330
1F
100
AcDbEntity
  8
0
  6
Continuous
 62
     7
370
    15
100
AcDbLine
 10
462.8623714685
 20
352.3358323161
 30
0.0
 11
465.3623709469
 21
352.3358323161
 31
0.0
  0
LINE
  5
1F6
330
1F
100
AcDbEntity
  8
0
  6
Continuous
 62
     7
370
    15
100
AcDbLine
 10
428.3623723327
 20
353.085832439
 30
0.0
 11
432.862372139
 21
353.085832439
 31
0.0
  0
LINE
  5
1F7
330
1F
100
AcDbEntity
  8
0
  6
Continuous
 62
     7
370
    15
100
AcDbLine
 10
462.8623714685
 20
353.085832439
 30
0.0
 11
466.3623711108
 21
353.085832439
 31
0.0
  0
LINE
  5
1F8
330
1F
100
AcDbEntity
  8
0
  6
Continuous
 62
     7
370
    15
100
AcDbLine
 10
429.3623724966
 20
353.8358323291
 30
0.0
 11
432.862372139
 21
353.8358323291
 31
0.0
  0
LINE
  5
1F9
330
1F
100
AcDbEntity
  8
0
  6
Continuous
 62
     7
370
    15
100
AcDbLine
 10
462.8623714685
 20
353.8358323291
 30
0.0
 11
465.3623709469
 21
353.8358323291
 31
0.0
  0
LINE
  5
1FA
330
1F
100
AcDbEntity
  8
0
  6
Continuous
 62
     7
370
    15
100
AcDbLine
 10
428.3623723327
 20
354.5858323356
 30
0.0
 11
432.862372139
 21
354.5858323356
 31
0.0
  0
LINE
  5
1FB
330
1F
100
AcDbEntity
  8
0
  6
Continuous
 62
     7
370
    15
100
AcDbLine
 10
462.8623714685
 20
354.5858323356
 30
0.0
 11
466.3623711108
 21
354.5858323356
 31
0.0
  0
LINE
  5
1FC
330
1F
100
AcDbEntity
  8
0
  6
Continuous
 62
     7
370
    15
100
AcDbLine
 10
429.3623724966
 20
355.3358323712
 30
0.0
 11
432.862372139
 21
355.3358323712
 31
0.0
  0
LINE
  5
1FD
330
1F
100
AcDbEntity
  8
0
  6
Continuous
 62
     7
370
    15
100
AcDbLine
 10
462.8623714685
 20
355.3358323712
 30
0.0
 11
465.3623709469
 21
355.3358323712
 31
0.0
  0
LINE
  5
1FE
330
1F
100
AcDbEntity
  8
0
  6
Continuous
 62
     7
370
    15
100
AcDbLine
 10
439.8623718894
 20
407.0858324427
 30
0.0
 11
454.8623715541
 21
407.0858324427
 31
0.0
  0
ARC
  5
1FF
330
1F
100
AcDbEntity
  8
0
  6
Continuous
 62
     7
370
    15
100
AcDbCircle
 10
447.3623717218
 20
1696.6704675029
 30
0.0
 40
45.00000000000011
100
AcDbArc
 50
308.4785951333
 51
51.5214048667
  0
ARC
  5
200
330
1F
100
AcDbEntity
  8
0
  6
Continuous
 62
     7
370
    15
100
AcDbCircle
 10
447.3623717218
 20
1696.6704675029
 30
0.0
 40
45.00000000000014
100
AcDbArc
 50
128.4785951333
 51
231.5214048667
  0
LINE
  5
201
330
1F
100
AcDbEntity
  8
0
  6
Continuous
 62
     7
370
    15
100
AcDbLine
 10
444.8623717777
 20
1689.5993999238
 30
0.0
 11
444.8623717777
 21
1688.6704671229
 31
0.0
  0
LINE
  5
202
330
1F
100
AcDbEntity
  8
0
  6
Continuous
 62
     7
370
    15
100
AcDbLine
 10
449.8623716659
 20
1688.6704671229
 30
0.0
 11
449.8623716659
 21
1689.5993999238
 31
0.0
  0
CIRCLE
  5
203
330
1F
100
AcDbEntity
  8
0
  6
Continuous
 62
     7
370
    15
100
AcDbCircle
 10
447.3623717218
 20
1696.6704675029
 30
0.0
 40
20.5
  0
LINE
  5
204
330
1F
100
AcDbEntity
  8
0
  6
Continuous
 62
     7
370
    15
100
AcDbLine
 10
581.2661880641
 20
1682.1704679201
 30
0.0
 11
581.2661880641
 21
1687.1704678083
 31
0.0
  0
LINE
  5
205
330
1F
100
AcDbEntity
  8
0
  6
Continuous
 62
     7
370
    15
100
AcDbLine
 10
581.2661880641
 20
1682.1704679201
 30
0.0
 11
572.766178289
 21
1682.1704679201
 31
0.0
  0
LINE
  5
206
330
1F
100
AcDbEntity
  8
0
  6
Continuous
 62
     7
370
    15
100
AcDbLine
 10
572.766178289
 20
1682.1704679201
 30
0.0
 11
572.766178289
 21
1687.1704678083
 31
0.0
  0
LINE
  5
207
330
1F
100
AcDbEntity
  8
0
  6
Continuous
 62
     7
370
    15
100
AcDbLine
 10
581.2661880641
 20
1712.1704672495
 30
0.0
 11
572.766178289
 21
1712.1704672495
 31
0.0
  0
LINE
  5
208
330
1F
100
AcDbEntity
  8
0
  6
Continuous
 62
     7
370
    15
100
AcDbLine
 10
581.2661880641
 20
1707.1704673613
 30
0.0
 11
581.2661880641
 21
1712.1704672495
 31
0.0
  0
LINE
  5
209
330
1F
100
AcDbEntity
  8
0
  6
Continuous
 62
     7
370
    15
100
AcDbLine
 10
572.766178289
 20
1707.1704673613
 30
0.0
 11
572.766178289
 21
1712.1704672495
 31
0.0
  0
LINE
  5
20A
330
1F
100
AcDbEntity
  8
0
  6
Continuous
 62
     7
370
    15
100
AcDbLine
 10
581.2661880641
 20
1687.1704678083
 30
0.0
 11
581.2661880641
 21
1707.1704673613
 31
0.0
  0
LINE
  5
20B
330
1F
100
AcDbEntity
  8
0
  6
Continuous
 62
     7
370
    15
100
AcDbLine
 10
572.766178289
 20
1687.1704678083
 30
0.0
 11
572.766178289
 21
1707.1704673613
 31
0.0
  0
LINE
  5
20C
330
1F
100
AcDbEntity
  8
0
  6
Continuous
 62
     7
370
    15
100
AcDbLine
 10
317.0766169219
 20
1664.3269495139
 30
0.0
 11
323.2569554835
 21
1645.305822141
 31
0.0
  0
LINE
  5
20D
330
1F
100
AcDbEntity
  8
0
  6
Continuous
 62
     7
370
    15
100
AcDbLine
 10
325.1606011777
 20
1666.953595824
 30
0.0
 11
331.3409397393
 21
1647.9324647258
 31
0.0
  0
LINE
  5
20E
330
1F
100
AcDbEntity
  8
0
  6
Continuous
 62
     7
370
    15
100
AcDbLine
 10
315.5315304189
 20
1669.0822341511
 30
0.0
 11
323.6155146747
 21
1671.7088785986
 31
0.0
  0
LWPOLYLINE
  5
20F
330
1F
100
AcDbEntity
  8
0
  6
Continuous
 62
     7
370
    15
100
AcDbPolyline
 90
        9
 70
   128
 43
0.0
 10
323.6155146747
 20
1671.7088785986
 10
323.6452052384
 20
1671.6175065408
 10
323.73312954
 20
1671.3469033162
 10
323.875905016
 20
1670.9074680726
 10
324.0680554896
 20
1670.3160875509
 10
324.3021974354
 20
1669.5954897473
 10
324.5693231016
 20
1668.7733628819
 10
324.8591655879
 20
1667.881304867
 10
325.1606011777
 20
1666.953595824
  0
LWPOLYLINE
  5
210
330
1F
100
AcDbEntity
  8
0
  6
Continuous
 62
     7
370
    15
100
AcDbPolyline
 90
        9
 70
   128
 43
0.0
 10
315.5315304189
 20
1669.0822341511
 10
315.5612284332
 20
1668.9908620933
 10
315.6491452842
 20
1668.7202588687
 10
315.7919282108
 20
1668.2808236251
 10
315.9840786844
 20
1667.6894431035
 10
316.2182206302
 20
1666.9688452999
 10
316.4853388458
 20
1666.1467184345
 10
316.7751813321
 20
1665.2546622822
 10
317.0766169219
 20
1664.3269495139
  0
LINE
  5
211
330
1F
100
AcDbEntity
  8
0
  6
Continuous
 62
     7
370
    15
100
AcDbLine
 10
324.8020419865
 20
1640.5505375037
 30
0.0
 11
332.8860262423
 21
1643.1771838138
 31
0.0
  0
LWPOLYLINE
  5
212
330
1F
100
AcDbEntity
  8
0
  6
Continuous
 62
     7
370
    15
100
AcDbPolyline
 90
        9
 70
   128
 43
0.0
 10
331.3409397393
 20
1647.9324647258
 10
331.6423678785
 20
1647.0047556827
 10
331.9322178154
 20
1646.1126976679
 10
332.1993434816
 20
1645.2905708025
 10
332.4334779768
 20
1644.5699729989
 10
332.6256284504
 20
1643.9785943399
 10
332.768411377
 20
1643.539155371
 10
332.8563356786
 20
1643.268554009
 10
332.8860262423
 20
1643.1771838138
  0
LWPOLYLINE
  5
213
330
1F
100
AcDbEntity
  8
0
  6
Continuous
 62
     7
370
    15
100
AcDbPolyline
 90
        9
 70
   128
 43
0.0
 10
323.2569554835
 20
1645.305822141
 10
323.5583910733
 20
1644.3781130979
 10
323.8482335596
 20
1643.4860513578
 10
324.1153592258
 20
1642.6639282177
 10
324.3495011716
 20
1641.9433266888
 10
324.5416516452
 20
1641.3519480298
 10
324.6844345718
 20
1640.9125127862
 10
324.7723588734
 20
1640.6419114242
 10
324.8020419865
 20
1640.5505375037
  0
LWPOLYLINE
  5
214
330
1F
100
AcDbEntity
  8
0
  6
Continuous
 62
     7
370
    15
100
AcDbPolyline
 90
        9
 70
   128
 43
0.0
 10
419.7741383701
 20
1828.5013088057
 10
419.6827663123
 20
1828.4716107915
 10
419.4121630876
 20
1828.3836939404
 10
418.972727844
 20
1828.2409110139
 10
418.3813473224
 20
1828.0487605403
 10
417.6607495188
 20
1827.8146185944
 10
416.8386226534
 20
1827.5475003789
 10
415.9465665012
 20
1827.2576578925
 10
415.0188537329
 20
1826.9562223027
  0
LINE
  5
215
330
1F
100
AcDbEntity
  8
0
  6
Continuous
 62
     7
370
    15
100
AcDbLine
 10
419.7741383701
 20
1828.5013088057
 30
0.0
 11
422.4007828175
 21
1820.4173245499
 31
0.0
  0
LWPOLYLINE
  5
216
330
1F
100
AcDbEntity
  8
0
  6
Continuous
 62
     7
370
    15
100
AcDbPolyline
 90
        9
 70
   128
 43
0.0
 10
422.4007828175
 20
1820.4173245499
 10
422.3094107597
 20
1820.3876339863
 10
422.0388075351
 20
1820.2997096846
 10
421.5993722915
 20
1820.1569342087
 10
421.0079917698
 20
1819.9647837351
 10
420.2873939662
 20
1819.7306417892
 10
419.4652671008
 20
1819.4635161231
 10
418.573209086
 20
1819.1736736367
 10
417.6455000429
 20
1818.8722380469
  0
LINE
  5
217
330
1F
100
AcDbEntity
  8
0
  6
Continuous
 62
     7
370
    15
100
AcDbLine
 10
391.2424417227
 20
1819.2307972381
 30
0.0
 11
393.8690880328
 21
1811.1468129823
 31
0.0
  0
LWPOLYLINE
  5
218
330
1F
100
AcDbEntity
  8
0
  6
Continuous
 62
     7
370
    15
100
AcDbPolyline
 90
        9
 70
   128
 43
0.0
 10
395.9977263599
 20
1820.7758837412
 10
395.0700173169
 20
1820.4744481514
 10
394.1779555767
 20
1820.184605665
 10
393.3558324366
 20
1819.9174799988
 10
392.6352309077
 20
1819.683338053
 10
392.0438522487
 20
1819.4911875794
 10
391.6044170051
 20
1819.3484046529
 10
391.3338156431
 20
1819.2604803512
 10
391.2424417227
 20
1819.2307972381
  0
LWPOLYLINE
  5
219
330
1F
100
AcDbEntity
  8
0
  6
Continuous
 62
     7
370
    15
100
AcDbPolyline
 90
        9
 70
   128
 43
0.0
 10
398.6243689447
 20
1812.6918994854
 10
397.6966599017
 20
1812.3904713462
 10
396.8046018868
 20
1812.1006214092
 10
395.9824750214
 20
1811.8334957431
 10
395.2618772178
 20
1811.5993612478
 10
394.6704985588
 20
1811.4072107742
 10
394.2310595899
 20
1811.2644278476
 10
393.9604582279
 20
1811.176503546
 10
393.8690880328
 20
1811.1468129823
  0
LINE
  5
21A
330
1F
100
AcDbEntity
  8
0
  6
Continuous
 62
     7
370
    15
100
AcDbLine
 10
415.0188537329
 20
1826.9562223027
 30
0.0
 11
395.9977263599
 21
1820.7758837412
 31
0.0
  0
LINE
  5
21B
330
1F
100
AcDbEntity
  8
0
  6
Continuous
 62
     7
370
    15
100
AcDbLine
 10
417.6455000429
 20
1818.8722380469
 30
0.0
 11
398.6243689447
 21
1812.6918994854
 31
0.0
  0
LINE
  5
21C
330
1F
100
AcDbEntity
  8
0
  6
Continuous
 62
     7
370
    15
100
AcDbLine
 10
461.8623713045
 20
1830.5742838452
 30
0.0
 11
456.8623714163
 21
1830.5742838452
 31
0.0
  0
LINE
  5
21D
330
1F
100
AcDbEntity
  8
0
  6
Continuous
 62
     7
370
    15
100
AcDbLine
 10
461.8623713045
 20
1830.5742838452
 30
0.0
 11
461.8623713045
 21
1822.07427407
 31
0.0
  0
LINE
  5
21E
330
1F
100
AcDbEntity
  8
0
  6
Continuous
 62
     7
370
    15
100
AcDbLine
 10
461.8623713045
 20
1822.07427407
 30
0.0
 11
456.8623714163
 21
1822.07427407
 31
0.0
  0
LINE
  5
21F
330
1F
100
AcDbEntity
  8
0
  6
Continuous
 62
     7
370
    15
100
AcDbLine
 10
456.8623714163
 20
1830.5742838452
 30
0.0
 11
436.8623718633
 21
1830.5742838452
 31
0.0
  0
LINE
  5
220
330
1F
100
AcDbEntity
  8
0
  6
Continuous
 62
     7
370
    15
100
AcDbLine
 10
456.8623714163
 20
1822.07427407
 30
0.0
 11
436.8623718633
 21
1822.07427407
 31
0.0
  0
LINE
  5
221
330
1F
100
AcDbEntity
  8
0
  6
Continuous
 62
     7
370
    15
100
AcDbLine
 10
431.8623719751
 20
1830.5742838452
 30
0.0
 11
431.8623719751
 21
1822.07427407
 31
0.0
  0
LINE
  5
222
330
1F
100
AcDbEntity
  8
0
  6
Continuous
 62
     7
370
    15
100
AcDbLine
 10
436.8623718633
 20
1822.07427407
 30
0.0
 11
431.8623719751
 21
1822.07427407
 31
0.0
  0
LINE
  5
223
330
1F
100
AcDbEntity
  8
0
  6
Continuous
 62
     7
370
    15
100
AcDbLine
 10
436.8623718633
 20
1830.5742838452
 30
0.0
 11
431.8623719751
 21
1830.5742838452
 31
0.0
  0
LINE
  5
224
330
1F
100
AcDbEntity
  8
0
  6
Continuous
 62
     7
370
    15
100
AcDbLine
 10
473.9995496362
 20
1828.8103290866
 30
0.0
 11
471.3729051887
 21
1820.7263448308
 31
0.0
  0
LWPOLYLINE
  5
225
330
1F
100
AcDbEntity
  8
0
  6
Continuous
 62
     7
370
    15
100
AcDbPolyline
 90
        9
 70
   128
 43
0.0
 10
478.7548305481
 20
1827.2652425835
 10
477.8271215051
 20
1827.5666632722
 10
476.9350634902
 20
1827.8565206597
 10
476.1129384874
 20
1828.1236388753
 10
475.3923388212
 20
1828.3577808211
 10
474.8009582996
 20
1828.5499312947
 10
474.3615230559
 20
1828.6927142213
 10
474.0909198313
 20
1828.7806310723
 10
473.9995496362
 20
1828.8103290866
  0
LWPOLYLINE
  5
226
330
1F
100
AcDbEntity
  8
0
  6
Continuous
 62
     7
370
    15
100
AcDbPolyline
 90
        9
 70
   128
 43
0.0
 10
476.1281861006
 20
1819.1812583277
 10
475.2004770576
 20
1819.482686467
 10
474.3084190427
 20
1819.7725364039
 10
473.48629404
 20
1820.0396620701
 10
472.7656943738
 20
1820.2737965653
 10
472.1743138521
 20
1820.4659470389
 10
471.7348786085
 20
1820.6087299655
 10
471.4642753839
 20
1820.6966542671
 10
471.3729051887
 20
1820.7263448308
  0
LINE
  5
227
330
1F
100
AcDbEntity
  8
0
  6
Continuous
 62
     7
370
    15
100
AcDbLine
 10
497.7759616464
 20
1821.0848965714
 30
0.0
 11
478.7548305481
 21
1827.2652425835
 31
0.0
  0
LINE
  5
228
330
1F
100
AcDbEntity
  8
0
  6
Continuous
 62
     7
370
    15
100
AcDbLine
 10
495.1493190616
 20
1813.0009197662
 30
0.0
 11
476.1281861006
 21
1819.1812583277
 31
0.0
  0
LINE
  5
229
330
1F
100
AcDbEntity
  8
0
  6
Continuous
 62
     7
370
    15
100
AcDbLine
 10
502.5312425583
 20
1819.5398100684
 30
0.0
 11
499.9045999735
 21
1811.4558332632
 31
0.0
  0
LWPOLYLINE
  5
22A
330
1F
100
AcDbEntity
  8
0
  6
Continuous
 62
     7
370
    15
100
AcDbPolyline
 90
        9
 70
   128
 43
0.0
 10
499.9045999735
 20
1811.4558332632
 10
499.8132297783
 20
1811.4855238269
 10
499.542624691
 20
1811.5734481285
 10
499.1031894474
 20
1811.7162236045
 10
498.5118107884
 20
1811.9083740781
 10
497.7912092595
 20
1812.1425160239
 10
496.9690861194
 20
1812.40964169
 10
496.0770281046
 20
1812.6994841764
 10
495.1493190616
 20
1813.0009197662
  0
LWPOLYLINE
  5
22B
330
1F
100
AcDbEntity
  8
0
  6
Continuous
 62
     7
370
    15
100
AcDbPolyline
 90
        9
 70
   128
 43
0.0
 10
502.5312425583
 20
1819.5398100684
 10
502.4398723631
 20
1819.5695006321
 10
502.1692710011
 20
1819.6574249337
 10
501.7298357575
 20
1819.8002078603
 10
501.1384533732
 20
1819.9923583338
 10
500.4178555696
 20
1820.2264928291
 10
499.5957287042
 20
1820.4936184952
 10
498.7036706894
 20
1820.7834684322
 10
497.7759616464
 20
1821.0848965714
  0
LWPOLYLINE
  5
22C
330
1F
100
AcDbEntity
  8
0
  6
Continuous
 62
     7
370
    15
100
AcDbPolyline
 90
        9
 70
   128
 43
0.0
 10
537.7998063355
 20
1796.4780428479
 10
537.7220744281
 20
1796.5345107982
 10
537.4918887406
 20
1796.7017539809
 10
537.1180856614
 20
1796.9733350942
 10
536.6150224595
 20
1797.338830776
 10
536.0020482927
 20
1797.7841892312
 10
535.3027069955
 20
1798.2922890256
 10
534.5438728123
 20
1798.843609638
 10
533.7547147661
 20
1799.4169690678
  0
LINE
  5
22D
330
1F
100
AcDbEntity
  8
0
  6
Continuous
 62
     7
370
    15
100
AcDbLine
 10
537.7998063355
 20
1796.4780428479
 30
0.0
 11
532.8036258011
 21
1789.6013953755
 31
0.0
  0
LWPOLYLINE
  5
22E
330
1F
100
AcDbEntity
  8
0
  6
Continuous
 62
     7
370
    15
100
AcDbPolyline
 90
        9
 70
   128
 43
0.0
 10
532.8036258011
 20
1789.6013953755
 10
532.7259013443
 20
1789.6578633259
 10
532.4957156568
 20
1789.8251065085
 10
532.1219051271
 20
1790.0966950724
 10
531.6188493758
 20
1790.4621833036
 10
531.0058752089
 20
1790.9075417588
 10
530.3065339117
 20
1791.4156415532
 10
529.5476997285
 20
1791.9669621656
 10
528.7585416823
 20
1792.5403215954
  0
LINE
  5
22F
330
1F
100
AcDbEntity
  8
0
  6
Continuous
 62
     7
370
    15
100
AcDbLine
 10
528.7585416823
 20
1792.5403215954
 30
0.0
 11
512.5782052069
 21
1804.2960264752
 31
0.0
  0
LINE
  5
230
330
1F
100
AcDbEntity
  8
0
  6
Continuous
 62
     7
370
    15
100
AcDbLine
 10
533.7547147661
 20
1799.4169690678
 30
0.0
 11
517.5743782907
 21
1811.1726739476
 31
0.0
  0
LINE
  5
231
330
1F
100
AcDbEntity
  8
0
  6
Continuous
 62
     7
370
    15
100
AcDbLine
 10
513.5292941718
 20
1814.1116001675
 30
0.0
 11
508.5331173628
 21
1807.2349526952
 31
0.0
  0
LWPOLYLINE
  5
232
330
1F
100
AcDbEntity
  8
0
  6
Continuous
 62
     7
370
    15
100
AcDbPolyline
 90
        9
 70
   128
 43
0.0
 10
512.5782052069
 20
1804.2960264752
 10
511.7890471607
 20
1804.869385905
 10
511.030220428
 20
1805.4207065175
 10
510.3308716803
 20
1805.9288063119
 10
509.7178975134
 20
1806.374164767
 10
509.2148380368
 20
1806.7396529982
 10
508.8410312324
 20
1807.0112415621
 10
508.6108455448
 20
1807.1784847448
 10
508.5331173628
 20
1807.2349526952
  0
LWPOLYLINE
  5
233
330
1F
100
AcDbEntity
  8
0
  6
Continuous
 62
     7
370
    15
100
AcDbPolyline
 90
        9
 70
   128
 43
0.0
 10
517.5743782907
 20
1811.1726739476
 10
516.7852202444
 20
1811.7460259268
 10
516.0263935118
 20
1812.2973465393
 10
515.3270522147
 20
1812.8054537842
 10
514.7140705972
 20
1813.2508047888
 10
514.2110148459
 20
1813.6163004706
 10
513.8372043162
 20
1813.8878815839
 10
513.6070186286
 20
1814.0551247666
 10
513.5292941718
 20
1814.1116001675
  0
LINE
  5
234
330
1F
100
AcDbEntity
  8
0
  6
Continuous
 62
     7
370
    15
100
AcDbLine
 10
546.5821558624
 20
1787.9169159601
 30
0.0
 11
539.7055158406
 21
1782.9207428763
 31
0.0
  0
LWPOLYLINE
  5
235
330
1F
100
AcDbEntity
  8
0
  6
Continuous
 62
     7
370
    15
100
AcDbPolyline
 90
        9
 70
   128
 43
0.0
 10
549.5210820823
 20
1783.8718318412
 10
548.947730103
 20
1784.6609898875
 10
548.3964094906
 20
1785.4198166201
 10
547.8883022457
 20
1786.1191579173
 10
547.4429512411
 20
1786.7321395347
 10
547.0774555593
 20
1787.2351952861
 10
546.8058744459
 20
1787.6090058158
 10
546.6386312633
 20
1787.8391915033
 10
546.5821558624
 20
1787.9169159601
  0
LWPOLYLINE
  5
236
330
1F
100
AcDbEntity
  8
0
  6
Continuous
 62
     7
370
    15
100
AcDbPolyline
 90
        9
 70
   128
 43
0.0
 10
542.6444420605
 20
1778.8756587575
 10
542.0710826307
 20
1779.6648168037
 10
541.5197620182
 20
1780.4236435363
 10
541.0116622238
 20
1781.1229848335
 10
540.5663037687
 20
1781.7359664509
 10
540.2008155375
 20
1782.2390222023
 10
539.9292269736
 20
1782.6128252814
 10
539.7619837909
 20
1782.8430184195
 10
539.7055158406
 20
1782.9207428763
  0
LINE
  5
237
330
1F
100
AcDbEntity
  8
0
  6
Continuous
 62
     7
370
    15
100
AcDbLine
 10
561.2767869621
 20
1767.6914879153
 30
0.0
 11
549.5210820823
 21
1783.8718318412
 31
0.0
  0
LINE
  5
238
330
1F
100
AcDbEntity
  8
0
  6
Continuous
 62
     7
370
    15
100
AcDbLine
 10
554.4001469403
 20
1762.6953148315
 30
0.0
 11
542.6444420605
 21
1778.8756587575
 31
0.0
  0
LWPOLYLINE
  5
239
330
1F
100
AcDbEntity
  8
0
  6
Continuous
 62
     7
370
    15
100
AcDbPolyline
 90
        9
 70
   128
 43
0.0
 10
564.215713182
 20
1763.6464037965
 10
564.1592452317
 20
1763.7241282532
 10
563.992002049
 20
1763.9543213914
 10
563.7204209357
 20
1764.3281244705
 10
563.3549252539
 20
1764.8311876724
 10
562.9095667987
 20
1765.4441618393
 10
562.4014670043
 20
1766.1435031364
 10
561.8501463919
 20
1766.9023373196
 10
561.2767869621
 20
1767.6914879153
  0
LINE
  5
23A
330
1F
100
AcDbEntity
  8
0
  6
Continuous
 62
     7
370
    15
100
AcDbLine
 10
564.215713182
 20
1763.6464037965
 30
0.0
 11
557.3390731602
 21
1758.6502307127
 31
0.0
  0
LWPOLYLINE
  5
23B
330
1F
100
AcDbEntity
  8
0
  6
Continuous
 62
     7
370
    15
100
AcDbPolyline
 90
        9
 70
   128
 43
0.0
 10
557.3390731602
 20
1758.6502307127
 10
557.2825977593
 20
1758.7279551695
 10
557.1153620272
 20
1758.9581445823
 10
556.8437734633
 20
1759.3319513867
 10
556.4782777815
 20
1759.835007138
 10
556.0329267769
 20
1760.4479887555
 10
555.5248269825
 20
1761.1473300526
 10
554.9734989195
 20
1761.9061567853
 10
554.4001469403
 20
1762.6953148315
  0
LINE
  5
23C
330
1F
100
AcDbEntity
  8
0
  6
Continuous
 62
     7
370
    15
100
AcDbLine
 10
329.9212390571
 20
1762.8373899529
 30
0.0
 11
336.7978865295
 21
1757.8412131438
 31
0.0
  0
LWPOLYLINE
  5
23D
330
1F
100
AcDbEntity
  8
0
  6
Continuous
 62
     7
370
    15
100
AcDbPolyline
 90
        9
 70
   128
 43
0.0
 10
332.860165277
 20
1766.8824740718
 10
332.2868132978
 20
1766.0933160255
 10
331.7354926854
 20
1765.3344892929
 10
331.2273854404
 20
1764.6351479957
 10
330.7820344358
 20
1764.0221663783
 10
330.416538754
 20
1763.519110627
 10
330.1449576407
 20
1763.1453000972
 10
329.977714458
 20
1762.9151144097
 10
329.9212390571
 20
1762.8373899529
  0
LWPOLYLINE
  5
23E
330
1F
100
AcDbEntity
  8
0
  6
Continuous
 62
     7
370
    15
100
AcDbPolyline
 90
        9
 70
   128
 43
0.0
 10
339.7368127494
 20
1761.886300988
 10
339.1634533196
 20
1761.0971429417
 10
338.6121327072
 20
1760.3383162091
 10
338.1040329128
 20
1759.6389674614
 10
337.6586744576
 20
1759.0259932945
 10
337.2931862264
 20
1758.5229338179
 10
337.0215976625
 20
1758.1491270135
 10
336.8543544798
 20
1757.9189413259
 10
336.7978865295
 20
1757.8412131438
  0
LINE
  5
23F
330
1F
100
AcDbEntity
  8
0
  6
Continuous
 62
     7
370
    15
100
AcDbLine
 10
344.6158701568
 20
1783.0628105471
 30
0.0
 11
332.860165277
 21
1766.8824740718
 31
0.0
  0
LINE
  5
240
330
1F
100
AcDbEntity
  8
0
  6
Continuous
 62
     7
370
    15
100
AcDbLine
 10
351.4925176292
 20
1778.0666374634
 30
0.0
 11
339.7368127494
 21
1761.886300988
 31
0.0
  0
LWPOLYLINE
  5
241
330
1F
100
AcDbEntity
  8
0
  6
Continuous
 62
     7
370
    15
100
AcDbPolyline
 90
        9
 70
   128
 43
0.0
 10
347.5547963767
 20
1787.1079021166
 10
347.4983284264
 20
1787.0301702092
 10
347.3310852437
 20
1786.7999845216
 10
347.0595041304
 20
1786.4261814425
 10
346.6940084486
 20
1785.9231182406
 10
346.2486499935
 20
1785.3101440737
 10
345.7405501991
 20
1784.6108027766
 10
345.1892295866
 20
1783.8519685934
 10
344.6158701568
 20
1783.0628105471
  0
LINE
  5
242
330
1F
100
AcDbEntity
  8
0
  6
Continuous
 62
     7
370
    15
100
AcDbLine
 10
347.5547963767
 20
1787.1079021166
 30
0.0
 11
354.4314438491
 21
1782.1117215822
 31
0.0
  0
LWPOLYLINE
  5
243
330
1F
100
AcDbEntity
  8
0
  6
Continuous
 62
     7
370
    15
100
AcDbPolyline
 90
        9
 70
   128
 43
0.0
 10
354.4314438491
 20
1782.1117215822
 10
354.3749758988
 20
1782.0339971254
 10
354.2077327161
 20
1781.8038114379
 10
353.9361441522
 20
1781.4300009082
 10
353.570655921
 20
1780.9269451568
 10
353.1252974658
 20
1780.31397099
 10
352.6171976714
 20
1779.6146296928
 10
352.065877059
 20
1778.8557955096
 10
351.4925176292
 20
1778.0666374634
  0
LWPOLYLINE
  5
244
330
1F
100
AcDbEntity
  8
0
  6
Continuous
 62
     7
370
    15
100
AcDbPolyline
 90
        9
 70
   128
 43
0.0
 10
324.4930291562
 20
1751.8393383393
 10
324.4633385926
 20
1751.7479681442
 10
324.3754142909
 20
1751.4773667822
 10
324.2326313644
 20
1751.0379315386
 10
324.0404808908
 20
1750.4465491543
 10
323.8063463955
 20
1749.7259513507
 10
323.5392207294
 20
1748.9038244853
 10
323.2493707924
 20
1748.0117664705
 10
322.9479426532
 20
1747.0840574274
  0
LINE
  5
245
330
1F
100
AcDbEntity
  8
0
  6
Continuous
 62
     7
370
    15
100
AcDbLine
 10
324.4930291562
 20
1751.8393383393
 30
0.0
 11
332.5770059615
 21
1749.2126957545
 31
0.0
  0
LWPOLYLINE
  5
246
330
1F
100
AcDbEntity
  8
0
  6
Continuous
 62
     7
370
    15
100
AcDbPolyline
 90
        9
 70
   128
 43
0.0
 10
332.5770059615
 20
1749.2126957545
 10
332.5473153978
 20
1749.1213255594
 10
332.4593910961
 20
1748.8507204721
 10
332.3166156202
 20
1748.4112852285
 10
332.1244651466
 20
1747.8199065695
 10
331.8903232007
 20
1747.0993050406
 10
331.6231975346
 20
1746.2771819005
 10
331.3333550482
 20
1745.3851238857
 10
331.0319194584
 20
1744.4574148426
  0
LINE
  5
247
330
1F
100
AcDbEntity
  8
0
  6
Continuous
 62
     7
370
    15
100
AcDbLine
 10
322.9479426532
 20
1747.0840574274
 30
0.0
 11
316.7675966411
 21
1728.0629263292
 31
0.0
  0
LINE
  5
248
330
1F
100
AcDbEntity
  8
0
  6
Continuous
 62
     7
370
    15
100
AcDbLine
 10
331.0319194584
 20
1744.4574148426
 30
0.0
 11
324.8515808969
 21
1725.4362818817
 31
0.0
  0
LINE
  5
249
330
1F
100
AcDbEntity
  8
0
  6
Continuous
 62
     7
370
    15
100
AcDbLine
 10
315.2225101381
 20
1723.3076454172
 30
0.0
 11
323.3064943939
 21
1720.6810009698
 31
0.0
  0
LWPOLYLINE
  5
24A
330
1F
100
AcDbEntity
  8
0
  6
Continuous
 62
     7
370
    15
100
AcDbPolyline
 90
        9
 70
   128
 43
0.0
 10
316.7675966411
 20
1728.0629263292
 10
316.4661759525
 20
1727.1352172861
 10
316.1763185649
 20
1726.2431592713
 10
315.9092003494
 20
1725.4210342685
 10
315.6750584035
 20
1724.7004346023
 10
315.4829079299
 20
1724.1090540806
 10
315.3401250034
 20
1723.669618837
 10
315.2522081523
 20
1723.3990156124
 10
315.2225101381
 20
1723.3076454172
  0
LWPOLYLINE
  5
24B
330
1F
100
AcDbEntity
  8
0
  6
Continuous
 62
     7
370
    15
100
AcDbPolyline
 90
        9
 70
   128
 43
0.0
 10
324.8515808969
 20
1725.4362818817
 10
324.5501527577
 20
1724.5085728387
 10
324.2603028207
 20
1723.6165148238
 10
323.9931771546
 20
1722.7943898211
 10
323.7590426593
 20
1722.0737901548
 10
323.5668921857
 20
1721.4824096332
 10
323.4241092592
 20
1721.0429743896
 10
323.3361849575
 20
1720.7723711649
 10
323.3064943939
 20
1720.6810009698
  0
LINE
  5
24C
330
1F
100
AcDbEntity
  8
0
  6
Continuous
 62
     7
370
    15
100
AcDbLine
 10
356.1159232645
 20
1795.8902516434
 30
0.0
 11
361.1120963483
 21
1789.0136116216
 31
0.0
  0
LWPOLYLINE
  5
24D
330
1F
100
AcDbEntity
  8
0
  6
Continuous
 62
     7
370
    15
100
AcDbPolyline
 90
        9
 70
   128
 43
0.0
 10
360.1610073834
 20
1798.8291778634
 10
359.3718493371
 20
1798.2558258841
 10
358.6130226045
 20
1797.7045052717
 10
357.9136813073
 20
1797.1963980267
 10
357.3006996899
 20
1796.7510470221
 10
356.7976439386
 20
1796.3855513404
 10
356.4238334089
 20
1796.113970227
 10
356.1936477213
 20
1795.9467270444
 10
356.1159232645
 20
1795.8902516434
  0
LWPOLYLINE
  5
24E
330
1F
100
AcDbEntity
  8
0
  6
Continuous
 62
     7
370
    15
100
AcDbPolyline
 90
        9
 70
   128
 43
0.0
 10
365.1571804672
 20
1791.9525378416
 10
364.3680224209
 20
1791.3791784117
 10
363.6091956883
 20
1790.8278577993
 10
362.9098543911
 20
1790.3197580049
 10
362.2968727737
 20
1789.8743995497
 10
361.7938170224
 20
1789.5089113186
 10
361.4200139432
 20
1789.2373227546
 10
361.1898208051
 20
1789.070079572
 10
361.1120963483
 20
1789.0136116216
  0
LINE
  5
24F
330
1F
100
AcDbEntity
  8
0
  6
Continuous
 62
     7
370
    15
100
AcDbLine
 10
376.3413513093
 20
1810.5848827431
 30
0.0
 11
360.1610073834
 21
1798.8291778634
 31
0.0
  0
LINE
  5
250
330
1F
100
AcDbEntity
  8
0
  6
Continuous
 62
     7
370
    15
100
AcDbLine
 10
381.3375243931
 20
1803.7082427213
 30
0.0
 11
365.1571804672
 21
1791.9525378416
 31
0.0
  0
LINE
  5
251
330
1F
100
AcDbEntity
  8
0
  6
Continuous
 62
     7
370
    15
100
AcDbLine
 10
380.3864354282
 20
1813.5238089631
 30
0.0
 11
385.382608512
 21
1806.6471689413
 31
0.0
  0
LWPOLYLINE
  5
252
330
1F
100
AcDbEntity
  8
0
  6
Continuous
 62
     7
370
    15
100
AcDbPolyline
 90
        9
 70
   128
 43
0.0
 10
380.3864354282
 20
1813.5238089631
 10
380.3087109714
 20
1813.4673410127
 10
380.0785178333
 20
1813.3000978301
 10
379.7047147541
 20
1813.0285167167
 10
379.2016515522
 20
1812.663021035
 10
378.5886773854
 20
1812.2176625798
 10
377.8893360882
 20
1811.7095627854
 10
377.130501905
 20
1811.158242173
 10
376.3413513093
 20
1810.5848827431
  0
LWPOLYLINE
  5
253
330
1F
100
AcDbEntity
  8
0
  6
Continuous
 62
     7
370
    15
100
AcDbPolyline
 90
        9
 70
   128
 43
0.0
 10
385.382608512
 20
1806.6471689413
 10
385.3048840552
 20
1806.5906935404
 10
385.0746946423
 20
1806.4234578083
 10
384.7008878379
 20
1806.1518692444
 10
384.1978320866
 20
1805.7863735626
 10
383.5848504691
 20
1805.341022558
 10
382.885509172
 20
1804.8329227636
 10
382.1266824394
 20
1804.2815947006
 10
381.3375243931
 20
1803.7082427213
  0
LINE
  5
254
330
1F
100
AcDbEntity
  8
0
  6
Continuous
 62
     7
370
    15
100
AcDbLine
 10
313.4585553794
 20
1681.1704677562
 30
0.0
 11
321.9585651546
 21
1681.1704677562
 31
0.0
  0
LINE
  5
255
330
1F
100
AcDbEntity
  8
0
  6
Continuous
 62
     7
370
    15
100
AcDbLine
 10
313.4585553794
 20
1686.1704676444
 30
0.0
 11
313.4585553794
 21
1681.1704677562
 31
0.0
  0
LINE
  5
256
330
1F
100
AcDbEntity
  8
0
  6
Continuous
 62
     7
370
    15
100
AcDbLine
 10
321.9585651546
 20
1686.1704676444
 30
0.0
 11
321.9585651546
 21
1681.1704677562
 31
0.0
  0
LINE
  5
257
330
1F
100
AcDbEntity
  8
0
  6
Continuous
 62
     7
370
    15
100
AcDbLine
 10
313.4585553794
 20
1706.1704671974
 30
0.0
 11
313.4585553794
 21
1686.1704676444
 31
0.0
  0
LINE
  5
258
330
1F
100
AcDbEntity
  8
0
  6
Continuous
 62
     7
370
    15
100
AcDbLine
 10
321.9585651546
 20
1706.1704671974
 30
0.0
 11
321.9585651546
 21
1686.1704676444
 31
0.0
  0
LINE
  5
259
330
1F
100
AcDbEntity
  8
0
  6
Continuous
 62
     7
370
    15
100
AcDbLine
 10
313.4585553794
 20
1711.1704670856
 30
0.0
 11
313.4585553794
 21
1706.1704671974
 31
0.0
  0
LINE
  5
25A
330
1F
100
AcDbEntity
  8
0
  6
Continuous
 62
     7
370
    15
100
AcDbLine
 10
313.4585553794
 20
1711.1704670856
 30
0.0
 11
321.9585651546
 21
1711.1704670856
 31
0.0
  0
LINE
  5
25B
330
1F
100
AcDbEntity
  8
0
  6
Continuous
 62
     7
370
    15
100
AcDbLine
 10
321.9585651546
 20
1711.1704670856
 30
0.0
 11
321.9585651546
 21
1706.1704671974
 31
0.0
  0
LINE
  5
25C
330
1F
100
AcDbEntity
  8
0
  6
Continuous
 62
     7
370
    15
100
AcDbLine
 10
569.9227014571
 20
1752.790397502
 30
0.0
 11
561.8387172013
 21
1750.1637511919
 31
0.0
  0
LWPOLYLINE
  5
25D
330
1F
100
AcDbEntity
  8
0
  6
Continuous
 62
     7
370
    15
100
AcDbPolyline
 90
        9
 70
   128
 43
0.0
 10
571.4677879601
 20
1748.0351128648
 10
571.1663523703
 20
1748.9628219078
 10
570.8765098839
 20
1749.8548836479
 10
570.6093842178
 20
1750.677006788
 10
570.3752422719
 20
1751.3976083169
 10
570.1830917983
 20
1751.9889869759
 10
570.0403088718
 20
1752.4284222195
 10
569.9523845702
 20
1752.6990235815
 10
569.9227014571
 20
1752.790397502
  0
LWPOLYLINE
  5
25E
330
1F
100
AcDbEntity
  8
0
  6
Continuous
 62
     7
370
    15
100
AcDbPolyline
 90
        9
 70
   128
 43
0.0
 10
563.3838037043
 20
1745.40847028
 10
563.0823755651
 20
1746.336179323
 10
562.7925256281
 20
1747.2282373378
 10
562.525399962
 20
1748.0503642032
 10
562.2912654667
 20
1748.7709620068
 10
562.0991149931
 20
1749.3623406658
 10
561.9563320666
 20
1749.8017796347
 10
561.8684077649
 20
1750.0723809967
 10
561.8387172013
 20
1750.1637511919
  0
LINE
  5
25F
330
1F
100
AcDbEntity
  8
0
  6
Continuous
 62
     7
370
    15
100
AcDbLine
 10
577.6481265216
 20
1729.0139854918
 30
0.0
 11
571.4677879601
 21
1748.0351128648
 31
0.0
  0
LINE
  5
260
330
1F
100
AcDbEntity
  8
0
  6
Continuous
 62
     7
370
    15
100
AcDbLine
 10
569.5641422658
 20
1726.3873391817
 30
0.0
 11
563.3838037043
 21
1745.40847028
 31
0.0
  0
LINE
  5
261
330
1F
100
AcDbEntity
  8
0
  6
Continuous
 62
     7
370
    15
100
AcDbLine
 10
579.1932130246
 20
1724.2587008546
 30
0.0
 11
571.1092287689
 21
1721.6320564071
 31
0.0
  0
LWPOLYLINE
  5
262
330
1F
100
AcDbEntity
  8
0
  6
Continuous
 62
     7
370
    15
100
AcDbPolyline
 90
        9
 70
   128
 43
0.0
 10
579.1932130246
 20
1724.2587008546
 10
579.1635150104
 20
1724.3500729124
 10
579.0755981593
 20
1724.620676137
 10
578.9328152328
 20
1725.0601113806
 10
578.7406647592
 20
1725.6514919023
 10
578.5065228134
 20
1726.3720897058
 10
578.2394045978
 20
1727.1942165712
 10
577.9495621114
 20
1728.0862727235
 10
577.6481265216
 20
1729.0139854918
  0
LWPOLYLINE
  5
263
330
1F
100
AcDbEntity
  8
0
  6
Continuous
 62
     7
370
    15
100
AcDbPolyline
 90
        9
 70
   128
 43
0.0
 10
571.1092287689
 20
1721.6320564071
 10
571.0795382052
 20
1721.7234284649
 10
570.9916139036
 20
1721.9940316895
 10
570.8488384276
 20
1722.4334669332
 10
570.656687954
 20
1723.0248474548
 10
570.4225460081
 20
1723.7454452584
 10
570.155420342
 20
1724.5675721238
 10
569.8655778556
 20
1725.4596301387
 10
569.5641422658
 20
1726.3873391817
  0
LINE
  5
264
330
1F
100
AcDbEntity
  8
0
  6
Continuous
 62
     7
370
    15
100
AcDbLine
 10
462.8623714685
 20
1562.7666511605
 30
0.0
 11
462.8623714685
 21
1571.2666609357
 31
0.0
  0
LINE
  5
265
330
1F
100
AcDbEntity
  8
0
  6
Continuous
 62
     7
370
    15
100
AcDbLine
 10
457.8623715802
 20
1562.7666511605
 30
0.0
 11
462.8623714685
 21
1562.7666511605
 31
0.0
  0
LINE
  5
266
330
1F
100
AcDbEntity
  8
0
  6
Continuous
 62
     7
370
    15
100
AcDbLine
 10
457.8623715802
 20
1571.2666609357
 30
0.0
 11
462.8623714685
 21
1571.2666609357
 31
0.0
  0
LINE
  5
267
330
1F
100
AcDbEntity
  8
0
  6
Continuous
 62
     7
370
    15
100
AcDbLine
 10
432.862372139
 20
1562.7666511605
 30
0.0
 11
437.8623720273
 21
1562.7666511605
 31
0.0
  0
LINE
  5
268
330
1F
100
AcDbEntity
  8
0
  6
Continuous
 62
     7
370
    15
100
AcDbLine
 10
432.862372139
 20
1562.7666511605
 30
0.0
 11
432.862372139
 21
1571.2666609357
 31
0.0
  0
LINE
  5
269
330
1F
100
AcDbEntity
  8
0
  6
Continuous
 62
     7
370
    15
100
AcDbLine
 10
432.862372139
 20
1571.2666609357
 30
0.0
 11
437.8623720273
 21
1571.2666609357
 31
0.0
  0
LINE
  5
26A
330
1F
100
AcDbEntity
  8
0
  6
Continuous
 62
     7
370
    15
100
AcDbLine
 10
437.8623720273
 20
1562.7666511605
 30
0.0
 11
457.8623715802
 21
1562.7666511605
 31
0.0
  0
LINE
  5
26B
330
1F
100
AcDbEntity
  8
0
  6
Continuous
 62
     7
370
    15
100
AcDbLine
 10
437.8623720273
 20
1571.2666609357
 30
0.0
 11
457.8623715802
 21
1571.2666609357
 31
0.0
  0
LWPOLYLINE
  5
26C
330
1F
100
AcDbEntity
  8
0
  6
Continuous
 62
     7
370
    15
100
AcDbPolyline
 90
        9
 70
   128
 43
0.0
 10
356.9249371081
 20
1596.8628921578
 10
357.0026690154
 20
1596.8064242075
 10
357.232854703
 20
1596.6391810248
 10
357.6066577821
 20
1596.3675999115
 10
358.109720984
 20
1596.0021042297
 10
358.7226951509
 20
1595.5567457745
 10
359.422036448
 20
1595.0486459801
 10
360.1808706313
 20
1594.4973253677
 10
360.9700286775
 20
1593.9239659379
  0
LINE
  5
26D
330
1F
100
AcDbEntity
  8
0
  6
Continuous
 62
     7
370
    15
100
AcDbLine
 10
356.9249371081
 20
1596.8628921578
 30
0.0
 11
361.9211176424
 21
1603.7395396302
 31
0.0
  0
LWPOLYLINE
  5
26E
330
1F
100
AcDbEntity
  8
0
  6
Continuous
 62
     7
370
    15
100
AcDbPolyline
 90
        9
 70
   128
 43
0.0
 10
361.9211176424
 20
1603.7395396302
 10
361.9988420992
 20
1603.6830716798
 10
362.2290277868
 20
1603.5158284972
 10
362.6028383165
 20
1603.2442399333
 10
363.1058940678
 20
1602.8787517021
 10
363.7188682347
 20
1602.4333932469
 10
364.4182095318
 20
1601.9252934525
 10
365.177043715
 20
1601.3739728401
 10
365.9662017613
 20
1600.8006134103
  0
LINE
  5
26F
330
1F
100
AcDbEntity
  8
0
  6
Continuous
 62
     7
370
    15
100
AcDbLine
 10
381.1954492717
 20
1579.2293348382
 30
0.0
 11
386.1916260808
 21
1586.1059823106
 31
0.0
  0
LWPOLYLINE
  5
270
330
1F
100
AcDbEntity
  8
0
  6
Continuous
 62
     7
370
    15
100
AcDbPolyline
 90
        9
 70
   128
 43
0.0
 10
377.1503651529
 20
1582.1682610581
 10
377.9395231991
 20
1581.5949090789
 10
378.6983499318
 20
1581.0435884664
 10
379.3976912289
 20
1580.5354812215
 10
380.0106728464
 20
1580.0901302169
 10
380.5137285977
 20
1579.7246345351
 10
380.8875391274
 20
1579.4530534218
 10
381.1177248149
 20
1579.2858102391
 10
381.1954492717
 20
1579.2293348382
  0
LWPOLYLINE
  5
271
330
1F
100
AcDbEntity
  8
0
  6
Continuous
 62
     7
370
    15
100
AcDbPolyline
 90
        9
 70
   128
 43
0.0
 10
382.1465382367
 20
1589.0449085305
 10
382.9356962829
 20
1588.4715491007
 10
383.6945230155
 20
1587.9202284882
 10
384.3938717633
 20
1587.4121286938
 10
385.0068459301
 20
1586.9667702387
 10
385.5099054067
 20
1586.6012820075
 10
385.8837122112
 20
1586.3296934436
 10
386.1138978987
 20
1586.1624502609
 10
386.1916260808
 20
1586.1059823106
  0
LINE
  5
272
330
1F
100
AcDbEntity
  8
0
  6
Continuous
 62
     7
370
    15
100
AcDbLine
 10
360.9700286775
 20
1593.9239659379
 30
0.0
 11
377.1503651529
 21
1582.1682610581
 31
0.0
  0
LINE
  5
273
330
1F
100
AcDbEntity
  8
0
  6
Continuous
 62
     7
370
    15
100
AcDbLine
 10
365.9662017613
 20
1600.8006134103
 30
0.0
 11
382.1465382367
 21
1589.0449085305
 31
0.0
  0
LINE
  5
274
330
1F
100
AcDbEntity
  8
0
  6
Continuous
 62
     7
370
    15
100
AcDbLine
 10
333.4479564815
 20
1625.6494470904
 30
0.0
 11
345.2036613613
 21
1609.4691031645
 31
0.0
  0
LINE
  5
275
330
1F
100
AcDbEntity
  8
0
  6
Continuous
 62
     7
370
    15
100
AcDbLine
 10
340.3245965033
 20
1630.6456201742
 30
0.0
 11
352.0803013831
 21
1614.4652762482
 31
0.0
  0
LINE
  5
276
330
1F
100
AcDbEntity
  8
0
  6
Continuous
 62
     7
370
    15
100
AcDbLine
 10
348.1425875812
 20
1605.4240190456
 30
0.0
 11
355.019227603
 21
1610.4201921294
 31
0.0
  0
LWPOLYLINE
  5
277
330
1F
100
AcDbEntity
  8
0
  6
Continuous
 62
     7
370
    15
100
AcDbPolyline
 90
        9
 70
   128
 43
0.0
 10
345.2036613613
 20
1609.4691031645
 10
345.7770133405
 20
1608.6799451182
 10
346.3283339529
 20
1607.9211183856
 10
346.8364411979
 20
1607.2217770884
 10
347.2817922025
 20
1606.608795471
 10
347.6472878843
 20
1606.1057397196
 10
347.9188689976
 20
1605.7319291899
 10
348.0861121803
 20
1605.5017435024
 10
348.1425875812
 20
1605.4240190456
  0
LWPOLYLINE
  5
278
330
1F
100
AcDbEntity
  8
0
  6
Continuous
 62
     7
370
    15
100
AcDbPolyline
 90
        9
 70
   128
 43
0.0
 10
352.0803013831
 20
1614.4652762482
 10
352.6536608129
 20
1613.676118202
 10
353.2049814253
 20
1612.9172914694
 10
353.7130812197
 20
1612.2179501722
 10
354.1584396749
 20
1611.6049685548
 10
354.5239279061
 20
1611.1019128034
 10
354.79551647
 20
1610.7281097243
 10
354.9627596526
 20
1610.4979165862
 10
355.019227603
 20
1610.4201921294
  0
LINE
  5
279
330
1F
100
AcDbEntity
  8
0
  6
Continuous
 62
     7
370
    15
100
AcDbLine
 10
330.5090302616
 20
1629.6945312092
 30
0.0
 11
337.3856702834
 21
1634.690704293
 31
0.0
  0
LWPOLYLINE
  5
27A
330
1F
100
AcDbEntity
  8
0
  6
Continuous
 62
     7
370
    15
100
AcDbPolyline
 90
        9
 70
   128
 43
0.0
 10
330.5090302616
 20
1629.6945312092
 10
330.5654982119
 20
1629.6168067525
 10
330.7327413946
 20
1629.3866136143
 10
331.0043225079
 20
1629.0128105352
 10
331.3698181897
 20
1628.5097473333
 10
331.8151766448
 20
1627.8967731664
 10
332.3232764392
 20
1627.1974318693
 10
332.8745970517
 20
1626.4385976861
 10
333.4479564815
 20
1625.6494470904
  0
LWPOLYLINE
  5
27B
330
1F
100
AcDbEntity
  8
0
  6
Continuous
 62
     7
370
    15
100
AcDbPolyline
 90
        9
 70
   128
 43
0.0
 10
337.3856702834
 20
1634.690704293
 10
337.4421456843
 20
1634.6129798362
 10
337.6093814164
 20
1634.3827904234
 10
337.8809699803
 20
1634.008983619
 10
338.246465662
 20
1633.5059278677
 10
338.6918166666
 20
1632.8929462502
 10
339.199916461
 20
1632.1936049531
 10
339.751244524
 20
1631.4347782204
 10
340.3245965033
 20
1630.6456201742
  0
LWPOLYLINE
  5
27C
330
1F
100
AcDbEntity
  8
0
  6
Continuous
 62
     7
370
    15
100
AcDbPolyline
 90
        9
 70
   128
 43
0.0
 10
392.1935008853
 20
1573.8011249373
 10
392.2848710804
 20
1573.7714343736
 10
392.5554724424
 20
1573.683510072
 10
392.994907686
 20
1573.5407271455
 10
393.5862900703
 20
1573.3485766719
 10
394.3068878739
 20
1573.1144421766
 10
395.1290147393
 20
1572.8473165105
 10
396.0210727542
 20
1572.5574665735
 10
396.9487817972
 20
1572.2560384343
  0
LINE
  5
27D
330
1F
100
AcDbEntity
  8
0
  6
Continuous
 62
     7
370
    15
100
AcDbLine
 10
392.1935008853
 20
1573.8011249373
 30
0.0
 11
394.8201434701
 21
1581.8851017425
 31
0.0
  0
LWPOLYLINE
  5
27E
330
1F
100
AcDbEntity
  8
0
  6
Continuous
 62
     7
370
    15
100
AcDbPolyline
 90
        9
 70
   128
 43
0.0
 10
394.8201434701
 20
1581.8851017425
 10
394.9115136652
 20
1581.8554111788
 10
395.1821187525
 20
1581.7674868772
 10
395.6215539961
 20
1581.6247114012
 10
396.2129326551
 20
1581.4325609276
 10
396.933534184
 20
1581.1984189818
 10
397.7556573241
 20
1580.9312933157
 10
398.647715339
 20
1580.6414508293
 10
399.575424382
 20
1580.3400152395
  0
LINE
  5
27F
330
1F
100
AcDbEntity
  8
0
  6
Continuous
 62
     7
370
    15
100
AcDbLine
 10
420.7251938074
 20
1564.5306059191
 30
0.0
 11
423.3518382548
 21
1572.6145901749
 31
0.0
  0
LWPOLYLINE
  5
280
330
1F
100
AcDbEntity
  8
0
  6
Continuous
 62
     7
370
    15
100
AcDbPolyline
 90
        9
 70
   128
 43
0.0
 10
415.9699128955
 20
1566.0756924222
 10
416.8976219385
 20
1565.7742717335
 10
417.7896799534
 20
1565.484414346
 10
418.6118049561
 20
1565.2172961304
 10
419.3324046224
 20
1564.9831541846
 10
419.923785144
 20
1564.791003711
 10
420.3632203876
 20
1564.6482207844
 10
420.6338236122
 20
1564.5603039334
 10
420.7251938074
 20
1564.5306059191
  0
LWPOLYLINE
  5
281
330
1F
100
AcDbEntity
  8
0
  6
Continuous
 62
     7
370
    15
100
AcDbPolyline
 90
        9
 70
   128
 43
0.0
 10
418.5965573429
 20
1574.159676678
 10
419.5242663859
 20
1573.8582485388
 10
420.4163244008
 20
1573.5683986018
 10
421.2384494036
 20
1573.3012729356
 10
421.9590490698
 20
1573.0671384404
 10
422.5504295915
 20
1572.8749879668
 10
422.9898648351
 20
1572.7322050402
 10
423.2604680597
 20
1572.6442807386
 10
423.3518382548
 20
1572.6145901749
  0
LINE
  5
282
330
1F
100
AcDbEntity
  8
0
  6
Continuous
 62
     7
370
    15
100
AcDbLine
 10
396.9487817972
 20
1572.2560384343
 30
0.0
 11
415.9699128955
 21
1566.0756924222
 31
0.0
  0
LINE
  5
283
330
1F
100
AcDbEntity
  8
0
  6
Continuous
 62
     7
370
    15
100
AcDbLine
 10
399.575424382
 20
1580.3400152395
 30
0.0
 11
418.5965573429
 21
1574.159676678
 31
0.0
  0
LINE
  5
284
330
1F
100
AcDbEntity
  8
0
  6
Continuous
 62
     7
370
    15
100
AcDbLine
 10
479.7058897107
 20
1566.384712703
 30
0.0
 11
498.7270170837
 21
1572.5650512645
 31
0.0
  0
LINE
  5
285
330
1F
100
AcDbEntity
  8
0
  6
Continuous
 62
     7
370
    15
100
AcDbLine
 10
477.0792434006
 20
1574.4686969588
 30
0.0
 11
496.1003744989
 21
1580.6490355203
 31
0.0
  0
LINE
  5
286
330
1F
100
AcDbEntity
  8
0
  6
Continuous
 62
     7
370
    15
100
AcDbLine
 10
474.9506050735
 20
1564.8396262
 30
0.0
 11
472.323960626
 21
1572.9236104558
 31
0.0
  0
LWPOLYLINE
  5
287
330
1F
100
AcDbEntity
  8
0
  6
Continuous
 62
     7
370
    15
100
AcDbPolyline
 90
        9
 70
   128
 43
0.0
 10
472.323960626
 20
1572.9236104558
 10
472.4153326838
 20
1572.9533010194
 10
472.6859359085
 20
1573.0412253211
 10
473.1253711521
 20
1573.1840007971
 10
473.7167516737
 20
1573.3761512706
 10
474.4373494773
 20
1573.6102932165
 10
475.2594763427
 20
1573.8774188826
 10
476.1515343576
 20
1574.167261369
 10
477.0792434006
 20
1574.4686969588
  0
LWPOLYLINE
  5
288
330
1F
100
AcDbEntity
  8
0
  6
Continuous
 62
     7
370
    15
100
AcDbPolyline
 90
        9
 70
   128
 43
0.0
 10
474.9506050735
 20
1564.8396262
 10
475.0419771313
 20
1564.8693242142
 10
475.3125803559
 20
1564.9572410653
 10
475.7520155995
 20
1565.1000239918
 10
476.3433961212
 20
1565.2921744654
 10
477.0639939248
 20
1565.5263164113
 10
477.8861207902
 20
1565.7934346268
 10
478.7781769424
 20
1566.0832771132
 10
479.7058897107
 20
1566.384712703
  0
LINE
  5
289
330
1F
100
AcDbEntity
  8
0
  6
Continuous
 62
     7
370
    15
100
AcDbLine
 10
503.4823017209
 20
1574.1101377676
 30
0.0
 11
500.8556554108
 21
1582.1941220234
 31
0.0
  0
LWPOLYLINE
  5
28A
330
1F
100
AcDbEntity
  8
0
  6
Continuous
 62
     7
370
    15
100
AcDbPolyline
 90
        9
 70
   128
 43
0.0
 10
496.1003744989
 20
1580.6490355203
 10
497.0280835419
 20
1580.9504636595
 10
497.9201415568
 20
1581.2403135965
 10
498.7422684222
 20
1581.5074392626
 10
499.4628662258
 20
1581.7415737579
 10
500.0542448848
 20
1581.9337242315
 10
500.4936838537
 20
1582.0765071581
 10
500.7642852156
 20
1582.1644314597
 10
500.8556554108
 20
1582.1941220234
  0
LWPOLYLINE
  5
28B
330
1F
100
AcDbEntity
  8
0
  6
Continuous
 62
     7
370
    15
100
AcDbPolyline
 90
        9
 70
   128
 43
0.0
 10
498.7270170837
 20
1572.5650512645
 10
499.6547261267
 20
1572.8664868543
 10
500.5467878669
 20
1573.1563293407
 10
501.368911007
 20
1573.4234550069
 10
502.0895125358
 20
1573.6575969527
 10
502.6808911949
 20
1573.8497474263
 10
503.1203264385
 20
1573.9925303529
 10
503.3909278005
 20
1574.0804546545
 10
503.4823017209
 20
1574.1101377676
  0
LWPOLYLINE
  5
28C
330
1F
100
AcDbEntity
  8
0
  6
Continuous
 62
     7
370
    15
100
AcDbPolyline
 90
        9
 70
   128
 43
0.0
 10
570.2317142873
 20
1641.5015966664
 10
570.261404851
 20
1641.5929668615
 10
570.3493291526
 20
1641.8635682235
 10
570.4921120792
 20
1642.3030034671
 10
570.6842625528
 20
1642.8943858514
 10
570.918397048
 20
1643.614983655
 10
571.1855227142
 20
1644.4371105204
 10
571.4753726511
 20
1645.3291685353
 10
571.7768007903
 20
1646.2568775783
  0
LINE
  5
28D
330
1F
100
AcDbEntity
  8
0
  6
Continuous
 62
     7
370
    15
100
AcDbLine
 10
570.2317142873
 20
1641.5015966664
 30
0.0
 11
562.1477374821
 21
1644.1282392512
 31
0.0
  0
LWPOLYLINE
  5
28E
330
1F
100
AcDbEntity
  8
0
  6
Continuous
 62
     7
370
    15
100
AcDbPolyline
 90
        9
 70
   128
 43
0.0
 10
562.1477374821
 20
1644.1282392512
 10
562.1774280458
 20
1644.2196094463
 10
562.2653523474
 20
1644.4902145336
 10
562.4081278234
 20
1644.9296497772
 10
562.600278297
 20
1645.5210284362
 10
562.8344202428
 20
1646.2416299651
 10
563.101545909
 20
1647.0637531052
 10
563.3913883953
 20
1647.9558111201
 10
563.6928239851
 20
1648.8835201631
  0
LINE
  5
28F
330
1F
100
AcDbEntity
  8
0
  6
Continuous
 62
     7
370
    15
100
AcDbLine
 10
579.5022333055
 20
1670.0332895885
 30
0.0
 11
571.4182490497
 21
1672.6599340359
 31
0.0
  0
LWPOLYLINE
  5
290
330
1F
100
AcDbEntity
  8
0
  6
Continuous
 62
     7
370
    15
100
AcDbPolyline
 90
        9
 70
   128
 43
0.0
 10
577.9571468025
 20
1665.2780086765
 10
578.2585674911
 20
1666.2057177196
 10
578.5484248786
 20
1667.0977757344
 10
578.8155430942
 20
1667.9199007372
 10
579.04968504
 20
1668.6405004034
 10
579.2418355136
 20
1669.2318809251
 10
579.3846184402
 20
1669.6713161687
 10
579.4725352912
 20
1669.9419193933
 10
579.5022333055
 20
1670.0332895885
  0
LWPOLYLINE
  5
291
330
1F
100
AcDbEntity
  8
0
  6
Continuous
 62
     7
370
    15
100
AcDbPolyline
 90
        9
 70
   128
 43
0.0
 10
569.8731625467
 20
1667.904653124
 10
570.1745906859
 20
1668.832362167
 10
570.4644406228
 20
1669.7244201819
 10
570.731566289
 20
1670.5465451846
 10
570.9657007842
 20
1671.2671448509
 10
571.1578512578
 20
1671.8585253725
 10
571.3006341844
 20
1672.2979606161
 10
571.388558486
 20
1672.5685638408
 10
571.4182490497
 20
1672.6599340359
  0
LINE
  5
292
330
1F
100
AcDbEntity
  8
0
  6
Continuous
 62
     7
370
    15
100
AcDbLine
 10
571.7768007903
 20
1646.2568775783
 30
0.0
 11
577.9571468025
 21
1665.2780086765
 31
0.0
  0
LINE
  5
293
330
1F
100
AcDbEntity
  8
0
  6
Continuous
 62
     7
370
    15
100
AcDbLine
 10
563.6928239851
 20
1648.8835201631
 30
0.0
 11
569.8731625467
 21
1667.904653124
 31
0.0
  0
LINE
  5
294
330
1F
100
AcDbEntity
  8
0
  6
Continuous
 62
     7
370
    15
100
AcDbLine
 10
538.608820179
 20
1597.4506833623
 30
0.0
 11
533.6126470952
 21
1604.3273233841
 31
0.0
  0
LWPOLYLINE
  5
295
330
1F
100
AcDbEntity
  8
0
  6
Continuous
 62
     7
370
    15
100
AcDbPolyline
 90
        9
 70
   128
 43
0.0
 10
534.5637360602
 20
1594.5117571423
 10
535.3528941064
 20
1595.0851091216
 10
536.1117208391
 20
1595.636429734
 10
536.8110621362
 20
1596.144536979
 10
537.4240437537
 20
1596.5898879836
 10
537.927099505
 20
1596.9553836653
 10
538.3009100347
 20
1597.2269647787
 10
538.5310957222
 20
1597.3942079613
 10
538.608820179
 20
1597.4506833623
  0
LWPOLYLINE
  5
296
330
1F
100
AcDbEntity
  8
0
  6
Continuous
 62
     7
370
    15
100
AcDbPolyline
 90
        9
 70
   128
 43
0.0
 10
529.5675629764
 20
1601.3883971641
 10
530.3567210226
 20
1601.961756594
 10
531.1155477553
 20
1602.5130772064
 10
531.8148890524
 20
1603.0211770008
 10
532.4278706699
 20
1603.466535456
 10
532.9309264212
 20
1603.8320236871
 10
533.3047295003
 20
1604.1036122511
 10
533.5349226384
 20
1604.2708554337
 10
533.6126470952
 20
1604.3273233841
  0
LWPOLYLINE
  5
297
330
1F
100
AcDbEntity
  8
0
  6
Continuous
 62
     7
370
    15
100
AcDbPolyline
 90
        9
 70
   128
 43
0.0
 10
514.3383080154
 20
1579.8171260426
 10
514.4160324722
 20
1579.873593993
 10
514.6462256103
 20
1580.0408371756
 10
515.0200286894
 20
1580.312418289
 10
515.5230918913
 20
1580.6779139707
 10
516.1360660582
 20
1581.1232724259
 10
516.8354073553
 20
1581.6313722203
 10
517.5942415386
 20
1582.1826928327
 10
518.3833921342
 20
1582.7560522626
  0
LINE
  5
298
330
1F
100
AcDbEntity
  8
0
  6
Continuous
 62
     7
370
    15
100
AcDbLine
 10
514.3383080154
 20
1579.8171260426
 30
0.0
 11
509.3421349316
 21
1586.6937660644
 31
0.0
  0
LWPOLYLINE
  5
299
330
1F
100
AcDbEntity
  8
0
  6
Continuous
 62
     7
370
    15
100
AcDbPolyline
 90
        9
 70
   128
 43
0.0
 10
509.3421349316
 20
1586.6937660644
 10
509.4198593884
 20
1586.7502414653
 10
509.6500488012
 20
1586.9174771974
 10
510.0238556056
 20
1587.1890657613
 10
510.526911357
 20
1587.5545614431
 10
511.1398929744
 20
1587.9999124477
 10
511.8392342716
 20
1588.5080122421
 10
512.5980610042
 20
1589.0593403051
 10
513.3872190504
 20
1589.6326922844
  0
LINE
  5
29A
330
1F
100
AcDbEntity
  8
0
  6
Continuous
 62
     7
370
    15
100
AcDbLine
 10
513.3872190504
 20
1589.6326922844
 30
0.0
 11
529.5675629764
 21
1601.3883971641
 31
0.0
  0
LINE
  5
29B
330
1F
100
AcDbEntity
  8
0
  6
Continuous
 62
     7
370
    15
100
AcDbLine
 10
518.3833921342
 20
1582.7560522626
 30
0.0
 11
534.5637360602
 21
1594.5117571423
 31
0.0
  0
LWPOLYLINE
  5
29C
330
1F
100
AcDbEntity
  8
0
  6
Continuous
 62
     7
370
    15
100
AcDbPolyline
 90
        9
 70
   128
 43
0.0
 10
547.1699470668
 20
1606.2330328891
 10
547.2264150172
 20
1606.3107647965
 10
547.3936581998
 20
1606.5409504841
 10
547.6652393132
 20
1606.9147535632
 10
548.0307349949
 20
1607.4178167651
 10
548.4760934501
 20
1608.030790932
 10
548.9841932445
 20
1608.7301322291
 10
549.5355138569
 20
1609.4889664123
 10
550.1088732868
 20
1610.2781244586
  0
LINE
  5
29D
330
1F
100
AcDbEntity
  8
0
  6
Continuous
 62
     7
370
    15
100
AcDbLine
 10
547.1699470668
 20
1606.2330328891
 30
0.0
 11
540.2932995944
 21
1611.2292134235
 31
0.0
  0
LWPOLYLINE
  5
29E
330
1F
100
AcDbEntity
  8
0
  6
Continuous
 62
     7
370
    15
100
AcDbPolyline
 90
        9
 70
   128
 43
0.0
 10
540.2932995944
 20
1611.2292134235
 10
540.3497675448
 20
1611.3069378803
 10
540.5170107274
 20
1611.5371235678
 10
540.7885992914
 20
1611.9109340975
 10
541.1540875225
 20
1612.4139898489
 10
541.5994459777
 20
1613.0269640157
 10
542.1075457721
 20
1613.7263053129
 10
542.6588663845
 20
1614.4851394961
 10
543.2322258144
 20
1615.2742975424
  0
LINE
  5
29F
330
1F
100
AcDbEntity
  8
0
  6
Continuous
 62
     7
370
    15
100
AcDbLine
 10
564.8035043865
 20
1630.5035450528
 30
0.0
 11
557.9268569141
 21
1635.4997218619
 31
0.0
  0
LWPOLYLINE
  5
2A0
330
1F
100
AcDbEntity
  8
0
  6
Continuous
 62
     7
370
    15
100
AcDbPolyline
 90
        9
 70
   128
 43
0.0
 10
561.8645781665
 20
1626.4584609339
 10
562.4379301458
 20
1627.2476189802
 10
562.9892507582
 20
1628.0064457128
 10
563.4973580032
 20
1628.70578701
 10
563.9427090078
 20
1629.3187686274
 10
564.3082046895
 20
1629.8218243787
 10
564.5797858029
 20
1630.1956349085
 10
564.7470289855
 20
1630.425820596
 10
564.8035043865
 20
1630.5035450528
  0
LWPOLYLINE
  5
2A1
330
1F
100
AcDbEntity
  8
0
  6
Continuous
 62
     7
370
    15
100
AcDbPolyline
 90
        9
 70
   128
 43
0.0
 10
554.9879306941
 20
1631.4546340177
 10
555.561290124
 20
1632.243792064
 10
556.1126107364
 20
1633.0026187966
 10
556.6207105308
 20
1633.7019675443
 10
557.066068986
 20
1634.3149417112
 10
557.4315572172
 20
1634.8180011878
 10
557.7031457811
 20
1635.1918079922
 10
557.8703889637
 20
1635.4219936798
 10
557.9268569141
 20
1635.4997218619
  0
LINE
  5
2A2
330
1F
100
AcDbEntity
  8
0
  6
Continuous
 62
     7
370
    15
100
AcDbLine
 10
550.1088732868
 20
1610.2781244586
 30
0.0
 11
561.8645781665
 21
1626.4584609339
 31
0.0
  0
LINE
  5
2A3
330
1F
100
AcDbEntity
  8
0
  6
Continuous
 62
     7
370
    15
100
AcDbLine
 10
543.2322258144
 20
1615.2742975424
 30
0.0
 11
554.9879306941
 21
1631.4546340177
 31
0.0
  0
ARC
  5
2A4
330
1F
100
AcDbEntity
  8
0
  6
Continuous
 62
     7
370
    15
100
AcDbCircle
 10
414.3623717218
 20
1780.4021819246
 30
0.0
 40
5.0
100
AcDbArc
 50
0.0
 51
111.5101882669
  0
ARC
  5
2A5
330
1F
100
AcDbEntity
  8
0
  6
Continuous
 62
     7
370
    15
100
AcDbCircle
 10
447.3623717218
 20
1696.6704675029
 30
0.0
 40
95.00000000000006
100
AcDbArc
 50
111.5101882669
 51
248.4898117331
  0
ARC
  5
2A6
330
1F
100
AcDbEntity
  8
0
  6
Continuous
 62
     7
370
    15
100
AcDbCircle
 10
414.3623717218
 20
1612.9387530811
 30
0.0
 40
5.0
100
AcDbArc
 50
248.4898117331
 51
0.0
  0
LINE
  5
2A7
330
1F
100
AcDbEntity
  8
0
  6
Continuous
 62
     7
370
    15
100
AcDbLine
 10
419.3623708575
 20
1612.9387565921
 30
0.0
 11
419.3623708575
 21
1780.4021784136
 31
0.0
  0
ARC
  5
2A8
330
1F
100
AcDbEntity
  8
0
  6
Continuous
 62
     7
370
    15
100
AcDbCircle
 10
480.3623717218
 20
1612.9387530811
 30
0.0
 40
5.0
100
AcDbArc
 50
180.0
 51
291.5101882669
  0
ARC
  5
2A9
330
1F
100
AcDbEntity
  8
0
  6
Continuous
 62
     7
370
    15
100
AcDbCircle
 10
447.3623717218
 20
1696.6704675029
 30
0.0
 40
95.00000000000006
100
AcDbArc
 50
291.5101882669
 51
68.4898117331
  0
ARC
  5
2AA
330
1F
100
AcDbEntity
  8
0
  6
Continuous
 62
     7
370
    15
100
AcDbCircle
 10
480.3623717218
 20
1780.4021819246
 30
0.0
 40
5.0
100
AcDbArc
 50
68.4898117331
 51
180.0
  0
LINE
  5
2AB
330
1F
100
AcDbEntity
  8
0
  6
Continuous
 62
     7
370
    15
100
AcDbLine
 10
475.362372586
 20
1780.4021784136
 30
0.0
 11
475.362372586
 21
1612.9387565921
 31
0.0
  0
LINE
  5
2AC
330
1F
100
AcDbEntity
  8
0
  6
Continuous
 62
     7
370
    15
100
AcDbLine
 10
551.1717656641
 20
1765.9120657513
 30
0.0
 11
551.755108872
 21
1766.3358920286
 31
0.0
  0
ARC
  5
2AD
330
1F
100
AcDbEntity
  8
0
  6
Continuous
 62
     7
370
    15
100
AcDbCircle
 10
447.3623717218
 20
1696.6704675029
 30
0.0
 40
121.0071543743676
100
AcDbArc
 50
4.1286320091
 51
13.8713679909
  0
LINE
  5
2AE
330
1F
100
AcDbEntity
  8
0
  6
Continuous
 62
     7
370
    15
100
AcDbLine
 10
442.3623718335
 20
1571.9877132247
 30
0.0
 11
442.3623718335
 21
1571.2666609357
 31
0.0
  0
ARC
  5
2AF
330
1F
100
AcDbEntity
  8
0
  6
Continuous
 62
     7
370
    15
100
AcDbCircle
 10
417.3927910969
 20
1575.3089708
 30
0.0
 40
4.000000000000108
100
AcDbArc
 50
76.1286320091
 51
162.0
  0
ARC
  5
2B0
330
1F
100
AcDbEntity
  8
0
  6
Continuous
 62
     7
370
    15
100
AcDbCircle
 10
447.3623717218
 20
1696.6704675029
 30
0.0
 40
121.0071543743676
100
AcDbArc
 50
76.1286320091
 51
85.8713679909
  0
LINE
  5
2B1
330
1F
100
AcDbEntity
  8
0
  6
Continuous
 62
     7
370
    15
100
AcDbLine
 10
545.2939132243
 20
1619.3387010167
 30
0.0
 11
545.8772564321
 21
1618.9148747394
 31
0.0
  0
ARC
  5
2B2
330
1F
100
AcDbEntity
  8
0
  6
Continuous
 62
     7
370
    15
100
AcDbCircle
 10
447.3623717218
 20
1696.6704675029
 30
0.0
 40
121.0071543743676
100
AcDbArc
 50
292.1286320091
 51
301.8713679909
  0
LINE
  5
2B3
330
1F
100
AcDbEntity
  8
0
  6
Continuous
 62
     7
370
    15
100
AcDbLine
 10
369.6067789584
 20
1795.1853522132
 30
0.0
 11
370.0306052356
 21
1794.6020090053
 31
0.0
  0
LINE
  5
2B4
330
1F
100
AcDbEntity
  8
0
  6
Continuous
 62
     7
370
    15
100
AcDbLine
 10
413.365744987
 20
1575.8592733214
 30
0.0
 11
413.5885657757
 21
1576.5450396607
 31
0.0
  0
LINE
  5
2B5
330
1F
100
AcDbEntity
  8
0
  6
Continuous
 62
     7
370
    15
100
AcDbLine
 10
330.3271094351
 20
1739.9548389981
 30
0.0
 11
329.6413430958
 21
1740.1776597867
 31
0.0
  0
ARC
  5
2B6
330
1F
100
AcDbEntity
  8
0
  6
Continuous
 62
     7
370
    15
100
AcDbCircle
 10
572.0451237157
 20
1705.6704675029
 30
0.0
 40
4.0
100
AcDbArc
 50
184.1286320091
 51
270.0
  0
ARC
  5
2B7
330
1F
100
AcDbEntity
  8
0
  6
Continuous
 62
     7
370
    15
100
AcDbCircle
 10
568.7238684246
 20
1726.6400481278
 30
0.0
 40
4.00000000000012
100
AcDbArc
 50
108.0
 51
193.8713679909
  0
LINE
  5
2B8
330
1F
100
AcDbEntity
  8
0
  6
Continuous
 62
     7
370
    15
100
AcDbLine
 10
452.36237161
 20
1571.2666609357
 30
0.0
 11
452.36237161
 21
1571.9877132247
 31
0.0
  0
ARC
  5
2B9
330
1F
100
AcDbEntity
  8
0
  6
Continuous
 62
     7
370
    15
100
AcDbCircle
 10
447.3623717218
 20
1696.6704675029
 30
0.0
 40
121.0071543743676
100
AcDbArc
 50
148.1286320091
 51
157.8713679909
  0
ARC
  5
2BA
330
1F
100
AcDbEntity
  8
0
  6
Continuous
 62
     7
370
    15
100
AcDbCircle
 10
553.5229042609
 20
1762.6759973907
 30
0.0
 40
4.000000000000166
100
AcDbArc
 50
126.0
 51
211.8713679909
  0
ARC
  5
2BB
330
1F
100
AcDbEntity
  8
0
  6
Continuous
 62
     7
370
    15
100
AcDbCircle
 10
494.45096964
 20
1580.8712766988
 30
0.0
 40
3.999999999999993
100
AcDbArc
 50
112.1286320091
 51
198.0
  0
LINE
  5
2BC
330
1F
100
AcDbEntity
  8
0
  6
Continuous
 62
     7
370
    15
100
AcDbLine
 10
329.6413430958
 20
1653.163275219
 30
0.0
 11
330.3271094351
 21
1653.3860960076
 31
0.0
  0
ARC
  5
2BD
330
1F
100
AcDbEntity
  8
0
  6
Continuous
 62
     7
370
    15
100
AcDbCircle
 10
331.5631809177
 20
1649.5818695846
 30
0.0
 40
3.999999999999976
100
AcDbArc
 50
22.1286320091
 51
108.0
  0
LINE
  5
2BE
330
1F
100
AcDbEntity
  8
0
  6
Continuous
 62
     7
370
    15
100
AcDbLine
 10
413.5885657757
 20
1816.795895345
 30
0.0
 11
413.365744987
 21
1817.4816616843
 31
0.0
  0
LINE
  5
2BF
330
1F
100
AcDbEntity
  8
0
  6
Continuous
 62
     7
370
    15
100
AcDbLine
 10
517.0277962475
 20
1801.063204653
 30
0.0
 11
516.6039699703
 21
1800.4798614452
 31
0.0
  0
ARC
  5
2C0
330
1F
100
AcDbEntity
  8
0
  6
Continuous
 62
     7
370
    15
100
AcDbCircle
 10
447.3623717218
 20
1696.6704675029
 30
0.0
 40
121.0071543743675
100
AcDbArc
 50
220.1286320091
 51
229.8713679909
  0
ARC
  5
2C1
330
1F
100
AcDbEntity
  8
0
  6
Continuous
 62
     7
370
    15
100
AcDbCircle
 10
366.7945359351
 20
1601.090069505
 30
0.0
 40
4.00000000000004
100
AcDbArc
 50
324.0
 51
49.8713679909
  0
LINE
  5
2C2
330
1F
100
AcDbEntity
  8
0
  6
Continuous
 62
     7
370
    15
100
AcDbLine
 10
370.0306052356
 20
1598.7389260004
 30
0.0
 11
369.6067789584
 21
1598.1555827925
 31
0.0
  0
ARC
  5
2C3
330
1F
100
AcDbEntity
  8
0
  6
Continuous
 62
     7
370
    15
100
AcDbCircle
 10
456.3623717218
 20
1821.3532194968
 30
0.0
 40
4.000000000000175
100
AcDbArc
 50
180.0
 51
265.8713679909
  0
LINE
  5
2C4
330
1F
100
AcDbEntity
  8
0
  6
Continuous
 62
     7
370
    15
100
AcDbLine
 10
452.36237161
 20
1821.353221781
 30
0.0
 11
452.36237161
 21
1822.07427407
 31
0.0
  0
LINE
  5
2C5
330
1F
100
AcDbEntity
  8
0
  6
Continuous
 62
     7
370
    15
100
AcDbLine
 10
404.0780002265
 20
1579.6352052162
 30
0.0
 11
403.8551794379
 21
1578.9494388769
 31
0.0
  0
LINE
  5
2C6
330
1F
100
AcDbEntity
  8
0
  6
Continuous
 62
     7
370
    15
100
AcDbLine
 10
442.3623718335
 20
1822.07427407
 30
0.0
 11
442.3623718335
 21
1821.353221781
 31
0.0
  0
ARC
  5
2C7
330
1F
100
AcDbEntity
  8
0
  6
Continuous
 62
     7
370
    15
100
AcDbCircle
 10
447.3623717218
 20
1696.6704675029
 30
0.0
 40
121.0071543743676
100
AcDbArc
 50
256.1286320091
 51
265.8713679909
  0
LINE
  5
2C8
330
1F
100
AcDbEntity
  8
0
  6
Continuous
 62
     7
370
    15
100
AcDbLine
 10
567.4877995639
 20
1730.444273449
 30
0.0
 11
568.1735659032
 21
1730.6670942376
 31
0.0
  0
ARC
  5
2C9
330
1F
100
AcDbEntity
  8
0
  6
Continuous
 62
     7
370
    15
100
AcDbCircle
 10
456.3623717218
 20
1571.9877155089
 30
0.0
 40
3.999999999999948
100
AcDbArc
 50
94.1286320091
 51
180.0
  0
LINE
  5
2CA
330
1F
100
AcDbEntity
  8
0
  6
Continuous
 62
     7
370
    15
100
AcDbLine
 10
322.6796174436
 20
1701.6704673911
 30
0.0
 11
321.9585651546
 21
1701.6704673911
 31
0.0
  0
ARC
  5
2CB
330
1F
100
AcDbEntity
  8
0
  6
Continuous
 62
     7
370
    15
100
AcDbCircle
 10
477.3319523467
 20
1575.3089708
 30
0.0
 40
4.000000000000123
100
AcDbArc
 50
18.0
 51
103.8713679909
  0
LINE
  5
2CC
330
1F
100
AcDbEntity
  8
0
  6
Continuous
 62
     7
370
    15
100
AcDbLine
 10
481.1361776679
 20
1576.5450396607
 30
0.0
 11
481.3589984565
 21
1575.8592733214
 31
0.0
  0
ARC
  5
2CD
330
1F
100
AcDbEntity
  8
0
  6
Continuous
 62
     7
370
    15
100
AcDbCircle
 10
542.9427697197
 20
1777.2383032895
 30
0.0
 40
3.999999999999976
100
AcDbArc
 50
220.1286320091
 51
306.0
  0
LINE
  5
2CE
330
1F
100
AcDbEntity
  8
0
  6
Continuous
 62
     7
370
    15
100
AcDbLine
 10
490.646743217
 20
1813.7057297895
 30
0.0
 11
490.8695640056
 21
1814.3914961288
 31
0.0
  0
ARC
  5
2CF
330
1F
100
AcDbEntity
  8
0
  6
Continuous
 62
     7
370
    15
100
AcDbCircle
 10
366.7945359351
 20
1792.2508655007
 30
0.0
 40
3.999999999999915
100
AcDbArc
 50
310.1286320091
 51
36.0
  0
ARC
  5
2D0
330
1F
100
AcDbEntity
  8
0
  6
Continuous
 62
     7
370
    15
100
AcDbCircle
 10
477.3319523467
 20
1818.0319642057
 30
0.0
 40
3.999999999999923
100
AcDbArc
 50
256.1286320091
 51
342.0
  0
ARC
  5
2D1
330
1F
100
AcDbEntity
  8
0
  6
Continuous
 62
     7
370
    15
100
AcDbCircle
 10
351.7819737239
 20
1777.2383032895
 30
0.0
 40
3.999999999999873
100
AcDbArc
 50
234.0
 51
319.8713679909
  0
LINE
  5
2D2
330
1F
100
AcDbEntity
  8
0
  6
Continuous
 62
     7
370
    15
100
AcDbLine
 10
568.1735659032
 20
1662.6738407681
 30
0.0
 11
567.4877995639
 21
1662.8966615567
 31
0.0
  0
ARC
  5
2D3
330
1F
100
AcDbEntity
  8
0
  6
Continuous
 62
     7
370
    15
100
AcDbCircle
 10
572.0451237157
 20
1687.6704675029
 30
0.0
 40
4.000000000000061
100
AcDbArc
 50
90.0
 51
175.8713679909
  0
ARC
  5
2D4
330
1F
100
AcDbEntity
  8
0
  6
Continuous
 62
     7
370
    15
100
AcDbCircle
 10
341.2018391826
 20
1762.6759973907
 30
0.0
 40
4.000000000000099
100
AcDbArc
 50
328.1286320091
 51
54.0
  0
ARC
  5
2D5
330
1F
100
AcDbEntity
  8
0
  6
Continuous
 62
     7
370
    15
100
AcDbCircle
 10
331.5631809177
 20
1743.7590654211
 30
0.0
 40
3.999999999999976
100
AcDbArc
 50
252.0
 51
337.8713679909
  0
ARC
  5
2D6
330
1F
100
AcDbEntity
  8
0
  6
Continuous
 62
     7
370
    15
100
AcDbCircle
 10
341.2018391826
 20
1630.664937615
 30
0.0
 40
4.000000000000005
100
AcDbArc
 50
306.0
 51
31.8713679909
  0
LINE
  5
2D7
330
1F
100
AcDbEntity
  8
0
  6
Continuous
 62
     7
370
    15
100
AcDbLine
 10
326.5511775403
 20
1730.6670942376
 30
0.0
 11
327.2369438796
 21
1730.444273449
 31
0.0
  0
ARC
  5
2D8
330
1F
100
AcDbEntity
  8
0
  6
Continuous
 62
     7
370
    15
100
AcDbCircle
 10
326.000875019
 20
1726.6400481278
 30
0.0
 40
3.999999999999902
100
AcDbArc
 50
346.1286320091
 51
72.0
  0
LINE
  5
2D9
330
1F
100
AcDbEntity
  8
0
  6
Continuous
 62
     7
370
    15
100
AcDbLine
 10
565.0834003477
 20
1740.1776597867
 30
0.0
 11
564.3976340084
 21
1739.9548389981
 31
0.0
  0
ARC
  5
2DA
330
1F
100
AcDbEntity
  8
0
  6
Continuous
 62
     7
370
    15
100
AcDbCircle
 10
447.3623717218
 20
1696.6704675029
 30
0.0
 40
121.0071543743676
100
AcDbArc
 50
22.1286320091
 51
31.8713679909
  0
ARC
  5
2DB
330
1F
100
AcDbEntity
  8
0
  6
Continuous
 62
     7
370
    15
100
AcDbCircle
 10
322.6796197279
 20
1687.6704675029
 30
0.0
 40
4.0
100
AcDbArc
 50
4.1286320091
 51
90.0
  0
LINE
  5
2DC
330
1F
100
AcDbEntity
  8
0
  6
Continuous
 62
     7
370
    15
100
AcDbLine
 10
545.8772564321
 20
1774.4260602663
 30
0.0
 11
545.2939132243
 21
1774.002233989
 31
0.0
  0
ARC
  5
2DD
330
1F
100
AcDbEntity
  8
0
  6
Continuous
 62
     7
370
    15
100
AcDbCircle
 10
447.3623717218
 20
1696.6704675029
 30
0.0
 40
121.0071543743675
100
AcDbArc
 50
202.1286320091
 51
211.8713679909
  0
LINE
  5
2DE
330
1F
100
AcDbEntity
  8
0
  6
Continuous
 62
     7
370
    15
100
AcDbLine
 10
525.1179644852
 20
1598.1555827925
 30
0.0
 11
524.6941382079
 21
1598.7389260004
 31
0.0
  0
ARC
  5
2DF
330
1F
100
AcDbEntity
  8
0
  6
Continuous
 62
     7
370
    15
100
AcDbCircle
 10
513.3679016097
 20
1802.831000042
 30
0.0
 40
3.999999999999915
100
AcDbArc
 50
238.1286320091
 51
324.0
  0
ARC
  5
2E0
330
1F
100
AcDbEntity
  8
0
  6
Continuous
 62
     7
370
    15
100
AcDbCircle
 10
494.45096964
 20
1812.4696583069
 30
0.0
 40
3.999999999999976
100
AcDbArc
 50
162.0
 51
247.8713679909
  0
ARC
  5
2E1
330
1F
100
AcDbEntity
  8
0
  6
Continuous
 62
     7
370
    15
100
AcDbCircle
 10
351.7819737239
 20
1616.1026317162
 30
0.0
 40
4.00000000000002
100
AcDbArc
 50
40.1286320091
 51
126.0
  0
LINE
  5
2E2
330
1F
100
AcDbEntity
  8
0
  6
Continuous
 62
     7
370
    15
100
AcDbLine
 10
551.755108872
 20
1627.0050429771
 30
0.0
 11
551.1717656641
 21
1627.4288692544
 31
0.0
  0
LINE
  5
2E3
330
1F
100
AcDbEntity
  8
0
  6
Continuous
 62
     7
370
    15
100
AcDbLine
 10
377.696947196
 20
1592.2777303527
 30
0.0
 11
378.1207734733
 21
1592.8610735605
 31
0.0
  0
LINE
  5
2E4
330
1F
100
AcDbEntity
  8
0
  6
Continuous
 62
     7
370
    15
100
AcDbLine
 10
572.045126
 20
1691.6704676146
 30
0.0
 11
572.766178289
 21
1691.6704676146
 31
0.0
  0
LINE
  5
2E5
330
1F
100
AcDbEntity
  8
0
  6
Continuous
 62
     7
370
    15
100
AcDbLine
 10
524.6941382079
 20
1794.6020090053
 30
0.0
 11
525.1179644852
 21
1795.1853522132
 31
0.0
  0
LINE
  5
2E6
330
1F
100
AcDbEntity
  8
0
  6
Continuous
 62
     7
370
    15
100
AcDbLine
 10
572.766178289
 20
1701.6704673911
 30
0.0
 11
572.045126
 21
1701.6704673911
 31
0.0
  0
ARC
  5
2E7
330
1F
100
AcDbEntity
  8
0
  6
Continuous
 62
     7
370
    15
100
AcDbCircle
 10
438.3623717218
 20
1571.9877155089
 30
0.0
 40
4.0
100
AcDbArc
 50
0.0
 51
85.8713679909
  0
ARC
  5
2E8
330
1F
100
AcDbEntity
  8
0
  6
Continuous
 62
     7
370
    15
100
AcDbCircle
 10
400.2737738036
 20
1812.4696583069
 30
0.0
 40
3.999999999999998
100
AcDbArc
 50
292.1286320091
 51
18.0
  0
ARC
  5
2E9
330
1F
100
AcDbEntity
  8
0
  6
Continuous
 62
     7
370
    15
100
AcDbCircle
 10
322.6796197279
 20
1705.6704675029
 30
0.0
 40
4.0
100
AcDbArc
 50
270.0
 51
355.8713679909
  0
ARC
  5
2EA
330
1F
100
AcDbEntity
  8
0
  6
Continuous
 62
     7
370
    15
100
AcDbCircle
 10
447.3623717218
 20
1696.6704675029
 30
0.0
 40
121.0071543743676
100
AcDbArc
 50
274.1286320091
 51
283.8713679909
  0
ARC
  5
2EB
330
1F
100
AcDbEntity
  8
0
  6
Continuous
 62
     7
370
    15
100
AcDbCircle
 10
563.1615625258
 20
1743.7590654211
 30
0.0
 40
4.000000000000085
100
AcDbArc
 50
202.1286320091
 51
288.0
  0
LINE
  5
2EC
330
1F
100
AcDbEntity
  8
0
  6
Continuous
 62
     7
370
    15
100
AcDbLine
 10
321.9585651546
 20
1691.6704676146
 30
0.0
 11
322.6796174436
 21
1691.6704676146
 31
0.0
  0
LINE
  5
2ED
330
1F
100
AcDbEntity
  8
0
  6
Continuous
 62
     7
370
    15
100
AcDbLine
 10
490.8695640056
 20
1578.9494388769
 30
0.0
 11
490.646743217
 21
1579.6352052162
 31
0.0
  0
ARC
  5
2EE
330
1F
100
AcDbEntity
  8
0
  6
Continuous
 62
     7
370
    15
100
AcDbCircle
 10
513.3679016097
 20
1590.5099349637
 30
0.0
 40
3.999999999999915
100
AcDbArc
 50
36.0
 51
121.8713679909
  0
LINE
  5
2EF
330
1F
100
AcDbEntity
  8
0
  6
Continuous
 62
     7
370
    15
100
AcDbLine
 10
516.6039699703
 20
1592.8610735605
 30
0.0
 11
517.0277962475
 21
1592.2777303527
 31
0.0
  0
ARC
  5
2F0
330
1F
100
AcDbEntity
  8
0
  6
Continuous
 62
     7
370
    15
100
AcDbCircle
 10
527.9302075084
 20
1792.2508655007
 30
0.0
 40
3.999999999999915
100
AcDbArc
 50
144.0
 51
229.8713679909
  0
ARC
  5
2F1
330
1F
100
AcDbEntity
  8
0
  6
Continuous
 62
     7
370
    15
100
AcDbCircle
 10
542.9427697197
 20
1616.1026317162
 30
0.0
 40
3.999999999999976
100
AcDbArc
 50
54.0
 51
139.8713679909
  0
ARC
  5
2F2
330
1F
100
AcDbEntity
  8
0
  6
Continuous
 62
     7
370
    15
100
AcDbCircle
 10
447.3623717218
 20
1696.6704675029
 30
0.0
 40
121.0071543743677
100
AcDbArc
 50
58.1286320091
 51
67.8713679909
  0
LINE
  5
2F3
330
1F
100
AcDbEntity
  8
0
  6
Continuous
 62
     7
370
    15
100
AcDbLine
 10
348.8474870115
 20
1618.9148747394
 30
0.0
 11
349.4308302193
 21
1619.3387010167
 31
0.0
  0
ARC
  5
2F4
330
1F
100
AcDbEntity
  8
0
  6
Continuous
 62
     7
370
    15
100
AcDbCircle
 10
553.5229042609
 20
1630.664937615
 30
0.0
 40
4.000000000000101
100
AcDbArc
 50
148.1286320091
 51
234.0
  0
ARC
  5
2F5
330
1F
100
AcDbEntity
  8
0
  6
Continuous
 62
     7
370
    15
100
AcDbCircle
 10
447.3623717218
 20
1696.6704675029
 30
0.0
 40
121.0071543743677
100
AcDbArc
 50
130.1286320091
 51
139.8713679909
  0
ARC
  5
2F6
330
1F
100
AcDbEntity
  8
0
  6
Continuous
 62
     7
370
    15
100
AcDbCircle
 10
568.7238684246
 20
1666.700886878
 30
0.0
 40
4.000000000000123
100
AcDbArc
 50
166.1286320091
 51
252.0
  0
ARC
  5
2F7
330
1F
100
AcDbEntity
  8
0
  6
Continuous
 62
     7
370
    15
100
AcDbCircle
 10
447.3623717218
 20
1696.6704675029
 30
0.0
 40
121.0071543743675
100
AcDbArc
 50
346.1286320091
 51
355.8713679909
  0
LINE
  5
2F8
330
1F
100
AcDbEntity
  8
0
  6
Continuous
 62
     7
370
    15
100
AcDbLine
 10
342.9696345716
 20
1766.3358920286
 30
0.0
 11
343.5529777794
 21
1765.9120657513
 31
0.0
  0
LINE
  5
2F9
330
1F
100
AcDbEntity
  8
0
  6
Continuous
 62
     7
370
    15
100
AcDbLine
 10
481.3589984565
 20
1817.4816616843
 30
0.0
 11
481.1361776679
 21
1816.795895345
 31
0.0
  0
LINE
  5
2FA
330
1F
100
AcDbEntity
  8
0
  6
Continuous
 62
     7
370
    15
100
AcDbLine
 10
343.5529777794
 20
1627.4288692544
 30
0.0
 11
342.9696345716
 21
1627.0050429771
 31
0.0
  0
LINE
  5
2FB
330
1F
100
AcDbEntity
  8
0
  6
Continuous
 62
     7
370
    15
100
AcDbLine
 10
403.8551794379
 20
1814.3914961288
 30
0.0
 11
404.0780002265
 21
1813.7057297895
 31
0.0
  0
ARC
  5
2FC
330
1F
100
AcDbEntity
  8
0
  6
Continuous
 62
     7
370
    15
100
AcDbCircle
 10
447.3623717218
 20
1696.6704675029
 30
0.0
 40
121.0071543743677
100
AcDbArc
 50
112.1286320091
 51
121.8713679909
  0
ARC
  5
2FD
330
1F
100
AcDbEntity
  8
0
  6
Continuous
 62
     7
370
    15
100
AcDbCircle
 10
447.3623717218
 20
1696.6704675029
 30
0.0
 40
121.0071543743676
100
AcDbArc
 50
166.1286320091
 51
175.8713679909
  0
ARC
  5
2FE
330
1F
100
AcDbEntity
  8
0
  6
Continuous
 62
     7
370
    15
100
AcDbCircle
 10
447.3623717218
 20
1696.6704675029
 30
0.0
 40
121.0071543743676
100
AcDbArc
 50
184.1286320091
 51
193.8713679909
  0
ARC
  5
2FF
330
1F
100
AcDbEntity
  8
0
  6
Continuous
 62
     7
370
    15
100
AcDbCircle
 10
447.3623717218
 20
1696.6704675029
 30
0.0
 40
121.0071543743676
100
AcDbArc
 50
40.1286320091
 51
49.8713679909
  0
ARC
  5
300
330
1F
100
AcDbEntity
  8
0
  6
Continuous
 62
     7
370
    15
100
AcDbCircle
 10
417.3927910969
 20
1818.0319642057
 30
0.0
 40
3.999999999999977
100
AcDbArc
 50
198.0
 51
283.8713679909
  0
ARC
  5
301
330
1F
100
AcDbEntity
  8
0
  6
Continuous
 62
     7
370
    15
100
AcDbCircle
 10
447.3623717218
 20
1696.6704675029
 30
0.0
 40
121.0071543743676
100
AcDbArc
 50
328.1286320091
 51
337.8713679909
  0
ARC
  5
302
330
1F
100
AcDbEntity
  8
0
  6
Continuous
 62
     7
370
    15
100
AcDbCircle
 10
527.9302075084
 20
1601.090069505
 30
0.0
 40
4.000000000000076
100
AcDbArc
 50
130.1286320091
 51
216.0
  0
ARC
  5
303
330
1F
100
AcDbEntity
  8
0
  6
Continuous
 62
     7
370
    15
100
AcDbCircle
 10
447.3623717218
 20
1696.6704675029
 30
0.0
 40
121.0071543743676
100
AcDbArc
 50
310.1286320091
 51
319.8713679909
  0
ARC
  5
304
330
1F
100
AcDbEntity
  8
0
  6
Continuous
 62
     7
370
    15
100
AcDbCircle
 10
381.3568418339
 20
1590.5099349637
 30
0.0
 40
4.000000000000101
100
AcDbArc
 50
58.1286320091
 51
144.0
  0
LINE
  5
305
330
1F
100
AcDbEntity
  8
0
  6
Continuous
 62
     7
370
    15
100
AcDbLine
 10
378.1207734733
 20
1800.4798614452
 30
0.0
 11
377.696947196
 21
1801.063204653
 31
0.0
  0
ARC
  5
306
330
1F
100
AcDbEntity
  8
0
  6
Continuous
 62
     7
370
    15
100
AcDbCircle
 10
447.3623717218
 20
1696.6704675029
 30
0.0
 40
121.0071543743676
100
AcDbArc
 50
94.1286320091
 51
103.8713679909
  0
ARC
  5
307
330
1F
100
AcDbEntity
  8
0
  6
Continuous
 62
     7
370
    15
100
AcDbCircle
 10
563.1615625258
 20
1649.5818695846
 30
0.0
 40
3.999999999999976
100
AcDbArc
 50
72.0
 51
157.8713679909
  0
LINE
  5
308
330
1F
100
AcDbEntity
  8
0
  6
Continuous
 62
     7
370
    15
100
AcDbLine
 10
564.3976340084
 20
1653.3860960076
 30
0.0
 11
565.0834003477
 21
1653.163275219
 31
0.0
  0
ARC
  5
309
330
1F
100
AcDbEntity
  8
0
  6
Continuous
 62
     7
370
    15
100
AcDbCircle
 10
438.3623717218
 20
1821.3532194968
 30
0.0
 40
4.000000000000175
100
AcDbArc
 50
274.1286320091
 51
0.0
  0
ARC
  5
30A
330
1F
100
AcDbEntity
  8
0
  6
Continuous
 62
     7
370
    15
100
AcDbCircle
 10
400.2737738036
 20
1580.8712766988
 30
0.0
 40
4.000000000000047
100
AcDbArc
 50
342.0
 51
67.8713679909
  0
ARC
  5
30B
330
1F
100
AcDbEntity
  8
0
  6
Continuous
 62
     7
370
    15
100
AcDbCircle
 10
381.3568418339
 20
1802.831000042
 30
0.0
 40
3.999999999999961
100
AcDbArc
 50
216.0
 51
301.8713679909
  0
LINE
  5
30C
330
1F
100
AcDbEntity
  8
0
  6
Continuous
 62
     7
370
    15
100
AcDbLine
 10
349.4308302193
 20
1774.002233989
 30
0.0
 11
348.8474870115
 21
1774.4260602663
 31
0.0
  0
ARC
  5
30D
330
1F
100
AcDbEntity
  8
0
  6
Continuous
 62
     7
370
    15
100
AcDbCircle
 10
326.000875019
 20
1666.700886878
 30
0.0
 40
3.999999999999956
100
AcDbArc
 50
288.0
 51
13.8713679909
  0
LINE
  5
30E
330
1F
100
AcDbEntity
  8
0
  6
Continuous
 62
     7
370
    15
100
AcDbLine
 10
327.2369438796
 20
1662.8966615567
 30
0.0
 11
326.5511775403
 21
1662.6738407681
 31
0.0
  0
ARC
  5
30F
330
1F
100
AcDbEntity
  8
0
  6
Continuous
 62
     7
370
    15
100
AcDbCircle
 10
447.3623717218
 20
1696.6704675029
 30
0.0
 40
121.0071543743677
100
AcDbArc
 50
238.1286320091
 51
247.8713679909
  0
LINE
  5
310
330
1F
100
AcDbEntity
  8
0
  6
Continuous
 62
     7
370
    15
100
AcDbLine
 10
449.8623716659
 20
1688.6704671229
 30
0.0
 11
444.8623717777
 21
1688.6704671229
 31
0.0
  0
CIRCLE
  5
311
330
1F
100
AcDbEntity
  8
0
  6
Continuous
 62
     7
370
    15
100
AcDbCircle
 10
447.3623717218
 20
1696.6704675029
 30
0.0
 40
3.0
  0
LINE
  5
312
330
1F
100
AcDbEntity
  8
0
  6
Continuous
 62
     7
370
    15
100
AcDbLine
 10
447.3623717218
 20
1672.8704669545
 30
0.0
 11
447.8616555585
 21
1672.6759546468
 31
0.0
  0
LINE
  5
313
330
1F
100
AcDbEntity
  8
0
  6
Continuous
 62
     7
370
    15
100
AcDbLine
 10
447.3623717218
 20
1672.8704669545
 30
0.0
 11
446.8630878851
 21
1672.6759546468
 31
0.0
  0
LINE
  5
314
330
1F
100
AcDbEntity
  8
0
  6
Continuous
 62
     7
370
    15
100
AcDbLine
 10
439.5852442845
 20
1674.17699518
 30
0.0
 11
439.9935589186
 21
1673.8300104658
 31
0.0
  0
LINE
  5
315
330
1F
100
AcDbEntity
  8
0
  6
Continuous
 62
     7
370
    15
100
AcDbLine
 10
439.5852442845
 20
1674.17699518
 30
0.0
 11
439.0498083099
 21
1674.1563123683
 31
0.0
  0
LINE
  5
316
330
1F
100
AcDbEntity
  8
0
  6
Continuous
 62
     7
370
    15
100
AcDbLine
 10
437.7423906713
 20
1674.9013164113
 30
0.0
 11
437.2070888071
 21
1674.9252122859
 31
0.0
  0
LINE
  5
317
330
1F
100
AcDbEntity
  8
0
  6
Continuous
 62
     7
370
    15
100
AcDbLine
 10
435.9661238282
 20
1675.7763163219
 30
0.0
 11
436.3113092273
 21
1675.3664785097
 31
0.0
  0
LINE
  5
318
330
1F
100
AcDbEntity
  8
0
  6
Continuous
 62
     7
370
    15
100
AcDbLine
 10
435.9661238282
 20
1675.7763163219
 30
0.0
 11
435.4346608757
 21
1675.8446269701
 31
0.0
  0
LINE
  5
319
330
1F
100
AcDbEntity
  8
0
  6
Continuous
 62
     7
370
    15
100
AcDbLine
 10
432.6619850486
 20
1677.9531319658
 30
0.0
 11
432.9345002784
 21
1677.4917696635
 31
0.0
  0
LINE
  5
31A
330
1F
100
AcDbEntity
  8
0
  6
Continuous
 62
     7
370
    15
100
AcDbLine
 10
432.6619850486
 20
1677.9531319658
 30
0.0
 11
432.1491839378
 21
1678.1085492144
 31
0.0
  0
LINE
  5
31B
330
1F
100
AcDbEntity
  8
0
  6
Continuous
 62
     7
370
    15
100
AcDbLine
 10
429.7641506433
 20
1680.6472768108
 30
0.0
 11
429.9564650296
 21
1680.1471416871
 31
0.0
  0
LINE
  5
31C
330
1F
100
AcDbEntity
  8
0
  6
Continuous
 62
     7
370
    15
100
AcDbLine
 10
429.7641506433
 20
1680.6472768108
 30
0.0
 11
429.2841861039
 21
1680.8855035374
 31
0.0
  0
LINE
  5
31D
330
1F
100
AcDbEntity
  8
0
  6
Continuous
 62
     7
370
    15
100
AcDbLine
 10
428.4931300222
 20
1682.1655822019
 30
0.0
 11
428.0346268802
 21
1682.4428825671
 31
0.0
  0
LINE
  5
31E
330
1F
100
AcDbEntity
  8
0
  6
Continuous
 62
     7
370
    15
100
AcDbLine
 10
427.3527143537
 20
1683.7842869604
 30
0.0
 11
427.459510976
 21
1683.2592026363
 31
0.0
  0
LINE
  5
31F
330
1F
100
AcDbEntity
  8
0
  6
Continuous
 62
     7
370
    15
100
AcDbLine
 10
427.3527143537
 20
1683.7842869604
 30
0.0
 11
426.9188502817
 21
1684.0987405772
 31
0.0
  0
LINE
  5
320
330
1F
100
AcDbEntity
  8
0
  6
Continuous
 62
     7
370
    15
100
AcDbLine
 10
425.4943272113
 20
1687.277459077
 30
0.0
 11
425.1185553162
 21
1687.6594475503
 31
0.0
  0
LINE
  5
321
330
1F
100
AcDbEntity
  8
0
  6
Continuous
 62
     7
370
    15
100
AcDbLine
 10
424.7892154395
 20
1689.127747904
 30
0.0
 11
424.4464961826
 21
1689.539649527
 31
0.0
  0
LINE
  5
322
330
1F
100
AcDbEntity
  8
0
  6
Continuous
 62
     7
370
    15
100
AcDbLine
 10
424.2403497933
 20
1691.0302452775
 30
0.0
 11
424.1697015255
 21
1690.4990877988
 31
0.0
  0
LINE
  5
323
330
1F
100
AcDbEntity
  8
0
  6
Continuous
 62
     7
370
    15
100
AcDbLine
 10
424.2403497933
 20
1691.0302452775
 30
0.0
 11
423.9330561846
 21
1691.4692102032
 31
0.0
  0
LINE
  5
324
330
1F
100
AcDbEntity
  8
0
  6
Continuous
 62
     7
370
    15
100
AcDbLine
 10
424.0257395445
 20
1691.9969688202
 30
0.0
 11
423.9330561846
 21
1691.4692102032
 31
0.0
  0
LINE
  5
325
330
1F
100
AcDbEntity
  8
0
  6
Continuous
 62
     7
370
    15
100
AcDbLine
 10
424.0257395445
 20
1691.9969688202
 30
0.0
 11
423.7369718044
 21
1692.4483361686
 31
0.0
  0
LINE
  5
326
330
1F
100
AcDbEntity
  8
0
  6
Continuous
 62
     7
370
    15
100
AcDbLine
 10
423.8515282064
 20
1692.971782762
 30
0.0
 11
423.7369718044
 21
1692.4483361686
 31
0.0
  0
LINE
  5
327
330
1F
100
AcDbEntity
  8
0
  6
Continuous
 62
     7
370
    15
100
AcDbLine
 10
423.8515282064
 20
1692.971782762
 30
0.0
 11
423.5817873865
 21
1693.4347720849
 31
0.0
  0
LINE
  5
328
330
1F
100
AcDbEntity
  8
0
  6
Continuous
 62
     7
370
    15
100
AcDbLine
 10
423.71801939
 20
1693.9529997794
 30
0.0
 11
423.5817873865
 21
1693.4347720849
 31
0.0
  0
LINE
  5
329
330
1F
100
AcDbEntity
  8
0
  6
Continuous
 62
     7
370
    15
100
AcDbLine
 10
423.71801939
 20
1693.9529997794
 30
0.0
 11
423.4677711516
 21
1694.426809208
 31
0.0
  0
LINE
  5
32A
330
1F
100
AcDbEntity
  8
0
  6
Continuous
 62
     7
370
    15
100
AcDbLine
 10
423.6254440635
 20
1694.9389214892
 30
0.0
 11
423.4677711516
 21
1694.426809208
 31
0.0
  0
LINE
  5
32B
330
1F
100
AcDbEntity
  8
0
  6
Continuous
 62
     7
370
    15
100
AcDbLine
 10
423.6666029333
 20
1698.8954558069
 30
0.0
 11
423.4262676924
 21
1698.4165429635
 31
0.0
  0
LINE
  5
32C
330
1F
100
AcDbEntity
  8
0
  6
Continuous
 62
     7
370
    15
100
AcDbLine
 10
423.6666029333
 20
1698.8954558069
 30
0.0
 11
423.519619742
 21
1699.4107374954
 31
0.0
  0
LINE
  5
32D
330
1F
100
AcDbEntity
  8
0
  6
Continuous
 62
     7
370
    15
100
AcDbLine
 10
425.30365009
 20
1705.6065057436
 30
0.0
 11
425.3108305871
 21
1706.1422928269
 31
0.0
  0
LINE
  5
32E
330
1F
100
AcDbEntity
  8
0
  6
Continuous
 62
     7
370
    15
100
AcDbLine
 10
425.6944684326
 20
1706.5163799594
 30
0.0
 11
425.3108305871
 21
1706.1422928269
 31
0.0
  0
LINE
  5
32F
330
1F
100
AcDbEntity
  8
0
  6
Continuous
 62
     7
370
    15
100
AcDbLine
 10
426.5878992169
 20
1708.2834481294
 30
0.0
 11
426.6617363333
 21
1708.8141725431
 31
0.0
  0
LINE
  5
330
330
1F
100
AcDbEntity
  8
0
  6
Continuous
 62
     7
370
    15
100
AcDbLine
 10
427.6251262068
 20
1709.9701347793
 30
0.0
 11
427.1848136573
 21
1709.6647755275
 31
0.0
  0
LINE
  5
331
330
1F
100
AcDbEntity
  8
0
  6
Continuous
 62
     7
370
    15
100
AcDbLine
 10
427.6251262068
 20
1709.9701347793
 30
0.0
 11
427.7428230285
 21
1710.4928842778
 31
0.0
  0
LINE
  5
332
330
1F
100
AcDbEntity
  8
0
  6
Continuous
 62
     7
370
    15
100
AcDbLine
 10
432.2757758214
 20
1715.0779296676
 30
0.0
 11
432.5386341675
 21
1715.5448612789
 31
0.0
  0
LINE
  5
333
330
1F
100
AcDbEntity
  8
0
  6
Continuous
 62
     7
370
    15
100
AcDbLine
 10
433.0545580029
 20
1715.6895757685
 30
0.0
 11
432.5386341675
 21
1715.5448612789
 31
0.0
  0
LINE
  5
334
330
1F
100
AcDbEntity
  8
0
  6
Continuous
 62
     7
370
    15
100
AcDbLine
 10
435.5339137851
 20
1717.3230112562
 30
0.0
 11
435.8704984202
 21
1717.7399420212
 31
0.0
  0
LINE
  5
335
330
1F
100
AcDbEntity
  8
0
  6
Continuous
 62
     7
370
    15
100
AcDbLine
 10
436.403267087
 20
1717.7971811066
 30
0.0
 11
435.8704984202
 21
1717.7399420212
 31
0.0
  0
LINE
  5
336
330
1F
100
AcDbEntity
  8
0
  6
Continuous
 62
     7
370
    15
100
AcDbLine
 10
436.403267087
 20
1717.7971811066
 30
0.0
 11
436.7569042384
 21
1718.1997490148
 31
0.0
  0
LINE
  5
337
330
1F
100
AcDbEntity
  8
0
  6
Continuous
 62
     7
370
    15
100
AcDbLine
 10
442.9318835042
 20
1720.0544537077
 30
0.0
 11
443.3862306192
 21
1720.3385089556
 31
0.0
  0
LINE
  5
338
330
1F
100
AcDbEntity
  8
0
  6
Continuous
 62
     7
370
    15
100
AcDbLine
 10
443.90845718
 20
1720.2185136298
 30
0.0
 11
443.3862306192
 21
1720.3385089556
 31
0.0
  0
LINE
  5
339
330
1F
100
AcDbEntity
  8
0
  6
Continuous
 62
     7
370
    15
100
AcDbLine
 10
454.669867178
 20
1719.3208658169
 30
0.0
 11
455.2047569319
 21
1719.3526835213
 31
0.0
  0
LINE
  5
33A
330
1F
100
AcDbEntity
  8
0
  6
Continuous
 62
     7
370
    15
100
AcDbLine
 10
455.6057639434
 20
1718.9972777883
 30
0.0
 11
455.2047569319
 21
1719.3526835213
 31
0.0
  0
LINE
  5
33B
330
1F
100
AcDbEntity
  8
0
  6
Continuous
 62
     7
370
    15
100
AcDbLine
 10
455.6057639434
 20
1718.9972777883
 30
0.0
 11
456.141514705
 21
1719.0068182568
 31
0.0
  0
LINE
  5
33C
330
1F
100
AcDbEntity
  8
0
  6
Continuous
 62
     7
370
    15
100
AcDbLine
 10
457.4331501513
 20
1718.2347760568
 30
0.0
 11
457.9678392052
 21
1718.1997490148
 31
0.0
  0
LINE
  5
33D
330
1F
100
AcDbEntity
  8
0
  6
Continuous
 62
     7
370
    15
100
AcDbLine
 10
458.3214763566
 20
1717.7971811066
 30
0.0
 11
457.9678392052
 21
1718.1997490148
 31
0.0
  0
LINE
  5
33E
330
1F
100
AcDbEntity
  8
0
  6
Continuous
 62
     7
370
    15
100
AcDbLine
 10
459.1908296584
 20
1717.3230112562
 30
0.0
 11
459.7207559287
 21
1717.2436588476
 31
0.0
  0
LINE
  5
33F
330
1F
100
AcDbEntity
  8
0
  6
Continuous
 62
     7
370
    15
100
AcDbLine
 10
462.4489676221
 20
1715.0779296676
 30
0.0
 11
462.9584243535
 21
1714.9118785778
 31
0.0
  0
LINE
  5
340
330
1F
100
AcDbEntity
  8
0
  6
Continuous
 62
     7
370
    15
100
AcDbLine
 10
463.9268750339
 20
1713.7601510654
 30
0.0
 11
464.4207647084
 21
1713.5523245702
 31
0.0
  0
LINE
  5
341
330
1F
100
AcDbEntity
  8
0
  6
Continuous
 62
     7
370
    15
100
AcDbLine
 10
464.6234409898
 20
1713.0562984417
 30
0.0
 11
465.1082595824
 21
1712.8281095097
 31
0.0
  0
LINE
  5
342
330
1F
100
AcDbEntity
  8
0
  6
Continuous
 62
     7
370
    15
100
AcDbLine
 10
465.2901263922
 20
1712.3240814576
 30
0.0
 11
465.1082595824
 21
1712.8281095097
 31
0.0
  0
LINE
  5
343
330
1F
100
AcDbEntity
  8
0
  6
Continuous
 62
     7
370
    15
100
AcDbLine
 10
465.2901263922
 20
1712.3240814576
 30
0.0
 11
465.7650319873
 21
1712.0759212444
 31
0.0
  0
LINE
  5
344
330
1F
100
AcDbEntity
  8
0
  6
Continuous
 62
     7
370
    15
100
AcDbLine
 10
466.5292864679
 20
1710.7796627129
 30
0.0
 11
466.9819204151
 21
1710.4928842778
 31
0.0
  0
LINE
  5
345
330
1F
100
AcDbEntity
  8
0
  6
Continuous
 62
     7
370
    15
100
AcDbLine
 10
467.0996172368
 20
1709.9701347793
 30
0.0
 11
466.9819204151
 21
1710.4928842778
 31
0.0
  0
LINE
  5
346
330
1F
100
AcDbEntity
  8
0
  6
Continuous
 62
     7
370
    15
100
AcDbLine
 10
467.0996172368
 20
1709.9701347793
 30
0.0
 11
467.5399297862
 21
1709.6647755275
 31
0.0
  0
LINE
  5
347
330
1F
100
AcDbEntity
  8
0
  6
Continuous
 62
     7
370
    15
100
AcDbLine
 10
467.635779643
 20
1709.137582689
 30
0.0
 11
467.5399297862
 21
1709.6647755275
 31
0.0
  0
LINE
  5
348
330
1F
100
AcDbEntity
  8
0
  6
Continuous
 62
     7
370
    15
100
AcDbLine
 10
467.635779643
 20
1709.137582689
 30
0.0
 11
468.0630071103
 21
1708.8141725431
 31
0.0
  0
LINE
  5
349
330
1F
100
AcDbEntity
  8
0
  6
Continuous
 62
     7
370
    15
100
AcDbLine
 10
468.6019429951
 20
1707.4092100406
 30
0.0
 11
469.0008098274
 21
1707.0514042894
 31
0.0
  0
LINE
  5
34A
330
1F
100
AcDbEntity
  8
0
  6
Continuous
 62
     7
370
    15
100
AcDbLine
 10
469.030275011
 20
1706.5163799594
 30
0.0
 11
469.0008098274
 21
1707.0514042894
 31
0.0
  0
LINE
  5
34B
330
1F
100
AcDbEntity
  8
0
  6
Continuous
 62
     7
370
    15
100
AcDbLine
 10
469.030275011
 20
1706.5163799594
 30
0.0
 11
469.4139128565
 21
1706.1422928269
 31
0.0
  0
LINE
  5
34C
330
1F
100
AcDbEntity
  8
0
  6
Continuous
 62
     7
370
    15
100
AcDbLine
 10
469.4210933535
 20
1705.6065057436
 30
0.0
 11
469.4139128565
 21
1706.1422928269
 31
0.0
  0
LINE
  5
34D
330
1F
100
AcDbEntity
  8
0
  6
Continuous
 62
     7
370
    15
100
AcDbLine
 10
469.4210933535
 20
1705.6065057436
 30
0.0
 11
469.788837248
 21
1705.2167826364
 31
0.0
  0
LINE
  5
34E
330
1F
100
AcDbEntity
  8
0
  6
Continuous
 62
     7
370
    15
100
AcDbLine
 10
470.0875589638
 20
1703.7419485892
 30
0.0
 11
470.4216355472
 21
1703.3230057018
 31
0.0
  0
LINE
  5
34F
330
1F
100
AcDbEntity
  8
0
  6
Continuous
 62
     7
370
    15
100
AcDbLine
 10
470.3620513915
 20
1702.7904936145
 30
0.0
 11
470.4216355472
 21
1703.3230057018
 31
0.0
  0
LINE
  5
350
330
1F
100
AcDbEntity
  8
0
  6
Continuous
 62
     7
370
    15
100
AcDbLine
 10
470.3620513915
 20
1702.7904936145
 30
0.0
 11
470.6784104942
 21
1702.3580167475
 31
0.0
  0
LINE
  5
351
330
1F
100
AcDbEntity
  8
0
  6
Continuous
 62
     7
370
    15
100
AcDbLine
 10
470.5967279165
 20
1701.8284443798
 30
0.0
 11
470.6784104942
 21
1702.3580167475
 31
0.0
  0
LINE
  5
352
330
1F
100
AcDbEntity
  8
0
  6
Continuous
 62
     7
370
    15
100
AcDbLine
 10
471.130185762
 20
1697.9078217442
 30
0.0
 11
471.3503913968
 21
1697.4193257661
 31
0.0
  0
LINE
  5
353
330
1F
100
AcDbEntity
  8
0
  6
Continuous
 62
     7
370
    15
100
AcDbLine
 10
471.0067240535
 20
1693.9529997794
 30
0.0
 11
471.256972292
 21
1694.426809208
 31
0.0
  0
LINE
  5
354
330
1F
100
AcDbEntity
  8
0
  6
Continuous
 62
     7
370
    15
100
AcDbLine
 10
471.0067240535
 20
1693.9529997794
 30
0.0
 11
471.1429560571
 21
1693.4347720849
 31
0.0
  0
LINE
  5
355
330
1F
100
AcDbEntity
  8
0
  6
Continuous
 62
     7
370
    15
100
AcDbLine
 10
470.699003899
 20
1691.9969688202
 30
0.0
 11
470.791687259
 21
1691.4692102032
 31
0.0
  0
LINE
  5
356
330
1F
100
AcDbEntity
  8
0
  6
Continuous
 62
     7
370
    15
100
AcDbLine
 10
470.4843936502
 20
1691.0302452775
 30
0.0
 11
470.791687259
 21
1691.4692102032
 31
0.0
  0
LINE
  5
357
330
1F
100
AcDbEntity
  8
0
  6
Continuous
 62
     7
370
    15
100
AcDbLine
 10
470.4843936502
 20
1691.0302452775
 30
0.0
 11
470.5550419181
 21
1690.4990877988
 31
0.0
  0
LINE
  5
358
330
1F
100
AcDbEntity
  8
0
  6
Continuous
 62
     7
370
    15
100
AcDbLine
 10
470.2297551571
 20
1690.0732861864
 30
0.0
 11
470.5550419181
 21
1690.4990877988
 31
0.0
  0
LINE
  5
359
330
1F
100
AcDbEntity
  8
0
  6
Continuous
 62
     7
370
    15
100
AcDbLine
 10
468.8207535087
 20
1686.3759118164
 30
0.0
 11
468.7801646083
 21
1685.841616712
 31
0.0
  0
LINE
  5
35A
330
1F
100
AcDbEntity
  8
0
  6
Continuous
 62
     7
370
    15
100
AcDbLine
 10
466.818663293
 20
1682.9630699972
 30
0.0
 11
467.2652324676
 21
1683.2592026363
 31
0.0
  0
LINE
  5
35B
330
1F
100
AcDbEntity
  8
0
  6
Continuous
 62
     7
370
    15
100
AcDbLine
 10
466.818663293
 20
1682.9630699972
 30
0.0
 11
466.6901165634
 21
1682.4428825671
 31
0.0
  0
LINE
  5
35C
330
1F
100
AcDbEntity
  8
0
  6
Continuous
 62
     7
370
    15
100
AcDbLine
 10
465.6119002043
 20
1681.3932056571
 30
0.0
 11
465.4405573397
 21
1680.8855035374
 31
0.0
  0
LINE
  5
35D
330
1F
100
AcDbEntity
  8
0
  6
Continuous
 62
     7
370
    15
100
AcDbLine
 10
464.9605928003
 20
1680.6472768108
 30
0.0
 11
465.4405573397
 21
1680.8855035374
 31
0.0
  0
LINE
  5
35E
330
1F
100
AcDbEntity
  8
0
  6
Continuous
 62
     7
370
    15
100
AcDbLine
 10
464.9605928003
 20
1680.6472768108
 30
0.0
 11
464.7682784139
 21
1680.1471416871
 31
0.0
  0
LINE
  5
35F
330
1F
100
AcDbEntity
  8
0
  6
Continuous
 62
     7
370
    15
100
AcDbLine
 10
464.2788181095
 20
1679.9290874074
 30
0.0
 11
464.7682784139
 21
1680.1471416871
 31
0.0
  0
LINE
  5
360
330
1F
100
AcDbEntity
  8
0
  6
Continuous
 62
     7
370
    15
100
AcDbLine
 10
464.2788181095
 20
1679.9290874074
 30
0.0
 11
464.0658674776
 21
1679.4373844782
 31
0.0
  0
LINE
  5
361
330
1F
100
AcDbEntity
  8
0
  6
Continuous
 62
     7
370
    15
100
AcDbLine
 10
463.5677589118
 20
1679.2398788998
 30
0.0
 11
464.0658674776
 21
1679.4373844782
 31
0.0
  0
LINE
  5
362
330
1F
100
AcDbEntity
  8
0
  6
Continuous
 62
     7
370
    15
100
AcDbLine
 10
462.8286464154
 20
1678.5808471064
 30
0.0
 11
462.5755595057
 21
1678.1085492144
 31
0.0
  0
LINE
  5
363
330
1F
100
AcDbEntity
  8
0
  6
Continuous
 62
     7
370
    15
100
AcDbLine
 10
462.062758395
 20
1677.9531319658
 30
0.0
 11
462.5755595057
 21
1678.1085492144
 31
0.0
  0
LINE
  5
364
330
1F
100
AcDbEntity
  8
0
  6
Continuous
 62
     7
370
    15
100
AcDbLine
 10
462.062758395
 20
1677.9531319658
 30
0.0
 11
461.7902431651
 21
1677.4917696635
 31
0.0
  0
LINE
  5
365
330
1F
100
AcDbEntity
  8
0
  6
Continuous
 62
     7
370
    15
100
AcDbLine
 10
461.2714201226
 20
1677.3578194002
 30
0.0
 11
460.9799496844
 21
1676.908193625
 31
0.0
  0
LINE
  5
366
330
1F
100
AcDbEntity
  8
0
  6
Continuous
 62
     7
370
    15
100
AcDbLine
 10
460.4560034364
 20
1676.7959413151
 30
0.0
 11
460.9799496844
 21
1676.908193625
 31
0.0
  0
LINE
  5
367
330
1F
100
AcDbEntity
  8
0
  6
Continuous
 62
     7
370
    15
100
AcDbLine
 10
459.6179202213
 20
1676.2684681485
 30
0.0
 11
460.1460816353
 21
1676.35882879
 31
0.0
  0
LINE
  5
368
330
1F
100
AcDbEntity
  8
0
  6
Continuous
 62
     7
370
    15
100
AcDbLine
 10
459.6179202213
 20
1676.2684681485
 30
0.0
 11
459.2900825678
 21
1675.8446269701
 31
0.0
  0
LINE
  5
369
330
1F
100
AcDbEntity
  8
0
  6
Continuous
 62
     7
370
    15
100
AcDbLine
 10
458.7586196154
 20
1675.7763163219
 30
0.0
 11
459.2900825678
 21
1675.8446269701
 31
0.0
  0
LINE
  5
36A
330
1F
100
AcDbEntity
  8
0
  6
Continuous
 62
     7
370
    15
100
AcDbLine
 10
457.879589872
 20
1675.3203352014
 30
0.0
 11
457.5176546364
 21
1674.9252122859
 31
0.0
  0
LINE
  5
36B
330
1F
100
AcDbEntity
  8
0
  6
Continuous
 62
     7
370
    15
100
AcDbLine
 10
456.9823527723
 20
1674.9013164113
 30
0.0
 11
457.5176546364
 21
1674.9252122859
 31
0.0
  0
LINE
  5
36C
330
1F
100
AcDbEntity
  8
0
  6
Continuous
 62
     7
370
    15
100
AcDbLine
 10
456.0684617623
 20
1674.5199826578
 30
0.0
 11
455.6749351337
 21
1674.1563123683
 31
0.0
  0
LINE
  5
36D
330
1F
100
AcDbEntity
  8
0
  6
Continuous
 62
     7
370
    15
100
AcDbLine
 10
455.1394991591
 20
1674.17699518
 30
0.0
 11
455.6749351337
 21
1674.1563123683
 31
0.0
  0
LINE
  5
36E
330
1F
100
AcDbEntity
  8
0
  6
Continuous
 62
     7
370
    15
100
AcDbLine
 10
454.1970724254
 20
1673.8729481617
 30
0.0
 11
453.7746775909
 21
1673.5432487945
 31
0.0
  0
LINE
  5
36F
330
1F
100
AcDbEntity
  8
0
  6
Continuous
 62
     7
370
    15
100
AcDbLine
 10
449.3407460409
 20
1672.9528368483
 30
0.0
 11
449.8544707908
 21
1672.8005004147
 31
0.0
  0
LINE
  5
370
330
1F
100
AcDbEntity
  8
0
  6
Continuous
 62
     7
370
    15
100
AcDbLine
 10
448.3524158145
 20
1672.8910678098
 30
0.0
 11
447.8616555585
 21
1672.6759546468
 31
0.0
  0
LINE
  5
371
330
1F
100
AcDbEntity
  8
0
  6
Continuous
 62
     7
370
    15
100
AcDbLine
 10
453.7213197923
 20
1719.6052395771
 30
0.0
 11
454.2544228039
 21
1719.6592805008
 31
0.0
  0
LINE
  5
372
330
1F
100
AcDbEntity
  8
0
  6
Continuous
 62
     7
370
    15
100
AcDbLine
 10
448.3524158145
 20
1672.8910678098
 30
0.0
 11
448.8593589063
 21
1672.7174934963
 31
0.0
  0
LINE
  5
373
330
1F
100
AcDbEntity
  8
0
  6
Continuous
 62
     7
370
    15
100
AcDbLine
 10
449.3407460409
 20
1672.9528368483
 30
0.0
 11
448.8593589063
 21
1672.7174934963
 31
0.0
  0
LINE
  5
374
330
1F
100
AcDbEntity
  8
0
  6
Continuous
 62
     7
370
    15
100
AcDbLine
 10
451.7928599394
 20
1720.0544537077
 30
0.0
 11
452.3196257665
 21
1720.152620695
 31
0.0
  0
LINE
  5
375
330
1F
100
AcDbEntity
  8
0
  6
Continuous
 62
     7
370
    15
100
AcDbLine
 10
450.3256513286
 20
1673.0556641737
 30
0.0
 11
449.8544707908
 21
1672.8005004147
 31
0.0
  0
LINE
  5
376
330
1F
100
AcDbEntity
  8
0
  6
Continuous
 62
     7
370
    15
100
AcDbLine
 10
436.8451535716
 20
1675.3203352014
 30
0.0
 11
436.3113092273
 21
1675.3664785097
 31
0.0
  0
LINE
  5
377
330
1F
100
AcDbEntity
  8
0
  6
Continuous
 62
     7
370
    15
100
AcDbLine
 10
436.8451535716
 20
1675.3203352014
 30
0.0
 11
437.2070888071
 21
1674.9252122859
 31
0.0
  0
LINE
  5
378
330
1F
100
AcDbEntity
  8
0
  6
Continuous
 62
     7
370
    15
100
AcDbLine
 10
451.3054266586
 20
1673.1993728349
 30
0.0
 11
451.8300360083
 21
1673.0902665327
 31
0.0
  0
LINE
  5
379
330
1F
100
AcDbEntity
  8
0
  6
Continuous
 62
     7
370
    15
100
AcDbLine
 10
452.278375627
 20
1673.3837132374
 30
0.0
 11
451.8300360083
 21
1673.0902665327
 31
0.0
  0
LINE
  5
37A
330
1F
100
AcDbEntity
  8
0
  6
Continuous
 62
     7
370
    15
100
AcDbLine
 10
452.278375627
 20
1673.3837132374
 30
0.0
 11
452.8070697575
 21
1673.2965265433
 31
0.0
  0
LINE
  5
37B
330
1F
100
AcDbEntity
  8
0
  6
Continuous
 62
     7
370
    15
100
AcDbLine
 10
453.2428141697
 20
1673.6083687315
 30
0.0
 11
452.8070697575
 21
1673.2965265433
 31
0.0
  0
LINE
  5
37C
330
1F
100
AcDbEntity
  8
0
  6
Continuous
 62
     7
370
    15
100
AcDbLine
 10
453.2428141697
 20
1673.6083687315
 30
0.0
 11
453.7746775909
 21
1673.5432487945
 31
0.0
  0
LINE
  5
37D
330
1F
100
AcDbEntity
  8
0
  6
Continuous
 62
     7
370
    15
100
AcDbLine
 10
447.8575009285
 20
1720.4653159747
 30
0.0
 11
448.3607233283
 21
1720.6493993322
 31
0.0
  0
LINE
  5
37E
330
1F
100
AcDbEntity
  8
0
  6
Continuous
 62
     7
370
    15
100
AcDbLine
 10
454.1970724254
 20
1673.8729481617
 30
0.0
 11
454.731184525
 21
1673.8300104658
 31
0.0
  0
LINE
  5
37F
330
1F
100
AcDbEntity
  8
0
  6
Continuous
 62
     7
370
    15
100
AcDbLine
 10
455.1394991591
 20
1674.17699518
 30
0.0
 11
454.731184525
 21
1673.8300104658
 31
0.0
  0
LINE
  5
380
330
1F
100
AcDbEntity
  8
0
  6
Continuous
 62
     7
370
    15
100
AcDbLine
 10
446.8672425151
 20
1720.4653159747
 30
0.0
 11
446.3640201152
 21
1720.6493993322
 31
0.0
  0
LINE
  5
381
330
1F
100
AcDbEntity
  8
0
  6
Continuous
 62
     7
370
    15
100
AcDbLine
 10
445.8778412095
 20
1720.4241235773
 30
0.0
 11
446.3640201152
 21
1720.6493993322
 31
0.0
  0
LINE
  5
382
330
1F
100
AcDbEntity
  8
0
  6
Continuous
 62
     7
370
    15
100
AcDbLine
 10
456.0684617623
 20
1674.5199826578
 30
0.0
 11
456.6042944803
 21
1674.5215901206
 31
0.0
  0
LINE
  5
383
330
1F
100
AcDbEntity
  8
0
  6
Continuous
 62
     7
370
    15
100
AcDbLine
 10
456.9823527723
 20
1674.9013164113
 30
0.0
 11
456.6042944803
 21
1674.5215901206
 31
0.0
  0
LINE
  5
384
330
1F
100
AcDbEntity
  8
0
  6
Continuous
 62
     7
370
    15
100
AcDbLine
 10
443.90845718
 20
1720.2185136298
 30
0.0
 11
444.3742271992
 21
1720.4834246109
 31
0.0
  0
LINE
  5
385
330
1F
100
AcDbEntity
  8
0
  6
Continuous
 62
     7
370
    15
100
AcDbLine
 10
443.419316785
 20
1673.1993728349
 30
0.0
 11
442.8947074353
 21
1673.0902665327
 31
0.0
  0
LINE
  5
386
330
1F
100
AcDbEntity
  8
0
  6
Continuous
 62
     7
370
    15
100
AcDbLine
 10
457.879589872
 20
1675.3203352014
 30
0.0
 11
458.4134342163
 21
1675.3664785097
 31
0.0
  0
LINE
  5
387
330
1F
100
AcDbEntity
  8
0
  6
Continuous
 62
     7
370
    15
100
AcDbLine
 10
458.7586196154
 20
1675.7763163219
 30
0.0
 11
458.4134342163
 21
1675.3664785097
 31
0.0
  0
LINE
  5
388
330
1F
100
AcDbEntity
  8
0
  6
Continuous
 62
     7
370
    15
100
AcDbLine
 10
441.962980201
 20
1719.8499110559
 30
0.0
 11
442.4051176771
 21
1720.152620695
 31
0.0
  0
LINE
  5
389
330
1F
100
AcDbEntity
  8
0
  6
Continuous
 62
     7
370
    15
100
AcDbLine
 10
445.3839974026
 20
1672.9528368483
 30
0.0
 11
444.8702726527
 21
1672.8005004147
 31
0.0
  0
LINE
  5
38A
330
1F
100
AcDbEntity
  8
0
  6
Continuous
 62
     7
370
    15
100
AcDbLine
 10
445.3839974026
 20
1672.9528368483
 30
0.0
 11
445.8653845373
 21
1672.7174934963
 31
0.0
  0
LINE
  5
38B
330
1F
100
AcDbEntity
  8
0
  6
Continuous
 62
     7
370
    15
100
AcDbLine
 10
460.4560034364
 20
1676.7959413151
 30
0.0
 11
460.1460816353
 21
1676.35882879
 31
0.0
  0
LINE
  5
38C
330
1F
100
AcDbEntity
  8
0
  6
Continuous
 62
     7
370
    15
100
AcDbLine
 10
440.0548762656
 20
1719.3208658169
 30
0.0
 11
440.4703206397
 21
1719.6592805008
 31
0.0
  0
LINE
  5
38D
330
1F
100
AcDbEntity
  8
0
  6
Continuous
 62
     7
370
    15
100
AcDbLine
 10
440.0548762656
 20
1719.3208658169
 30
0.0
 11
439.5199865117
 21
1719.3526835213
 31
0.0
  0
LINE
  5
38E
330
1F
100
AcDbEntity
  8
0
  6
Continuous
 62
     7
370
    15
100
AcDbLine
 10
461.2714201226
 20
1677.3578194002
 30
0.0
 11
461.7902431651
 21
1677.4917696635
 31
0.0
  0
LINE
  5
38F
330
1F
100
AcDbEntity
  8
0
  6
Continuous
 62
     7
370
    15
100
AcDbLine
 10
439.1189795001
 20
1718.9972777883
 30
0.0
 11
439.5199865117
 21
1719.3526835213
 31
0.0
  0
LINE
  5
390
330
1F
100
AcDbEntity
  8
0
  6
Continuous
 62
     7
370
    15
100
AcDbLine
 10
439.1189795001
 20
1718.9972777883
 30
0.0
 11
438.5832287385
 21
1719.0068182568
 31
0.0
  0
LINE
  5
391
330
1F
100
AcDbEntity
  8
0
  6
Continuous
 62
     7
370
    15
100
AcDbLine
 10
438.1973529249
 20
1718.6350398729
 30
0.0
 11
438.5832287385
 21
1719.0068182568
 31
0.0
  0
LINE
  5
392
330
1F
100
AcDbEntity
  8
0
  6
Continuous
 62
     7
370
    15
100
AcDbLine
 10
462.8286464154
 20
1678.5808471064
 30
0.0
 11
463.3345389753
 21
1678.7574612568
 31
0.0
  0
LINE
  5
393
330
1F
100
AcDbEntity
  8
0
  6
Continuous
 62
     7
370
    15
100
AcDbLine
 10
463.5677589118
 20
1679.2398788998
 30
0.0
 11
463.3345389753
 21
1678.7574612568
 31
0.0
  0
LINE
  5
394
330
1F
100
AcDbEntity
  8
0
  6
Continuous
 62
     7
370
    15
100
AcDbLine
 10
437.2915932923
 20
1718.2347760568
 30
0.0
 11
436.7569042384
 21
1718.1997490148
 31
0.0
  0
LINE
  5
395
330
1F
100
AcDbEntity
  8
0
  6
Continuous
 62
     7
370
    15
100
AcDbLine
 10
425.30365009
 20
1705.6065057436
 30
0.0
 11
424.9359061956
 21
1705.2167826364
 31
0.0
  0
LINE
  5
396
330
1F
100
AcDbEntity
  8
0
  6
Continuous
 62
     7
370
    15
100
AcDbLine
 10
424.7892154395
 20
1689.127747904
 30
0.0
 11
424.7629633187
 21
1688.5925564016
 31
0.0
  0
LINE
  5
397
330
1F
100
AcDbEntity
  8
0
  6
Continuous
 62
     7
370
    15
100
AcDbLine
 10
425.1225208878
 20
1688.1952672298
 30
0.0
 11
424.7629633187
 21
1688.5925564016
 31
0.0
  0
LINE
  5
398
330
1F
100
AcDbEntity
  8
0
  6
Continuous
 62
     7
370
    15
100
AcDbLine
 10
435.5339137851
 20
1717.3230112562
 30
0.0
 11
435.0039875149
 21
1717.2436588476
 31
0.0
  0
LINE
  5
399
330
1F
100
AcDbEntity
  8
0
  6
Continuous
 62
     7
370
    15
100
AcDbLine
 10
434.6850374728
 20
1716.8130897949
 30
0.0
 11
435.0039875149
 21
1717.2436588476
 31
0.0
  0
LINE
  5
39A
330
1F
100
AcDbEntity
  8
0
  6
Continuous
 62
     7
370
    15
100
AcDbLine
 10
425.4943272113
 20
1687.277459077
 30
0.0
 11
425.5126537769
 21
1686.7419374207
 31
0.0
  0
LINE
  5
39B
330
1F
100
AcDbEntity
  8
0
  6
Continuous
 62
     7
370
    15
100
AcDbLine
 10
464.6234409898
 20
1713.0562984417
 30
0.0
 11
464.4207647084
 21
1713.5523245702
 31
0.0
  0
LINE
  5
39C
330
1F
100
AcDbEntity
  8
0
  6
Continuous
 62
     7
370
    15
100
AcDbLine
 10
433.0545580029
 20
1715.6895757685
 30
0.0
 11
433.3366118386
 21
1716.1451675961
 31
0.0
  0
LINE
  5
39D
330
1F
100
AcDbEntity
  8
0
  6
Continuous
 62
     7
370
    15
100
AcDbLine
 10
426.3508031159
 20
1685.4921863446
 30
0.0
 11
425.9445788353
 21
1685.841616712
 31
0.0
  0
LINE
  5
39E
330
1F
100
AcDbEntity
  8
0
  6
Continuous
 62
     7
370
    15
100
AcDbLine
 10
426.3508031159
 20
1685.4921863446
 30
0.0
 11
426.413581708
 21
1684.960041664
 31
0.0
  0
LINE
  5
39F
330
1F
100
AcDbEntity
  8
0
  6
Continuous
 62
     7
370
    15
100
AcDbLine
 10
432.2757758214
 20
1715.0779296676
 30
0.0
 11
431.76631909
 21
1714.9118785778
 31
0.0
  0
LINE
  5
3A0
330
1F
100
AcDbEntity
  8
0
  6
Continuous
 62
     7
370
    15
100
AcDbLine
 10
431.5231116503
 20
1714.4344155709
 30
0.0
 11
431.76631909
 21
1714.9118785778
 31
0.0
  0
LINE
  5
3A1
330
1F
100
AcDbEntity
  8
0
  6
Continuous
 62
     7
370
    15
100
AcDbLine
 10
462.4489676221
 20
1715.0779296676
 30
0.0
 11
462.186109276
 21
1715.5448612789
 31
0.0
  0
LINE
  5
3A2
330
1F
100
AcDbEntity
  8
0
  6
Continuous
 62
     7
370
    15
100
AcDbLine
 10
427.9060801505
 20
1682.9630699972
 30
0.0
 11
427.459510976
 21
1683.2592026363
 31
0.0
  0
LINE
  5
3A3
330
1F
100
AcDbEntity
  8
0
  6
Continuous
 62
     7
370
    15
100
AcDbLine
 10
427.9060801505
 20
1682.9630699972
 30
0.0
 11
428.0346268802
 21
1682.4428825671
 31
0.0
  0
LINE
  5
3A4
330
1F
100
AcDbEntity
  8
0
  6
Continuous
 62
     7
370
    15
100
AcDbLine
 10
430.1013024538
 20
1713.0562984417
 30
0.0
 11
430.3039787351
 21
1713.5523245702
 31
0.0
  0
LINE
  5
3A5
330
1F
100
AcDbEntity
  8
0
  6
Continuous
 62
     7
370
    15
100
AcDbLine
 10
430.1013024538
 20
1713.0562984417
 30
0.0
 11
429.6164838611
 21
1712.8281095097
 31
0.0
  0
LINE
  5
3A6
330
1F
100
AcDbEntity
  8
0
  6
Continuous
 62
     7
370
    15
100
AcDbLine
 10
468.8207535087
 20
1686.3759118164
 30
0.0
 11
469.2120896666
 21
1686.7419374207
 31
0.0
  0
LINE
  5
3A7
330
1F
100
AcDbEntity
  8
0
  6
Continuous
 62
     7
370
    15
100
AcDbLine
 10
469.2304162323
 20
1687.277459077
 30
0.0
 11
469.2120896666
 21
1686.7419374207
 31
0.0
  0
LINE
  5
3A8
330
1F
100
AcDbEntity
  8
0
  6
Continuous
 62
     7
370
    15
100
AcDbLine
 10
469.2304162323
 20
1687.277459077
 30
0.0
 11
469.6061881273
 21
1687.6594475503
 31
0.0
  0
LINE
  5
3A9
330
1F
100
AcDbEntity
  8
0
  6
Continuous
 62
     7
370
    15
100
AcDbLine
 10
469.6022225558
 20
1688.1952672298
 30
0.0
 11
469.6061881273
 21
1687.6594475503
 31
0.0
  0
LINE
  5
3AA
330
1F
100
AcDbEntity
  8
0
  6
Continuous
 62
     7
370
    15
100
AcDbLine
 10
459.1908296584
 20
1717.3230112562
 30
0.0
 11
458.8542450233
 21
1717.7399420212
 31
0.0
  0
LINE
  5
3AB
330
1F
100
AcDbEntity
  8
0
  6
Continuous
 62
     7
370
    15
100
AcDbLine
 10
458.3214763566
 20
1717.7971811066
 30
0.0
 11
458.8542450233
 21
1717.7399420212
 31
0.0
  0
LINE
  5
3AC
330
1F
100
AcDbEntity
  8
0
  6
Continuous
 62
     7
370
    15
100
AcDbLine
 10
470.2297551571
 20
1690.0732861864
 30
0.0
 11
470.278247261
 21
1689.539649527
 31
0.0
  0
LINE
  5
3AD
330
1F
100
AcDbEntity
  8
0
  6
Continuous
 62
     7
370
    15
100
AcDbLine
 10
431.1569845318
 20
1679.2398788998
 30
0.0
 11
430.658875966
 21
1679.4373844782
 31
0.0
  0
LINE
  5
3AE
330
1F
100
AcDbEntity
  8
0
  6
Continuous
 62
     7
370
    15
100
AcDbLine
 10
431.1569845318
 20
1679.2398788998
 30
0.0
 11
431.3902044683
 21
1678.7574612568
 31
0.0
  0
LINE
  5
3AF
330
1F
100
AcDbEntity
  8
0
  6
Continuous
 62
     7
370
    15
100
AcDbLine
 10
427.0889638006
 20
1709.137582689
 30
0.0
 11
427.1848136573
 21
1709.6647755275
 31
0.0
  0
LINE
  5
3B0
330
1F
100
AcDbEntity
  8
0
  6
Continuous
 62
     7
370
    15
100
AcDbLine
 10
427.0889638006
 20
1709.137582689
 30
0.0
 11
426.6617363333
 21
1708.8141725431
 31
0.0
  0
LINE
  5
3B1
330
1F
100
AcDbEntity
  8
0
  6
Continuous
 62
     7
370
    15
100
AcDbLine
 10
468.1368442266
 20
1708.2834481294
 30
0.0
 11
468.5502490043
 21
1707.9425449515
 31
0.0
  0
LINE
  5
3B2
330
1F
100
AcDbEntity
  8
0
  6
Continuous
 62
     7
370
    15
100
AcDbLine
 10
470.699003899
 20
1691.9969688202
 30
0.0
 11
470.9877716391
 21
1692.4483361686
 31
0.0
  0
LINE
  5
3B3
330
1F
100
AcDbEntity
  8
0
  6
Continuous
 62
     7
370
    15
100
AcDbLine
 10
454.669867178
 20
1719.3208658169
 30
0.0
 11
454.2544228039
 21
1719.6592805008
 31
0.0
  0
LINE
  5
3B4
330
1F
100
AcDbEntity
  8
0
  6
Continuous
 62
     7
370
    15
100
AcDbLine
 10
425.6944684326
 20
1706.5163799594
 30
0.0
 11
425.7239336162
 21
1707.0514042894
 31
0.0
  0
LINE
  5
3B5
330
1F
100
AcDbEntity
  8
0
  6
Continuous
 62
     7
370
    15
100
AcDbLine
 10
434.2687400072
 20
1676.7959413151
 30
0.0
 11
433.7447937592
 21
1676.908193625
 31
0.0
  0
LINE
  5
3B6
330
1F
100
AcDbEntity
  8
0
  6
Continuous
 62
     7
370
    15
100
AcDbLine
 10
434.2687400072
 20
1676.7959413151
 30
0.0
 11
434.5786618083
 21
1676.35882879
 31
0.0
  0
LINE
  5
3B7
330
1F
100
AcDbEntity
  8
0
  6
Continuous
 62
     7
370
    15
100
AcDbLine
 10
435.1068232223
 20
1676.2684681485
 30
0.0
 11
434.5786618083
 21
1676.35882879
 31
0.0
  0
LINE
  5
3B8
330
1F
100
AcDbEntity
  8
0
  6
Continuous
 62
     7
370
    15
100
AcDbLine
 10
424.9510178357
 20
1704.6811613286
 30
0.0
 11
424.9359061956
 21
1705.2167826364
 31
0.0
  0
LINE
  5
3B9
330
1F
100
AcDbEntity
  8
0
  6
Continuous
 62
     7
370
    15
100
AcDbLine
 10
451.7928599394
 20
1720.0544537077
 30
0.0
 11
451.3385128244
 21
1720.3385089556
 31
0.0
  0
LINE
  5
3BA
330
1F
100
AcDbEntity
  8
0
  6
Continuous
 62
     7
370
    15
100
AcDbLine
 10
450.3256513286
 20
1673.0556641737
 30
0.0
 11
450.8452683236
 21
1672.9248301158
 31
0.0
  0
LINE
  5
3BB
330
1F
100
AcDbEntity
  8
0
  6
Continuous
 62
     7
370
    15
100
AcDbLine
 10
451.3054266586
 20
1673.1993728349
 30
0.0
 11
450.8452683236
 21
1672.9248301158
 31
0.0
  0
LINE
  5
3BC
330
1F
100
AcDbEntity
  8
0
  6
Continuous
 62
     7
370
    15
100
AcDbLine
 10
424.362692052
 20
1702.7904936145
 30
0.0
 11
424.3031078964
 21
1703.3230057018
 31
0.0
  0
LINE
  5
3BD
330
1F
100
AcDbEntity
  8
0
  6
Continuous
 62
     7
370
    15
100
AcDbLine
 10
424.362692052
 20
1702.7904936145
 30
0.0
 11
424.0463329493
 21
1702.3580167475
 31
0.0
  0
LINE
  5
3BE
330
1F
100
AcDbEntity
  8
0
  6
Continuous
 62
     7
370
    15
100
AcDbLine
 10
471.130185762
 20
1697.9078217442
 30
0.0
 11
471.2984757512
 21
1698.4165429635
 31
0.0
  0
LINE
  5
3BF
330
1F
100
AcDbEntity
  8
0
  6
Continuous
 62
     7
370
    15
100
AcDbLine
 10
471.0581405102
 20
1698.8954558069
 30
0.0
 11
471.2984757512
 21
1698.4165429635
 31
0.0
  0
LINE
  5
3C0
330
1F
100
AcDbEntity
  8
0
  6
Continuous
 62
     7
370
    15
100
AcDbLine
 10
471.0581405102
 20
1698.8954558069
 30
0.0
 11
471.2051237016
 21
1699.4107374954
 31
0.0
  0
LINE
  5
3C1
330
1F
100
AcDbEntity
  8
0
  6
Continuous
 62
     7
370
    15
100
AcDbLine
 10
470.9450723617
 20
1699.8792381524
 30
0.0
 11
471.2051237016
 21
1699.4107374954
 31
0.0
  0
LINE
  5
3C2
330
1F
100
AcDbEntity
  8
0
  6
Continuous
 62
     7
370
    15
100
AcDbLine
 10
447.8575009285
 20
1720.4653159747
 30
0.0
 11
447.3623717218
 21
1720.6701734135
 31
0.0
  0
LINE
  5
3C3
330
1F
100
AcDbEntity
  8
0
  6
Continuous
 62
     7
370
    15
100
AcDbLine
 10
446.8672425151
 20
1720.4653159747
 30
0.0
 11
447.3623717218
 21
1720.6701734135
 31
0.0
  0
LINE
  5
3C4
330
1F
100
AcDbEntity
  8
0
  6
Continuous
 62
     7
370
    15
100
AcDbLine
 10
470.5967279165
 20
1701.8284443798
 30
0.0
 11
470.8948219209
 21
1701.3831818508
 31
0.0
  0
LINE
  5
3C5
330
1F
100
AcDbEntity
  8
0
  6
Continuous
 62
     7
370
    15
100
AcDbLine
 10
441.4819292738
 20
1673.6083687315
 30
0.0
 11
440.9500658526
 21
1673.5432487945
 31
0.0
  0
LINE
  5
3C6
330
1F
100
AcDbEntity
  8
0
  6
Continuous
 62
     7
370
    15
100
AcDbLine
 10
441.4819292738
 20
1673.6083687315
 30
0.0
 11
441.9176736861
 21
1673.2965265433
 31
0.0
  0
LINE
  5
3C7
330
1F
100
AcDbEntity
  8
0
  6
Continuous
 62
     7
370
    15
100
AcDbLine
 10
423.5945576816
 20
1697.9078217442
 30
0.0
 11
423.4262676924
 21
1698.4165429635
 31
0.0
  0
LINE
  5
3C8
330
1F
100
AcDbEntity
  8
0
  6
Continuous
 62
     7
370
    15
100
AcDbLine
 10
423.5945576816
 20
1697.9078217442
 30
0.0
 11
423.3743520468
 21
1697.4193257661
 31
0.0
  0
LINE
  5
3C9
330
1F
100
AcDbEntity
  8
0
  6
Continuous
 62
     7
370
    15
100
AcDbLine
 10
423.5636601239
 20
1696.918045494
 30
0.0
 11
423.3743520468
 21
1697.4193257661
 31
0.0
  0
LINE
  5
3CA
330
1F
100
AcDbEntity
  8
0
  6
Continuous
 62
     7
370
    15
100
AcDbLine
 10
443.419316785
 20
1673.1993728349
 30
0.0
 11
443.87947512
 21
1672.9248301158
 31
0.0
  0
LINE
  5
3CB
330
1F
100
AcDbEntity
  8
0
  6
Continuous
 62
     7
370
    15
100
AcDbLine
 10
442.9318835042
 20
1720.0544537077
 30
0.0
 11
442.4051176771
 21
1720.152620695
 31
0.0
  0
LINE
  5
3CC
330
1F
100
AcDbEntity
  8
0
  6
Continuous
 62
     7
370
    15
100
AcDbLine
 10
423.6254440635
 20
1694.9389214892
 30
0.0
 11
423.3951224028
 21
1695.4227306446
 31
0.0
  0
LINE
  5
3CD
330
1F
100
AcDbEntity
  8
0
  6
Continuous
 62
     7
370
    15
100
AcDbLine
 10
430.445925334
 20
1679.9290874074
 30
0.0
 11
429.9564650296
 21
1680.1471416871
 31
0.0
  0
LINE
  5
3CE
330
1F
100
AcDbEntity
  8
0
  6
Continuous
 62
     7
370
    15
100
AcDbLine
 10
441.962980201
 20
1719.8499110559
 30
0.0
 11
441.4325864068
 21
1719.926080204
 31
0.0
  0
LINE
  5
3CF
330
1F
100
AcDbEntity
  8
0
  6
Continuous
 62
     7
370
    15
100
AcDbLine
 10
446.372327629
 20
1672.8910678098
 30
0.0
 11
445.8653845373
 21
1672.7174934963
 31
0.0
  0
LINE
  5
3D0
330
1F
100
AcDbEntity
  8
0
  6
Continuous
 62
     7
370
    15
100
AcDbLine
 10
446.372327629
 20
1672.8910678098
 30
0.0
 11
446.8630878851
 21
1672.6759546468
 31
0.0
  0
LINE
  5
3D1
330
1F
100
AcDbEntity
  8
0
  6
Continuous
 62
     7
370
    15
100
AcDbLine
 10
431.8960970282
 20
1678.5808471064
 30
0.0
 11
431.3902044683
 21
1678.7574612568
 31
0.0
  0
LINE
  5
3D2
330
1F
100
AcDbEntity
  8
0
  6
Continuous
 62
     7
370
    15
100
AcDbLine
 10
468.6019429951
 20
1707.4092100406
 30
0.0
 11
468.5502490043
 21
1707.9425449515
 31
0.0
  0
LINE
  5
3D3
330
1F
100
AcDbEntity
  8
0
  6
Continuous
 62
     7
370
    15
100
AcDbLine
 10
426.8339900314
 20
1684.6278128246
 30
0.0
 11
426.9188502817
 21
1684.0987405772
 31
0.0
  0
LINE
  5
3D4
330
1F
100
AcDbEntity
  8
0
  6
Continuous
 62
     7
370
    15
100
AcDbLine
 10
468.1368442266
 20
1708.2834481294
 30
0.0
 11
468.0630071103
 21
1708.8141725431
 31
0.0
  0
LINE
  5
3D5
330
1F
100
AcDbEntity
  8
0
  6
Continuous
 62
     7
370
    15
100
AcDbLine
 10
433.453323321
 20
1677.3578194002
 30
0.0
 11
432.9345002784
 21
1677.4917696635
 31
0.0
  0
LINE
  5
3D6
330
1F
100
AcDbEntity
  8
0
  6
Continuous
 62
     7
370
    15
100
AcDbLine
 10
438.1973529249
 20
1718.6350398729
 30
0.0
 11
437.6616692185
 21
1718.6222844789
 31
0.0
  0
LINE
  5
3D7
330
1F
100
AcDbEntity
  8
0
  6
Continuous
 62
     7
370
    15
100
AcDbLine
 10
424.4949882864
 20
1690.0732861864
 30
0.0
 11
424.1697015255
 21
1690.4990877988
 31
0.0
  0
LINE
  5
3D8
330
1F
100
AcDbEntity
  8
0
  6
Continuous
 62
     7
370
    15
100
AcDbLine
 10
424.4949882864
 20
1690.0732861864
 30
0.0
 11
424.4464961826
 21
1689.539649527
 31
0.0
  0
LINE
  5
3D9
330
1F
100
AcDbEntity
  8
0
  6
Continuous
 62
     7
370
    15
100
AcDbLine
 10
471.0992993801
 20
1694.9389214892
 30
0.0
 11
471.256972292
 21
1694.426809208
 31
0.0
  0
LINE
  5
3DA
330
1F
100
AcDbEntity
  8
0
  6
Continuous
 62
     7
370
    15
100
AcDbLine
 10
466.5292864679
 20
1710.7796627129
 30
0.0
 11
466.3899457096
 21
1711.2970626945
 31
0.0
  0
LINE
  5
3DB
330
1F
100
AcDbEntity
  8
0
  6
Continuous
 62
     7
370
    15
100
AcDbLine
 10
465.9257745384
 20
1711.564763918
 30
0.0
 11
466.3899457096
 21
1711.2970626945
 31
0.0
  0
LINE
  5
3DC
330
1F
100
AcDbEntity
  8
0
  6
Continuous
 62
     7
370
    15
100
AcDbLine
 10
425.1225208878
 20
1688.1952672298
 30
0.0
 11
425.1185553162
 21
1687.6594475503
 31
0.0
  0
LINE
  5
3DD
330
1F
100
AcDbEntity
  8
0
  6
Continuous
 62
     7
370
    15
100
AcDbLine
 10
450.8162862635
 20
1720.2185136298
 30
0.0
 11
451.3385128244
 21
1720.3385089556
 31
0.0
  0
LINE
  5
3DE
330
1F
100
AcDbEntity
  8
0
  6
Continuous
 62
     7
370
    15
100
AcDbLine
 10
465.6119002043
 20
1681.3932056571
 30
0.0
 11
466.0815401017
 21
1681.6511922548
 31
0.0
  0
LINE
  5
3DF
330
1F
100
AcDbEntity
  8
0
  6
Continuous
 62
     7
370
    15
100
AcDbLine
 10
425.9039899348
 20
1686.3759118164
 30
0.0
 11
425.5126537769
 21
1686.7419374207
 31
0.0
  0
LINE
  5
3E0
330
1F
100
AcDbEntity
  8
0
  6
Continuous
 62
     7
370
    15
100
AcDbLine
 10
425.9039899348
 20
1686.3759118164
 30
0.0
 11
425.9445788353
 21
1685.841616712
 31
0.0
  0
LINE
  5
3E1
330
1F
100
AcDbEntity
  8
0
  6
Continuous
 62
     7
370
    15
100
AcDbLine
 10
438.6562816813
 20
1674.5199826578
 30
0.0
 11
438.1204489633
 21
1674.5215901206
 31
0.0
  0
LINE
  5
3E2
330
1F
100
AcDbEntity
  8
0
  6
Continuous
 62
     7
370
    15
100
AcDbLine
 10
463.9268750339
 20
1713.7601510654
 30
0.0
 11
463.7037394582
 21
1714.2473165909
 31
0.0
  0
LINE
  5
3E3
330
1F
100
AcDbEntity
  8
0
  6
Continuous
 62
     7
370
    15
100
AcDbLine
 10
426.8339900314
 20
1684.6278128246
 30
0.0
 11
426.413581708
 21
1684.960041664
 31
0.0
  0
LINE
  5
3E4
330
1F
100
AcDbEntity
  8
0
  6
Continuous
 62
     7
370
    15
100
AcDbLine
 10
470.9450723617
 20
1699.8792381524
 30
0.0
 11
471.0704935729
 21
1700.4001881028
 31
0.0
  0
LINE
  5
3E5
330
1F
100
AcDbEntity
  8
0
  6
Continuous
 62
     7
370
    15
100
AcDbLine
 10
467.8907534122
 20
1684.6278128246
 30
0.0
 11
467.8058931618
 21
1684.0987405772
 31
0.0
  0
LINE
  5
3E6
330
1F
100
AcDbEntity
  8
0
  6
Continuous
 62
     7
370
    15
100
AcDbLine
 10
467.8907534122
 20
1684.6278128246
 30
0.0
 11
468.3111617356
 21
1684.960041664
 31
0.0
  0
LINE
  5
3E7
330
1F
100
AcDbEntity
  8
0
  6
Continuous
 62
     7
370
    15
100
AcDbLine
 10
461.6701854407
 20
1715.6895757685
 30
0.0
 11
462.186109276
 21
1715.5448612789
 31
0.0
  0
LINE
  5
3E8
330
1F
100
AcDbEntity
  8
0
  6
Continuous
 62
     7
370
    15
100
AcDbLine
 10
461.6701854407
 20
1715.6895757685
 30
0.0
 11
461.388131605
 21
1716.1451675961
 31
0.0
  0
LINE
  5
3E9
330
1F
100
AcDbEntity
  8
0
  6
Continuous
 62
     7
370
    15
100
AcDbLine
 10
460.8666347354
 20
1716.2682958911
 30
0.0
 11
461.388131605
 21
1716.1451675961
 31
0.0
  0
LINE
  5
3EA
330
1F
100
AcDbEntity
  8
0
  6
Continuous
 62
     7
370
    15
100
AcDbLine
 10
428.4931300222
 20
1682.1655822019
 30
0.0
 11
428.6432033419
 21
1681.6511922548
 31
0.0
  0
LINE
  5
3EB
330
1F
100
AcDbEntity
  8
0
  6
Continuous
 62
     7
370
    15
100
AcDbLine
 10
429.1128432392
 20
1681.3932056571
 30
0.0
 11
428.6432033419
 21
1681.6511922548
 31
0.0
  0
LINE
  5
3EC
330
1F
100
AcDbEntity
  8
0
  6
Continuous
 62
     7
370
    15
100
AcDbLine
 10
429.1128432392
 20
1681.3932056571
 30
0.0
 11
429.2841861039
 21
1680.8855035374
 31
0.0
  0
LINE
  5
3ED
330
1F
100
AcDbEntity
  8
0
  6
Continuous
 62
     7
370
    15
100
AcDbLine
 10
428.7989689051
 20
1711.564763918
 30
0.0
 11
428.9597114562
 21
1712.0759212444
 31
0.0
  0
LINE
  5
3EE
330
1F
100
AcDbEntity
  8
0
  6
Continuous
 62
     7
370
    15
100
AcDbLine
 10
469.6022225558
 20
1688.1952672298
 30
0.0
 11
469.9617801248
 21
1688.5925564016
 31
0.0
  0
LINE
  5
3EF
330
1F
100
AcDbEntity
  8
0
  6
Continuous
 62
     7
370
    15
100
AcDbLine
 10
469.9355280041
 20
1689.127747904
 30
0.0
 11
469.9617801248
 21
1688.5925564016
 31
0.0
  0
LINE
  5
3F0
330
1F
100
AcDbEntity
  8
0
  6
Continuous
 62
     7
370
    15
100
AcDbLine
 10
430.445925334
 20
1679.9290874074
 30
0.0
 11
430.658875966
 21
1679.4373844782
 31
0.0
  0
LINE
  5
3F1
330
1F
100
AcDbEntity
  8
0
  6
Continuous
 62
     7
370
    15
100
AcDbLine
 10
441.0034236512
 20
1719.6052395771
 30
0.0
 11
441.4325864068
 21
1719.926080204
 31
0.0
  0
LINE
  5
3F2
330
1F
100
AcDbEntity
  8
0
  6
Continuous
 62
     7
370
    15
100
AcDbLine
 10
457.4331501513
 20
1718.2347760568
 30
0.0
 11
457.0630742251
 21
1718.6222844789
 31
0.0
  0
LINE
  5
3F3
330
1F
100
AcDbEntity
  8
0
  6
Continuous
 62
     7
370
    15
100
AcDbLine
 10
456.5273905187
 20
1718.6350398729
 30
0.0
 11
457.0630742251
 21
1718.6222844789
 31
0.0
  0
LINE
  5
3F4
330
1F
100
AcDbEntity
  8
0
  6
Continuous
 62
     7
370
    15
100
AcDbLine
 10
431.8960970282
 20
1678.5808471064
 30
0.0
 11
432.1491839378
 21
1678.1085492144
 31
0.0
  0
LINE
  5
3F5
330
1F
100
AcDbEntity
  8
0
  6
Continuous
 62
     7
370
    15
100
AcDbLine
 10
467.3720290898
 20
1683.7842869604
 30
0.0
 11
467.8058931618
 21
1684.0987405772
 31
0.0
  0
LINE
  5
3F6
330
1F
100
AcDbEntity
  8
0
  6
Continuous
 62
     7
370
    15
100
AcDbLine
 10
426.5878992169
 20
1708.2834481294
 30
0.0
 11
426.1744944393
 21
1707.9425449515
 31
0.0
  0
LINE
  5
3F7
330
1F
100
AcDbEntity
  8
0
  6
Continuous
 62
     7
370
    15
100
AcDbLine
 10
470.8732152372
 20
1692.971782762
 30
0.0
 11
470.9877716391
 21
1692.4483361686
 31
0.0
  0
LINE
  5
3F8
330
1F
100
AcDbEntity
  8
0
  6
Continuous
 62
     7
370
    15
100
AcDbLine
 10
433.453323321
 20
1677.3578194002
 30
0.0
 11
433.7447937592
 21
1676.908193625
 31
0.0
  0
LINE
  5
3F9
330
1F
100
AcDbEntity
  8
0
  6
Continuous
 62
     7
370
    15
100
AcDbLine
 10
437.2915932923
 20
1718.2347760568
 30
0.0
 11
437.6616692185
 21
1718.6222844789
 31
0.0
  0
LINE
  5
3FA
330
1F
100
AcDbEntity
  8
0
  6
Continuous
 62
     7
370
    15
100
AcDbLine
 10
453.7213197923
 20
1719.6052395771
 30
0.0
 11
453.2921570367
 21
1719.926080204
 31
0.0
  0
LINE
  5
3FB
330
1F
100
AcDbEntity
  8
0
  6
Continuous
 62
     7
370
    15
100
AcDbLine
 10
452.7617632425
 20
1719.8499110559
 30
0.0
 11
453.2921570367
 21
1719.926080204
 31
0.0
  0
LINE
  5
3FC
330
1F
100
AcDbEntity
  8
0
  6
Continuous
 62
     7
370
    15
100
AcDbLine
 10
435.1068232223
 20
1676.2684681485
 30
0.0
 11
435.4346608757
 21
1675.8446269701
 31
0.0
  0
LINE
  5
3FD
330
1F
100
AcDbEntity
  8
0
  6
Continuous
 62
     7
370
    15
100
AcDbLine
 10
471.150782892
 20
1695.9278406607
 30
0.0
 11
471.3296210407
 21
1695.4227306446
 31
0.0
  0
LINE
  5
3FE
330
1F
100
AcDbEntity
  8
0
  6
Continuous
 62
     7
370
    15
100
AcDbLine
 10
471.150782892
 20
1695.9278406607
 30
0.0
 11
471.3607793688
 21
1696.4208120803
 31
0.0
  0
LINE
  5
3FF
330
1F
100
AcDbEntity
  8
0
  6
Continuous
 62
     7
370
    15
100
AcDbLine
 10
471.1610833197
 20
1696.918045494
 30
0.0
 11
471.3607793688
 21
1696.4208120803
 31
0.0
  0
LINE
  5
400
330
1F
100
AcDbEntity
  8
0
  6
Continuous
 62
     7
370
    15
100
AcDbLine
 10
450.8162862635
 20
1720.2185136298
 30
0.0
 11
450.3505162443
 21
1720.4834246109
 31
0.0
  0
LINE
  5
401
330
1F
100
AcDbEntity
  8
0
  6
Continuous
 62
     7
370
    15
100
AcDbLine
 10
449.8337334967
 20
1720.3418077002
 30
0.0
 11
450.3505162443
 21
1720.4834246109
 31
0.0
  0
LINE
  5
402
330
1F
100
AcDbEntity
  8
0
  6
Continuous
 62
     7
370
    15
100
AcDbLine
 10
437.7423906713
 20
1674.9013164113
 30
0.0
 11
438.1204489633
 21
1674.5215901206
 31
0.0
  0
LINE
  5
403
330
1F
100
AcDbEntity
  8
0
  6
Continuous
 62
     7
370
    15
100
AcDbLine
 10
424.128015527
 20
1701.8284443798
 30
0.0
 11
424.0463329493
 21
1702.3580167475
 31
0.0
  0
LINE
  5
404
330
1F
100
AcDbEntity
  8
0
  6
Continuous
 62
     7
370
    15
100
AcDbLine
 10
438.6562816813
 20
1674.5199826578
 30
0.0
 11
439.0498083099
 21
1674.1563123683
 31
0.0
  0
LINE
  5
405
330
1F
100
AcDbEntity
  8
0
  6
Continuous
 62
     7
370
    15
100
AcDbLine
 10
423.933562824
 20
1700.8574656243
 30
0.0
 11
423.8299215227
 21
1701.3831818508
 31
0.0
  0
LINE
  5
406
330
1F
100
AcDbEntity
  8
0
  6
Continuous
 62
     7
370
    15
100
AcDbLine
 10
423.933562824
 20
1700.8574656243
 30
0.0
 11
423.6542498707
 21
1700.4001881028
 31
0.0
  0
LINE
  5
407
330
1F
100
AcDbEntity
  8
0
  6
Continuous
 62
     7
370
    15
100
AcDbLine
 10
440.5276710182
 20
1673.8729481617
 30
0.0
 11
439.9935589186
 21
1673.8300104658
 31
0.0
  0
LINE
  5
408
330
1F
100
AcDbEntity
  8
0
  6
Continuous
 62
     7
370
    15
100
AcDbLine
 10
440.5276710182
 20
1673.8729481617
 30
0.0
 11
440.9500658526
 21
1673.5432487945
 31
0.0
  0
LINE
  5
409
330
1F
100
AcDbEntity
  8
0
  6
Continuous
 62
     7
370
    15
100
AcDbLine
 10
468.3739403277
 20
1685.4921863446
 30
0.0
 11
468.3111617356
 21
1684.960041664
 31
0.0
  0
LINE
  5
40A
330
1F
100
AcDbEntity
  8
0
  6
Continuous
 62
     7
370
    15
100
AcDbLine
 10
445.8778412095
 20
1720.4241235773
 30
0.0
 11
445.3673968106
 21
1720.587114341
 31
0.0
  0
LINE
  5
40B
330
1F
100
AcDbEntity
  8
0
  6
Continuous
 62
     7
370
    15
100
AcDbLine
 10
442.4463678165
 20
1673.3837132374
 30
0.0
 11
441.9176736861
 21
1673.2965265433
 31
0.0
  0
LINE
  5
40C
330
1F
100
AcDbEntity
  8
0
  6
Continuous
 62
     7
370
    15
100
AcDbLine
 10
442.4463678165
 20
1673.3837132374
 30
0.0
 11
442.8947074353
 21
1673.0902665327
 31
0.0
  0
LINE
  5
40D
330
1F
100
AcDbEntity
  8
0
  6
Continuous
 62
     7
370
    15
100
AcDbLine
 10
429.4346170514
 20
1712.3240814576
 30
0.0
 11
429.6164838611
 21
1712.8281095097
 31
0.0
  0
LINE
  5
40E
330
1F
100
AcDbEntity
  8
0
  6
Continuous
 62
     7
370
    15
100
AcDbLine
 10
470.0875589638
 20
1703.7419485892
 30
0.0
 11
470.1249403893
 21
1704.2764779212
 31
0.0
  0
LINE
  5
40F
330
1F
100
AcDbEntity
  8
0
  6
Continuous
 62
     7
370
    15
100
AcDbLine
 10
444.399092115
 20
1673.0556641737
 30
0.0
 11
443.87947512
 21
1672.9248301158
 31
0.0
  0
LINE
  5
410
330
1F
100
AcDbEntity
  8
0
  6
Continuous
 62
     7
370
    15
100
AcDbLine
 10
444.399092115
 20
1673.0556641737
 30
0.0
 11
444.8702726527
 21
1672.8005004147
 31
0.0
  0
LINE
  5
411
330
1F
100
AcDbEntity
  8
0
  6
Continuous
 62
     7
370
    15
100
AcDbLine
 10
428.1954569756
 20
1710.7796627129
 30
0.0
 11
428.3347977339
 21
1711.2970626945
 31
0.0
  0
LINE
  5
412
330
1F
100
AcDbEntity
  8
0
  6
Continuous
 62
     7
370
    15
100
AcDbLine
 10
469.9355280041
 20
1689.127747904
 30
0.0
 11
470.278247261
 21
1689.539649527
 31
0.0
  0
LINE
  5
413
330
1F
100
AcDbEntity
  8
0
  6
Continuous
 62
     7
370
    15
100
AcDbLine
 10
466.2316134214
 20
1682.1655822019
 30
0.0
 11
466.6901165634
 21
1682.4428825671
 31
0.0
  0
LINE
  5
414
330
1F
100
AcDbEntity
  8
0
  6
Continuous
 62
     7
370
    15
100
AcDbLine
 10
441.0034236512
 20
1719.6052395771
 30
0.0
 11
440.4703206397
 21
1719.6592805008
 31
0.0
  0
LINE
  5
415
330
1F
100
AcDbEntity
  8
0
  6
Continuous
 62
     7
370
    15
100
AcDbLine
 10
424.128015527
 20
1701.8284443798
 30
0.0
 11
423.8299215227
 21
1701.3831818508
 31
0.0
  0
LINE
  5
416
330
1F
100
AcDbEntity
  8
0
  6
Continuous
 62
     7
370
    15
100
AcDbLine
 10
456.5273905187
 20
1718.6350398729
 30
0.0
 11
456.141514705
 21
1719.0068182568
 31
0.0
  0
LINE
  5
417
330
1F
100
AcDbEntity
  8
0
  6
Continuous
 62
     7
370
    15
100
AcDbLine
 10
463.2016317933
 20
1714.4344155709
 30
0.0
 11
462.9584243535
 21
1714.9118785778
 31
0.0
  0
LINE
  5
418
330
1F
100
AcDbEntity
  8
0
  6
Continuous
 62
     7
370
    15
100
AcDbLine
 10
470.7911806195
 20
1700.8574656243
 30
0.0
 11
471.0704935729
 21
1700.4001881028
 31
0.0
  0
LINE
  5
419
330
1F
100
AcDbEntity
  8
0
  6
Continuous
 62
     7
370
    15
100
AcDbLine
 10
426.1228004485
 20
1707.4092100406
 30
0.0
 11
426.1744944393
 21
1707.9425449515
 31
0.0
  0
LINE
  5
41A
330
1F
100
AcDbEntity
  8
0
  6
Continuous
 62
     7
370
    15
100
AcDbLine
 10
470.8732152372
 20
1692.971782762
 30
0.0
 11
471.1429560571
 21
1693.4347720849
 31
0.0
  0
LINE
  5
41B
330
1F
100
AcDbEntity
  8
0
  6
Continuous
 62
     7
370
    15
100
AcDbLine
 10
468.3739403277
 20
1685.4921863446
 30
0.0
 11
468.7801646083
 21
1685.841616712
 31
0.0
  0
LINE
  5
41C
330
1F
100
AcDbEntity
  8
0
  6
Continuous
 62
     7
370
    15
100
AcDbLine
 10
444.8910099468
 20
1720.3418077002
 30
0.0
 11
445.3673968106
 21
1720.587114341
 31
0.0
  0
LINE
  5
41D
330
1F
100
AcDbEntity
  8
0
  6
Continuous
 62
     7
370
    15
100
AcDbLine
 10
460.8666347354
 20
1716.2682958911
 30
0.0
 11
460.5658724918
 21
1716.7117618988
 31
0.0
  0
LINE
  5
41E
330
1F
100
AcDbEntity
  8
0
  6
Continuous
 62
     7
370
    15
100
AcDbLine
 10
471.0992993801
 20
1694.9389214892
 30
0.0
 11
471.3296210407
 21
1695.4227306446
 31
0.0
  0
LINE
  5
41F
330
1F
100
AcDbEntity
  8
0
  6
Continuous
 62
     7
370
    15
100
AcDbLine
 10
429.4346170514
 20
1712.3240814576
 30
0.0
 11
428.9597114562
 21
1712.0759212444
 31
0.0
  0
LINE
  5
420
330
1F
100
AcDbEntity
  8
0
  6
Continuous
 62
     7
370
    15
100
AcDbLine
 10
465.9257745384
 20
1711.564763918
 30
0.0
 11
465.7650319873
 21
1712.0759212444
 31
0.0
  0
LINE
  5
421
330
1F
100
AcDbEntity
  8
0
  6
Continuous
 62
     7
370
    15
100
AcDbLine
 10
424.6371844797
 20
1703.7419485892
 30
0.0
 11
424.5998030542
 21
1704.2764779212
 31
0.0
  0
LINE
  5
422
330
1F
100
AcDbEntity
  8
0
  6
Continuous
 62
     7
370
    15
100
AcDbLine
 10
434.6850374728
 20
1716.8130897949
 30
0.0
 11
434.1588709517
 21
1716.7117618988
 31
0.0
  0
LINE
  5
423
330
1F
100
AcDbEntity
  8
0
  6
Continuous
 62
     7
370
    15
100
AcDbLine
 10
466.2316134214
 20
1682.1655822019
 30
0.0
 11
466.0815401017
 21
1681.6511922548
 31
0.0
  0
LINE
  5
424
330
1F
100
AcDbEntity
  8
0
  6
Continuous
 62
     7
370
    15
100
AcDbLine
 10
449.8337334967
 20
1720.3418077002
 30
0.0
 11
449.357346633
 21
1720.587114341
 31
0.0
  0
LINE
  5
425
330
1F
100
AcDbEntity
  8
0
  6
Continuous
 62
     7
370
    15
100
AcDbLine
 10
448.846902234
 20
1720.4241235773
 30
0.0
 11
449.357346633
 21
1720.587114341
 31
0.0
  0
LINE
  5
426
330
1F
100
AcDbEntity
  8
0
  6
Continuous
 62
     7
370
    15
100
AcDbLine
 10
448.846902234
 20
1720.4241235773
 30
0.0
 11
448.3607233283
 21
1720.6493993322
 31
0.0
  0
LINE
  5
427
330
1F
100
AcDbEntity
  8
0
  6
Continuous
 62
     7
370
    15
100
AcDbLine
 10
467.3720290898
 20
1683.7842869604
 30
0.0
 11
467.2652324676
 21
1683.2592026363
 31
0.0
  0
LINE
  5
428
330
1F
100
AcDbEntity
  8
0
  6
Continuous
 62
     7
370
    15
100
AcDbLine
 10
423.5636601239
 20
1696.918045494
 30
0.0
 11
423.3639640748
 21
1696.4208120803
 31
0.0
  0
LINE
  5
429
330
1F
100
AcDbEntity
  8
0
  6
Continuous
 62
     7
370
    15
100
AcDbLine
 10
423.7796710818
 20
1699.8792381524
 30
0.0
 11
423.6542498707
 21
1700.4001881028
 31
0.0
  0
LINE
  5
42A
330
1F
100
AcDbEntity
  8
0
  6
Continuous
 62
     7
370
    15
100
AcDbLine
 10
431.5231116503
 20
1714.4344155709
 30
0.0
 11
431.0210039853
 21
1714.2473165909
 31
0.0
  0
LINE
  5
42B
330
1F
100
AcDbEntity
  8
0
  6
Continuous
 62
     7
370
    15
100
AcDbLine
 10
430.7978684097
 20
1713.7601510654
 30
0.0
 11
431.0210039853
 21
1714.2473165909
 31
0.0
  0
LINE
  5
42C
330
1F
100
AcDbEntity
  8
0
  6
Continuous
 62
     7
370
    15
100
AcDbLine
 10
430.7978684097
 20
1713.7601510654
 30
0.0
 11
430.3039787351
 21
1713.5523245702
 31
0.0
  0
LINE
  5
42D
330
1F
100
AcDbEntity
  8
0
  6
Continuous
 62
     7
370
    15
100
AcDbLine
 10
433.8581087082
 20
1716.2682958911
 30
0.0
 11
433.3366118386
 21
1716.1451675961
 31
0.0
  0
LINE
  5
42E
330
1F
100
AcDbEntity
  8
0
  6
Continuous
 62
     7
370
    15
100
AcDbLine
 10
444.8910099468
 20
1720.3418077002
 30
0.0
 11
444.3742271992
 21
1720.4834246109
 31
0.0
  0
LINE
  5
42F
330
1F
100
AcDbEntity
  8
0
  6
Continuous
 62
     7
370
    15
100
AcDbLine
 10
460.0397059708
 20
1716.8130897949
 30
0.0
 11
460.5658724918
 21
1716.7117618988
 31
0.0
  0
LINE
  5
430
330
1F
100
AcDbEntity
  8
0
  6
Continuous
 62
     7
370
    15
100
AcDbLine
 10
463.2016317933
 20
1714.4344155709
 30
0.0
 11
463.7037394582
 21
1714.2473165909
 31
0.0
  0
LINE
  5
431
330
1F
100
AcDbEntity
  8
0
  6
Continuous
 62
     7
370
    15
100
AcDbLine
 10
469.7737256079
 20
1704.6811613286
 30
0.0
 11
470.1249403893
 21
1704.2764779212
 31
0.0
  0
LINE
  5
432
330
1F
100
AcDbEntity
  8
0
  6
Continuous
 62
     7
370
    15
100
AcDbLine
 10
428.7989689051
 20
1711.564763918
 30
0.0
 11
428.3347977339
 21
1711.2970626945
 31
0.0
  0
LINE
  5
433
330
1F
100
AcDbEntity
  8
0
  6
Continuous
 62
     7
370
    15
100
AcDbLine
 10
471.1610833197
 20
1696.918045494
 30
0.0
 11
471.3503913968
 21
1697.4193257661
 31
0.0
  0
LINE
  5
434
330
1F
100
AcDbEntity
  8
0
  6
Continuous
 62
     7
370
    15
100
AcDbLine
 10
428.1954569756
 20
1710.7796627129
 30
0.0
 11
427.7428230285
 21
1710.4928842778
 31
0.0
  0
LINE
  5
435
330
1F
100
AcDbEntity
  8
0
  6
Continuous
 62
     7
370
    15
100
AcDbLine
 10
433.8581087082
 20
1716.2682958911
 30
0.0
 11
434.1588709517
 21
1716.7117618988
 31
0.0
  0
LINE
  5
436
330
1F
100
AcDbEntity
  8
0
  6
Continuous
 62
     7
370
    15
100
AcDbLine
 10
424.9510178357
 20
1704.6811613286
 30
0.0
 11
424.5998030542
 21
1704.2764779212
 31
0.0
  0
LINE
  5
437
330
1F
100
AcDbEntity
  8
0
  6
Continuous
 62
     7
370
    15
100
AcDbLine
 10
470.7911806195
 20
1700.8574656243
 30
0.0
 11
470.8948219209
 21
1701.3831818508
 31
0.0
  0
LINE
  5
438
330
1F
100
AcDbEntity
  8
0
  6
Continuous
 62
     7
370
    15
100
AcDbLine
 10
452.7617632425
 20
1719.8499110559
 30
0.0
 11
452.3196257665
 21
1720.152620695
 31
0.0
  0
LINE
  5
439
330
1F
100
AcDbEntity
  8
0
  6
Continuous
 62
     7
370
    15
100
AcDbLine
 10
460.0397059708
 20
1716.8130897949
 30
0.0
 11
459.7207559287
 21
1717.2436588476
 31
0.0
  0
LINE
  5
43A
330
1F
100
AcDbEntity
  8
0
  6
Continuous
 62
     7
370
    15
100
AcDbLine
 10
426.1228004485
 20
1707.4092100406
 30
0.0
 11
425.7239336162
 21
1707.0514042894
 31
0.0
  0
LINE
  5
43B
330
1F
100
AcDbEntity
  8
0
  6
Continuous
 62
     7
370
    15
100
AcDbLine
 10
469.7737256079
 20
1704.6811613286
 30
0.0
 11
469.788837248
 21
1705.2167826364
 31
0.0
  0
LINE
  5
43C
330
1F
100
AcDbEntity
  8
0
  6
Continuous
 62
     7
370
    15
100
AcDbLine
 10
424.6371844797
 20
1703.7419485892
 30
0.0
 11
424.3031078964
 21
1703.3230057018
 31
0.0
  0
LINE
  5
43D
330
1F
100
AcDbEntity
  8
0
  6
Continuous
 62
     7
370
    15
100
AcDbLine
 10
423.5739605515
 20
1695.9278406607
 30
0.0
 11
423.3639640748
 21
1696.4208120803
 31
0.0
  0
LINE
  5
43E
330
1F
100
AcDbEntity
  8
0
  6
Continuous
 62
     7
370
    15
100
AcDbLine
 10
423.7796710818
 20
1699.8792381524
 30
0.0
 11
423.519619742
 21
1699.4107374954
 31
0.0
  0
LINE
  5
43F
330
1F
100
AcDbEntity
  8
0
  6
Continuous
 62
     7
370
    15
100
AcDbLine
 10
423.5739605515
 20
1695.9278406607
 30
0.0
 11
423.3951224028
 21
1695.4227306446
 31
0.0
  0
CIRCLE
  5
440
330
1F
100
AcDbEntity
  8
0
  6
Continuous
 62
     7
370
    15
100
AcDbCircle
 10
447.3623717218
 20
1696.6704675029
 30
0.0
 40
7.5
  0
CIRCLE
  5
441
330
1F
100
AcDbEntity
  8
0
  6
Continuous
 62
     7
370
    15
100
AcDbCircle
 10
447.3623717218
 20
1696.6704675029
 30
0.0
 40
13.5
  0
LINE
  5
442
330
1F
100
AcDbEntity
  8
0
  6
Continuous
 62
     7
370
    15
100
AcDbLine
 10
1427.6026216829
 20
334.0569755543
 30
0.0
 11
1426.09208911
 21
333.1449220438
 31
0.0
  0
ARC
  5
443
330
1F
100
AcDbEntity
  8
0
  6
Continuous
 62
     7
370
    15
100
AcDbCircle
 10
1450.102622577
 20
295.0858323831
 30
0.0
 40
45.00000000000009
100
AcDbArc
 50
237.7531924889
 51
251.2026311756
  0
ARC
  5
444
330
1F
100
AcDbEntity
  8
0
  6
Continuous
 62
     7
370
    15
100
AcDbCircle
 10
1450.102622577
 20
295.0858323831
 30
0.0
 40
44.99999999999996
100
AcDbArc
 50
290.1478862872
 51
303.6901904174
  0
LINE
  5
445
330
1F
100
AcDbEntity
  8
0
  6
Continuous
 62
     7
370
    15
100
AcDbLine
 10
1475.0642114812
 20
332.52804191
 30
0.0
 11
1472.602623471
 21
334.0569755543
 31
0.0
  0
ARC
  5
446
330
1F
100
AcDbEntity
  8
0
  6
Continuous
 62
     7
370
    15
100
AcDbCircle
 10
1420.102622577
 20
347.0473566102
 30
0.0
 40
15.0
100
AcDbArc
 50
300.0
 51
0.0
  0
ARC
  5
447
330
1F
100
AcDbEntity
  8
0
  6
Continuous
 62
     7
370
    15
100
AcDbCircle
 10
1480.102622577
 20
347.0473566102
 30
0.0
 40
15.00000000000016
100
AcDbArc
 50
194.8351115819
 51
240.0
  0
LINE
  5
448
330
1F
100
AcDbEntity
  8
0
  6
Continuous
 62
     7
370
    15
100
AcDbLine
 10
1435.1026229122
 20
347.0858319212
 30
0.0
 11
1435.1026229122
 21
347.0473561917
 31
0.0
  0
LINE
  5
449
330
1F
100
AcDbEntity
  8
0
  6
Continuous
 62
     7
370
    15
100
AcDbLine
 10
1442.6026227446
 20
403.5858328004
 30
0.0
 11
1442.102622197
 21
403.5858328004
 31
0.0
  0
LINE
  5
44A
330
1F
100
AcDbEntity
  8
0
  6
Continuous
 62
     7
370
    15
100
AcDbLine
 10
1442.102622197
 20
398.5858338434
 30
0.0
 11
1442.6026227446
 21
398.5858338434
 31
0.0
  0
LINE
  5
44B
330
1F
100
AcDbEntity
  8
0
  6
Continuous
 62
     7
370
    15
100
AcDbLine
 10
1453.102622603
 20
407.0858324427
 30
0.0
 11
1453.102622603
 21
1407.0857951898
 31
0.0
  0
LINE
  5
44C
330
1F
100
AcDbEntity
  8
0
  6
Continuous
 62
     7
370
    15
100
AcDbLine
 10
1447.1026225509
 20
1407.0857951898
 30
0.0
 11
1447.1026225509
 21
407.0858324427
 31
0.0
  0
ARC
  5
44D
330
1F
100
AcDbEntity
  8
0
  6
Continuous
 62
     7
370
    15
100
AcDbCircle
 10
1431.102622577
 20
384.5858323831
 30
0.0
 40
1.5
100
AcDbArc
 50
90.0
 51
270.0
  0
ARC
  5
44E
330
1F
100
AcDbEntity
  8
0
  6
Continuous
 62
     7
370
    15
100
AcDbCircle
 10
1469.102622577
 20
384.5858323831
 30
0.0
 40
1.5
100
AcDbArc
 50
270.0
 51
90.0
  0
LINE
  5
44F
330
1F
100
AcDbEntity
  8
0
  6
Continuous
 62
     7
370
    15
100
AcDbLine
 10
1431.1026231879
 20
383.0858322341
 30
0.0
 11
1431.1026231879
 21
369.5858328153
 31
0.0
  0
LINE
  5
450
330
1F
100
AcDbEntity
  8
0
  6
Continuous
 62
     7
370
    15
100
AcDbLine
 10
1469.102621966
 20
369.5858328153
 30
0.0
 11
1469.102621966
 21
383.0858322341
 31
0.0
  0
LINE
  5
451
330
1F
100
AcDbEntity
  8
0
  6
Continuous
 62
     7
370
    15
100
AcDbLine
 10
1431.1026231879
 20
348.5858321671
 30
0.0
 11
1432.1026233518
 21
347.8358325098
 31
0.0
  0
LINE
  5
452
330
1F
100
AcDbEntity
  8
0
  6
Continuous
 62
     7
370
    15
100
AcDbLine
 10
1468.1026218021
 20
347.8358325098
 30
0.0
 11
1469.102621966
 21
348.5858321671
 31
0.0
  0
LINE
  5
453
330
1F
100
AcDbEntity
  8
0
  6
Continuous
 62
     7
370
    15
100
AcDbLine
 10
1469.102621966
 20
348.5858321671
 30
0.0
 11
1468.1026218021
 21
349.33583229
 31
0.0
  0
LINE
  5
454
330
1F
100
AcDbEntity
  8
0
  6
Continuous
 62
     7
370
    15
100
AcDbLine
 10
1432.1026233518
 20
349.33583229
 30
0.0
 11
1431.1026231879
 21
348.5858321671
 31
0.0
  0
LINE
  5
455
330
1F
100
AcDbEntity
  8
0
  6
Continuous
 62
     7
370
    15
100
AcDbLine
 10
1469.102621966
 20
347.0858319212
 30
0.0
 11
1468.1026218021
 21
347.8358325098
 31
0.0
  0
LINE
  5
456
330
1F
100
AcDbEntity
  8
0
  6
Continuous
 62
     7
370
    15
100
AcDbLine
 10
1432.1026233518
 20
347.8358325098
 30
0.0
 11
1431.1026231879
 21
347.0858319212
 31
0.0
  0
LINE
  5
457
330
1F
100
AcDbEntity
  8
0
  6
Continuous
 62
     7
370
    15
100
AcDbLine
 10
1431.1026231879
 20
350.0858324129
 30
0.0
 11
1432.1026233518
 21
349.33583229
 31
0.0
  0
LINE
  5
458
330
1F
100
AcDbEntity
  8
0
  6
Continuous
 62
     7
370
    15
100
AcDbLine
 10
1468.1026218021
 20
349.33583229
 30
0.0
 11
1469.102621966
 21
350.0858324129
 31
0.0
  0
LINE
  5
459
330
1F
100
AcDbEntity
  8
0
  6
Continuous
 62
     7
370
    15
100
AcDbLine
 10
1469.102621966
 20
350.0858324129
 30
0.0
 11
1468.1026218021
 21
350.8358325359
 31
0.0
  0
LINE
  5
45A
330
1F
100
AcDbEntity
  8
0
  6
Continuous
 62
     7
370
    15
100
AcDbLine
 10
1432.1026233518
 20
350.8358325359
 30
0.0
 11
1431.1026231879
 21
350.0858324129
 31
0.0
  0
LINE
  5
45B
330
1F
100
AcDbEntity
  8
0
  6
Continuous
 62
     7
370
    15
100
AcDbLine
 10
1431.1026231879
 20
351.5858321931
 30
0.0
 11
1432.1026233518
 21
350.8358325359
 31
0.0
  0
LINE
  5
45C
330
1F
100
AcDbEntity
  8
0
  6
Continuous
 62
     7
370
    15
100
AcDbLine
 10
1468.1026218021
 20
350.8358325359
 30
0.0
 11
1469.102621966
 21
351.5858321931
 31
0.0
  0
LINE
  5
45D
330
1F
100
AcDbEntity
  8
0
  6
Continuous
 62
     7
370
    15
100
AcDbLine
 10
1469.102621966
 20
351.5858321931
 30
0.0
 11
1468.1026218021
 21
352.3358323161
 31
0.0
  0
LINE
  5
45E
330
1F
100
AcDbEntity
  8
0
  6
Continuous
 62
     7
370
    15
100
AcDbLine
 10
1432.1026233518
 20
352.3358323161
 30
0.0
 11
1431.1026231879
 21
351.5858321931
 31
0.0
  0
LINE
  5
45F
330
1F
100
AcDbEntity
  8
0
  6
Continuous
 62
     7
370
    15
100
AcDbLine
 10
1469.102621966
 20
353.085832439
 30
0.0
 11
1468.1026218021
 21
353.8358323291
 31
0.0
  0
LINE
  5
460
330
1F
100
AcDbEntity
  8
0
  6
Continuous
 62
     7
370
    15
100
AcDbLine
 10
1432.1026233518
 20
353.8358323291
 30
0.0
 11
1431.1026231879
 21
353.085832439
 31
0.0
  0
LINE
  5
461
330
1F
100
AcDbEntity
  8
0
  6
Continuous
 62
     7
370
    15
100
AcDbLine
 10
1431.1026231879
 20
353.085832439
 30
0.0
 11
1432.1026233518
 21
352.3358323161
 31
0.0
  0
LINE
  5
462
330
1F
100
AcDbEntity
  8
0
  6
Continuous
 62
     7
370
    15
100
AcDbLine
 10
1468.1026218021
 20
352.3358323161
 30
0.0
 11
1469.102621966
 21
353.085832439
 31
0.0
  0
LINE
  5
463
330
1F
100
AcDbEntity
  8
0
  6
Continuous
 62
     7
370
    15
100
AcDbLine
 10
1469.102621966
 20
354.5858323356
 30
0.0
 11
1468.1026218021
 21
355.3358323712
 31
0.0
  0
LINE
  5
464
330
1F
100
AcDbEntity
  8
0
  6
Continuous
 62
     7
370
    15
100
AcDbLine
 10
1432.1026233518
 20
355.3358323712
 30
0.0
 11
1431.1026231879
 21
354.5858323356
 31
0.0
  0
LINE
  5
465
330
1F
100
AcDbEntity
  8
0
  6
Continuous
 62
     7
370
    15
100
AcDbLine
 10
1431.1026231879
 20
354.5858323356
 30
0.0
 11
1432.1026233518
 21
353.8358323291
 31
0.0
  0
LINE
  5
466
330
1F
100
AcDbEntity
  8
0
  6
Continuous
 62
     7
370
    15
100
AcDbLine
 10
1468.1026218021
 20
353.8358323291
 30
0.0
 11
1469.102621966
 21
354.5858323356
 31
0.0
  0
LINE
  5
467
330
1F
100
AcDbEntity
  8
0
  6
Continuous
 62
     7
370
    15
100
AcDbLine
 10
1431.7692899639
 20
355.5858323831
 30
0.0
 11
1432.1026233518
 21
355.3358323712
 31
0.0
  0
LINE
  5
468
330
1F
100
AcDbEntity
  8
0
  6
Continuous
 62
     7
370
    15
100
AcDbLine
 10
1468.1026218021
 20
355.3358323712
 30
0.0
 11
1468.4359551901
 21
355.5858323831
 31
0.0
  0
LINE
  5
469
330
1F
100
AcDbEntity
  8
0
  6
Continuous
 62
     7
370
    15
100
AcDbLine
 10
1442.6026227446
 20
407.0858324427
 30
0.0
 11
1442.6026227446
 21
403.5858328004
 31
0.0
  0
LINE
  5
46A
330
1F
100
AcDbEntity
  8
0
  6
Continuous
 62
     7
370
    15
100
AcDbLine
 10
1442.6026227446
 20
398.5858338434
 30
0.0
 11
1442.6026227446
 21
396.335833009
 31
0.0
  0
LINE
  5
46B
330
1F
100
AcDbEntity
  8
0
  6
Continuous
 62
     7
370
    15
100
AcDbLine
 10
1457.6026224093
 20
396.335833009
 30
0.0
 11
1457.6026224093
 21
407.0858324427
 31
0.0
  0
LINE
  5
46C
330
1F
100
AcDbEntity
  8
0
  6
Continuous
 62
     7
370
    15
100
AcDbLine
 10
1440.6026228824
 20
396.335833009
 30
0.0
 11
1460.6026224354
 21
396.335833009
 31
0.0
  0
LINE
  5
46D
330
1F
100
AcDbEntity
  8
0
  6
Continuous
 62
     7
370
    15
100
AcDbLine
 10
1465.6026223236
 20
101.3358423967
 30
0.0
 11
1465.6026223236
 21
391.3358340521
 31
0.0
  0
LINE
  5
46E
330
1F
100
AcDbEntity
  8
0
  6
Continuous
 62
     7
370
    15
100
AcDbLine
 10
1440.6026228824
 20
96.3358471651
 30
0.0
 11
1460.6026224354
 21
96.3358471651
 31
0.0
  0
ARC
  5
46F
330
1F
100
AcDbEntity
  8
0
  6
Continuous
 62
     7
370
    15
100
AcDbCircle
 10
1440.602622577
 20
101.3358323831
 30
0.0
 40
5.0
100
AcDbArc
 50
180.0
 51
270.0
  0
LINE
  5
470
330
1F
100
AcDbEntity
  8
0
  6
Continuous
 62
     7
370
    15
100
AcDbLine
 10
1435.6026229942
 20
101.3358423967
 30
0.0
 11
1435.6026229942
 21
391.3358340521
 31
0.0
  0
ARC
  5
471
330
1F
100
AcDbEntity
  8
0
  6
Continuous
 62
     7
370
    15
100
AcDbCircle
 10
1440.602622577
 20
391.3358323831
 30
0.0
 40
5.0
100
AcDbArc
 50
90.0
 51
180.0
  0
ARC
  5
472
330
1F
100
AcDbEntity
  8
0
  6
Continuous
 62
     7
370
    15
100
AcDbCircle
 10
1460.602622577
 20
101.3358323831
 30
0.0
 40
5.0
100
AcDbArc
 50
270.0
 51
0.0
  0
ARC
  5
473
330
1F
100
AcDbEntity
  8
0
  6
Continuous
 62
     7
370
    15
100
AcDbCircle
 10
1460.602622577
 20
391.3358323831
 30
0.0
 40
5.0
100
AcDbArc
 50
360.0
 51
90.0
  0
ARC
  5
474
330
1F
100
AcDbEntity
  8
0
  6
Continuous
 62
     7
370
    15
100
AcDbCircle
 10
1398.8634427804
 20
101.2164451444
 30
0.0
 40
4.882210385047923
100
AcDbArc
 50
178.5986591753
 51
268.5274213348
  0
ARC
  5
475
330
1F
100
AcDbEntity
  8
0
  6
Continuous
 62
     7
370
    15
100
AcDbCircle
 10
1398.8634820836
 20
391.4551975611
 30
0.0
 40
4.882248851382833
100
AcDbArc
 50
91.4730284565
 51
181.4009336684
  0
LINE
  5
476
330
1F
100
AcDbEntity
  8
0
  6
Continuous
 62
     7
370
    15
100
AcDbLine
 10
1393.9826925779
 20
101.3358423967
 30
0.0
 11
1393.9826925779
 21
125.0858346481
 31
0.0
  0
LINE
  5
477
330
1F
100
AcDbEntity
  8
0
  6
Continuous
 62
     7
370
    15
100
AcDbLine
 10
1393.9826925779
 20
137.0858291645
 30
0.0
 11
1393.9826925779
 21
355.5858323831
 31
0.0
  0
LINE
  5
478
330
1F
100
AcDbEntity
  8
0
  6
Continuous
 62
     7
370
    15
100
AcDbLine
 10
1393.9826925779
 20
367.5858324874
 30
0.0
 11
1393.9826925779
 21
391.3358340521
 31
0.0
  0
LINE
  5
479
330
1F
100
AcDbEntity
  8
0
  6
Continuous
 62
     7
370
    15
100
AcDbLine
 10
1566.4330748403
 20
96.3358471651
 30
0.0
 11
1566.1240545595
 21
96.3358471651
 31
0.0
  0
LWPOLYLINE
  5
47A
330
1F
100
AcDbEntity
  8
0
  6
Continuous
 62
     7
370
    15
100
AcDbPolyline
 90
        3
 70
   128
 43
0.0
 10
1566.1240545595
 20
96.3358471651
 10
1565.8226264203
 20
96.4319000501
 10
1565.6005618656
 20
96.6315458078
  0
LWPOLYLINE
  5
47B
330
1F
100
AcDbEntity
  8
0
  6
Continuous
 62
     7
370
    15
100
AcDbPolyline
 90
        3
 70
   128
 43
0.0
 10
1566.1240545595
 20
396.335833009
 10
1565.8226264203
 20
396.2397577722
 10
1565.6005618656
 20
396.0401045639
  0
LINE
  5
47C
330
1F
100
AcDbEntity
  8
0
  6
Continuous
 62
     7
370
    15
100
AcDbLine
 10
1566.4330748403
 20
396.335833009
 30
0.0
 11
1566.1240545595
 21
396.335833009
 31
0.0
  0
LINE
  5
47D
330
1F
100
AcDbEntity
  8
0
  6
Continuous
 62
     7
370
    15
100
AcDbLine
 10
1584.0064389193
 20
96.3358471651
 30
0.0
 11
1584.0064389193
 21
101.3358423967
 31
0.0
  0
LINE
  5
47E
330
1F
100
AcDbEntity
  8
0
  6
Continuous
 62
     7
370
    15
100
AcDbLine
 10
1584.0064389193
 20
96.3358471651
 30
0.0
 11
1580.6973976576
 21
96.3358471651
 31
0.0
  0
LINE
  5
47F
330
1F
100
AcDbEntity
  8
0
  6
Continuous
 62
     7
370
    15
100
AcDbLine
 10
1584.0064389193
 20
396.335833009
 30
0.0
 11
1580.6973976576
 21
396.335833009
 31
0.0
  0
LINE
  5
480
330
1F
100
AcDbEntity
  8
0
  6
Continuous
 62
     7
370
    15
100
AcDbLine
 10
1584.0064389193
 20
391.3358340521
 30
0.0
 11
1584.0064389193
 21
396.335833009
 31
0.0
  0
LINE
  5
481
330
1F
100
AcDbEntity
  8
0
  6
Continuous
 62
     7
370
    15
100
AcDbLine
 10
1584.0064389193
 20
101.3358423967
 30
0.0
 11
1584.0064389193
 21
391.3358340521
 31
0.0
  0
LWPOLYLINE
  5
482
330
1F
100
AcDbEntity
  8
0
  6
Continuous
 62
     7
370
    15
100
AcDbPolyline
 90
        9
 70
   128
 43
0.0
 10
1574.5170516455
 20
96.3358471651
 10
1574.2156235063
 20
96.4319000501
 10
1573.9257735694
 20
96.716422822
 10
1573.6586479032
 20
97.1784780283
 10
1573.424513408
 20
97.8003034849
 10
1573.2323629344
 20
98.5579679269
 10
1573.0895800078
 20
99.4224140901
 10
1573.0016557062
 20
100.3603825826
 10
1572.9719651425
 20
101.3358423967
  0
LINE
  5
483
330
1F
100
AcDbEntity
  8
0
  6
Continuous
 62
     7
370
    15
100
AcDbLine
 10
1574.5170516455
 20
96.3358471651
 30
0.0
 11
1566.4330748403
 21
96.3358471651
 31
0.0
  0
ARC
  5
484
330
1F
100
AcDbEntity
  8
0
  6
Continuous
 62
     7
370
    15
100
AcDbCircle
 10
1566.595956684
 20
97.2460009624
 30
0.0
 40
0.9246136651343079
100
AcDbArc
 50
210.962725699
 51
259.8537103643
  0
LINE
  5
485
330
1F
100
AcDbEntity
  8
0
  6
Continuous
 62
     7
370
    15
100
AcDbLine
 10
1574.5170516455
 20
396.335833009
 30
0.0
 11
1580.6973976576
 21
396.335833009
 31
0.0
  0
LWPOLYLINE
  5
486
330
1F
100
AcDbEntity
  8
0
  6
Continuous
 62
     7
370
    15
100
AcDbPolyline
 90
        9
 70
   128
 43
0.0
 10
1580.6973976576
 20
396.335833009
 10
1580.9988183463
 20
396.2397577722
 10
1581.2886757338
 20
395.955231275
 10
1581.5557939494
 20
395.493179794
 10
1581.7899358952
 20
394.8713655133
 10
1581.9820863688
 20
394.1136824448
 10
1582.1248692954
 20
393.2492511828
 10
1582.2127861464
 20
392.3112826903
 10
1582.2424841607
 20
391.3358340521
  0
LINE
  5
487
330
1F
100
AcDbEntity
  8
0
  6
Continuous
 62
     7
370
    15
100
AcDbLine
 10
1582.2424841607
 20
101.3358423967
 30
0.0
 11
1582.2424841607
 21
391.3358340521
 31
0.0
  0
LWPOLYLINE
  5
488
330
1F
100
AcDbEntity
  8
0
  6
Continuous
 62
     7
370
    15
100
AcDbPolyline
 90
        9
 70
   128
 43
0.0
 10
1580.6973976576
 20
96.3358471651
 10
1580.9988183463
 20
96.4319000501
 10
1581.2886757338
 20
96.716422822
 10
1581.5557939494
 20
97.1784780283
 10
1581.7899358952
 20
97.8003034849
 10
1581.9820863688
 20
98.5579679269
 10
1582.1248692954
 20
99.4224140901
 10
1582.2127861464
 20
100.3603825826
 10
1582.2424841607
 20
101.3358423967
  0
LINE
  5
489
330
1F
100
AcDbEntity
  8
0
  6
Continuous
 62
     7
370
    15
100
AcDbLine
 10
1574.5170516455
 20
96.3358471651
 30
0.0
 11
1580.6973976576
 21
96.3358471651
 31
0.0
  0
LINE
  5
48A
330
1F
100
AcDbEntity
  8
0
  6
Continuous
 62
     7
370
    15
100
AcDbLine
 10
1572.9719651425
 20
101.3358423967
 30
0.0
 11
1572.9719651425
 21
391.3358340521
 31
0.0
  0
LWPOLYLINE
  5
48B
330
1F
100
AcDbEntity
  8
0
  6
Continuous
 62
     7
370
    15
100
AcDbPolyline
 90
        9
 70
   128
 43
0.0
 10
1572.9719651425
 20
391.3358340521
 10
1573.0016557062
 20
392.3112826903
 10
1573.0895800078
 20
393.2492511828
 10
1573.2323629344
 20
394.1136824448
 10
1573.424513408
 20
394.8713655133
 10
1573.6586479032
 20
395.493179794
 10
1573.9257735694
 20
395.955231275
 10
1574.2156235063
 20
396.2397577722
 10
1574.5170516455
 20
396.335833009
  0
LINE
  5
48C
330
1F
100
AcDbEntity
  8
0
  6
Continuous
 62
     7
370
    15
100
AcDbLine
 10
1574.5170516455
 20
396.335833009
 30
0.0
 11
1566.4330748403
 21
396.335833009
 31
0.0
  0
ARC
  5
48D
330
1F
100
AcDbEntity
  8
0
  6
Continuous
 62
     7
370
    15
100
AcDbCircle
 10
1566.5960905526
 20
395.4255054999
 30
0.0
 40
0.9248082483038451
100
AcDbArc
 50
100.1525577715
 51
149.0333022186
  0
LINE
  5
48E
330
1F
100
AcDbEntity
  8
0
  6
Continuous
 62
     7
370
    15
100
AcDbLine
 10
1549.910197922
 20
101.3358423967
 30
0.0
 11
1549.910197922
 21
391.3358340521
 31
0.0
  0
LINE
  5
48F
330
1F
100
AcDbEntity
  8
0
  6
Continuous
 62
     7
370
    15
100
AcDbLine
 10
1543.0335504496
 20
101.3358423967
 30
0.0
 11
1543.0335504496
 21
391.3358340521
 31
0.0
  0
LINE
  5
490
330
1F
100
AcDbEntity
  8
0
  6
Continuous
 62
     7
370
    15
100
AcDbLine
 10
1552.8491241419
 20
396.335833009
 30
0.0
 11
1545.9724766696
 21
396.335833009
 31
0.0
  0
LWPOLYLINE
  5
491
330
1F
100
AcDbEntity
  8
0
  6
Continuous
 62
     7
370
    15
100
AcDbPolyline
 90
        9
 70
   128
 43
0.0
 10
1549.910197922
 20
391.3358340521
 10
1549.9666658724
 20
392.3112826903
 10
1550.133909055
 20
393.2492511828
 10
1550.4054901683
 20
394.1136824448
 10
1550.7709858501
 20
394.8713655133
 10
1551.2163443053
 20
395.493179794
 10
1551.7244440997
 20
395.955231275
 10
1552.2757647121
 20
396.2397577722
 10
1552.8491241419
 20
396.335833009
  0
LWPOLYLINE
  5
492
330
1F
100
AcDbEntity
  8
0
  6
Continuous
 62
     7
370
    15
100
AcDbPolyline
 90
        9
 70
   128
 43
0.0
 10
1543.0335504496
 20
391.3358340521
 10
1543.0900184
 20
392.3112826903
 10
1543.2572615826
 20
393.2492511828
 10
1543.5288501465
 20
394.1136824448
 10
1543.8943383777
 20
394.8713655133
 10
1544.3396968329
 20
395.493179794
 10
1544.8477966273
 20
395.955231275
 10
1545.3991172397
 20
396.2397577722
 10
1545.9724766696
 20
396.335833009
  0
LINE
  5
493
330
1F
100
AcDbEntity
  8
0
  6
Continuous
 62
     7
370
    15
100
AcDbLine
 10
1552.8491241419
 20
396.335833009
 30
0.0
 11
1564.6048290217
 21
396.335833009
 31
0.0
  0
LWPOLYLINE
  5
494
330
1F
100
AcDbEntity
  8
0
  6
Continuous
 62
     7
370
    15
100
AcDbPolyline
 90
        9
 70
   128
 43
0.0
 10
1564.6048290217
 20
396.335833009
 10
1565.178181001
 20
396.2397577722
 10
1565.7295016134
 20
395.955231275
 10
1566.2376088584
 20
395.493179794
 10
1566.682959863
 20
394.8713655133
 10
1567.0484555447
 20
394.1136824448
 10
1567.3200366581
 20
393.2492511828
 10
1567.4872798407
 20
392.3112826903
 10
1567.5437552416
 20
391.3358340521
  0
LINE
  5
495
330
1F
100
AcDbEntity
  8
0
  6
Continuous
 62
     7
370
    15
100
AcDbLine
 10
1567.5437552416
 20
101.3358423967
 30
0.0
 11
1567.5437552416
 21
391.3358340521
 31
0.0
  0
LWPOLYLINE
  5
496
330
1F
100
AcDbEntity
  8
0
  6
Continuous
 62
     7
370
    15
100
AcDbPolyline
 90
        9
 70
   128
 43
0.0
 10
1564.6048290217
 20
96.3358471651
 10
1565.178181001
 20
96.4319000501
 10
1565.7295016134
 20
96.716422822
 10
1566.2376088584
 20
97.1784780283
 10
1566.682959863
 20
97.8003034849
 10
1567.0484555447
 20
98.5579679269
 10
1567.3200366581
 20
99.4224140901
 10
1567.4872798407
 20
100.3603825826
 10
1567.5437552416
 20
101.3358423967
  0
LINE
  5
497
330
1F
100
AcDbEntity
  8
0
  6
Continuous
 62
     7
370
    15
100
AcDbLine
 10
1552.8491241419
 20
96.3358471651
 30
0.0
 11
1564.6048290217
 21
96.3358471651
 31
0.0
  0
LWPOLYLINE
  5
498
330
1F
100
AcDbEntity
  8
0
  6
Continuous
 62
     7
370
    15
100
AcDbPolyline
 90
        9
 70
   128
 43
0.0
 10
1552.8491241419
 20
96.3358471651
 10
1552.2757647121
 20
96.4319000501
 10
1551.7244440997
 20
96.716422822
 10
1551.2163443053
 20
97.1784780283
 10
1550.7709858501
 20
97.8003034849
 10
1550.4054901683
 20
98.5579679269
 10
1550.133909055
 20
99.4224140901
 10
1549.9666658724
 20
100.3603825826
 10
1549.910197922
 20
101.3358423967
  0
LINE
  5
499
330
1F
100
AcDbEntity
  8
0
  6
Continuous
 62
     7
370
    15
100
AcDbLine
 10
1552.8491241419
 20
96.3358471651
 30
0.0
 11
1545.9724766696
 21
96.3358471651
 31
0.0
  0
LWPOLYLINE
  5
49A
330
1F
100
AcDbEntity
  8
0
  6
Continuous
 62
     7
370
    15
100
AcDbPolyline
 90
        9
 70
   128
 43
0.0
 10
1545.9724766696
 20
96.3358471651
 10
1545.3991172397
 20
96.4319000501
 10
1544.8477966273
 20
96.716422822
 10
1544.3396968329
 20
97.1784780283
 10
1543.8943383777
 20
97.8003034849
 10
1543.5288501465
 20
98.5579679269
 10
1543.2572615826
 20
99.4224140901
 10
1543.0900184
 20
100.3603825826
 10
1543.0335504496
 20
101.3358423967
  0
LINE
  5
49B
330
1F
100
AcDbEntity
  8
0
  6
Continuous
 62
     7
370
    15
100
AcDbLine
 10
1517.0785588706
 20
101.3358423967
 30
0.0
 11
1517.0785588706
 21
391.3358340521
 31
0.0
  0
LINE
  5
49C
330
1F
100
AcDbEntity
  8
0
  6
Continuous
 62
     7
370
    15
100
AcDbLine
 10
1512.0823857868
 20
101.3358423967
 30
0.0
 11
1512.0823857868
 21
391.3358340521
 31
0.0
  0
LINE
  5
49D
330
1F
100
AcDbEntity
  8
0
  6
Continuous
 62
     7
370
    15
100
AcDbLine
 10
1521.1236429894
 20
396.335833009
 30
0.0
 11
1516.1274699056
 21
396.335833009
 31
0.0
  0
ARC
  5
49E
330
1F
100
AcDbEntity
  8
0
  6
Continuous
 62
     7
370
    15
100
AcDbCircle
 10
1521.6574667998
 20
391.7676901027
 30
0.0
 40
4.599227921411132
100
AcDbArc
 50
96.6652373037
 51
185.3878681495
  0
ARC
  5
49F
330
1F
100
AcDbEntity
  8
0
  6
Continuous
 62
     7
370
    15
100
AcDbCircle
 10
1516.661284119
 20
391.7676978668
 30
0.0
 40
4.599219095842254
100
AcDbArc
 50
96.6651297814
 51
185.3879756718
  0
LINE
  5
4A0
330
1F
100
AcDbEntity
  8
0
  6
Continuous
 62
     7
370
    15
100
AcDbLine
 10
1521.1236429894
 20
396.335833009
 30
0.0
 11
1537.3039869154
 21
396.335833009
 31
0.0
  0
ARC
  5
4A1
330
1F
100
AcDbEntity
  8
0
  6
Continuous
 62
     7
370
    15
100
AcDbCircle
 10
1536.770177268
 20
391.7677015608
 30
0.0
 40
4.599214896801278
100
AcDbArc
 50
354.6119731709
 51
83.3349213759
  0
LINE
  5
4A2
330
1F
100
AcDbEntity
  8
0
  6
Continuous
 62
     7
370
    15
100
AcDbLine
 10
1541.3490710342
 20
101.3358423967
 30
0.0
 11
1541.3490710342
 21
391.3358340521
 31
0.0
  0
ARC
  5
4A3
330
1F
100
AcDbEntity
  8
0
  6
Continuous
 62
     7
370
    15
100
AcDbCircle
 10
1536.77021902
 20
100.9039445134
 30
0.0
 40
4.599176181669615
100
AcDbArc
 50
276.6646113067
 51
5.3884523989
  0
LINE
  5
4A4
330
1F
100
AcDbEntity
  8
0
  6
Continuous
 62
     7
370
    15
100
AcDbLine
 10
1521.1236429894
 20
96.3358471651
 30
0.0
 11
1537.3039869154
 21
96.3358471651
 31
0.0
  0
ARC
  5
4A5
330
1F
100
AcDbEntity
  8
0
  6
Continuous
 62
     7
370
    15
100
AcDbCircle
 10
1521.6574250477
 20
100.9039559715
 30
0.0
 40
4.599189206025096
100
AcDbArc
 50
174.6117062815
 51
263.335230013
  0
LINE
  5
4A6
330
1F
100
AcDbEntity
  8
0
  6
Continuous
 62
     7
370
    15
100
AcDbLine
 10
1521.1236429894
 20
96.3358471651
 30
0.0
 11
1516.1274699056
 21
96.3358471651
 31
0.0
  0
ARC
  5
4A7
330
1F
100
AcDbEntity
  8
0
  6
Continuous
 62
     7
370
    15
100
AcDbCircle
 10
1516.6612423671
 20
100.9039482074
 30
0.0
 40
4.599180380625848
100
AcDbArc
 50
174.6115987587
 51
263.3353375358
  0
LINE
  5
4A8
330
1F
100
AcDbEntity
  8
0
  6
Continuous
 62
     7
370
    15
100
AcDbLine
 10
1516.1274699056
 20
96.3358471651
 30
0.0
 11
1515.3184560621
 21
96.3358471651
 31
0.0
  0
ARC
  5
4A9
330
1F
100
AcDbEntity
  8
0
  6
Continuous
 62
     7
370
    15
100
AcDbCircle
 10
1515.8522282874
 20
100.9039514279
 30
0.0
 40
4.599183551940351
100
AcDbArc
 50
174.6116427834
 51
263.3353451139
  0
LINE
  5
4AA
330
1F
100
AcDbEntity
  8
0
  6
Continuous
 62
     7
370
    15
100
AcDbLine
 10
1511.273368218
 20
101.3358423967
 30
0.0
 11
1511.273368218
 21
125.0858346481
 31
0.0
  0
LINE
  5
4AB
330
1F
100
AcDbEntity
  8
0
  6
Continuous
 62
     7
370
    15
100
AcDbLine
 10
1511.273368218
 20
137.0858291645
 30
0.0
 11
1511.273368218
 21
355.5858323831
 31
0.0
  0
LINE
  5
4AC
330
1F
100
AcDbEntity
  8
0
  6
Continuous
 62
     7
370
    15
100
AcDbLine
 10
1511.273368218
 20
367.5858324874
 30
0.0
 11
1511.273368218
 21
391.3358340521
 31
0.0
  0
ARC
  5
4AD
330
1F
100
AcDbEntity
  8
0
  6
Continuous
 62
     7
370
    15
100
AcDbCircle
 10
1515.8522700394
 20
391.7676946463
 30
0.0
 40
4.599222267218744
100
AcDbArc
 50
96.6651222035
 51
185.3879316468
  0
LINE
  5
4AE
330
1F
100
AcDbEntity
  8
0
  6
Continuous
 62
     7
370
    15
100
AcDbLine
 10
1516.1274699056
 20
396.335833009
 30
0.0
 11
1515.3184560621
 21
396.335833009
 31
0.0
  0
LINE
  5
4AF
330
1F
100
AcDbEntity
  8
0
  6
Continuous
 62
     7
370
    15
100
AcDbLine
 10
1479.8194942558
 20
96.3358471651
 30
0.0
 11
1478.8684369558
 21
96.3358471651
 31
0.0
  0
ARC
  5
4B0
330
1F
100
AcDbEntity
  8
0
  6
Continuous
 62
     7
370
    15
100
AcDbCircle
 10
1478.9939044572
 20
101.2164433492
 30
0.0
 40
4.882208640232441
100
AcDbArc
 50
178.5986376008
 51
268.5273980803
  0
LINE
  5
4B1
330
1F
100
AcDbEntity
  8
0
  6
Continuous
 62
     7
370
    15
100
AcDbLine
 10
1474.1131560439
 20
101.3358423967
 30
0.0
 11
1474.1131560439
 21
125.0858346481
 31
0.0
  0
LINE
  5
4B2
330
1F
100
AcDbEntity
  8
0
  6
Continuous
 62
     7
370
    15
100
AcDbLine
 10
1474.1131560439
 20
137.0858291645
 30
0.0
 11
1474.1131560439
 21
257.0267433781
 31
0.0
  0
LINE
  5
4B3
330
1F
100
AcDbEntity
  8
0
  6
Continuous
 62
     7
370
    15
100
AcDbLine
 10
1474.1131560439
 20
333.1449220438
 30
0.0
 11
1474.1131560439
 21
355.5858323831
 31
0.0
  0
LINE
  5
4B4
330
1F
100
AcDbEntity
  8
0
  6
Continuous
 62
     7
370
    15
100
AcDbLine
 10
1474.1131560439
 20
367.5858324874
 30
0.0
 11
1474.1131560439
 21
391.3358340521
 31
0.0
  0
ARC
  5
4B5
330
1F
100
AcDbEntity
  8
0
  6
Continuous
 62
     7
370
    15
100
AcDbCircle
 10
1478.9939437605
 20
391.4551993563
 30
0.0
 40
4.882247106607577
100
AcDbArc
 50
91.4730517116
 51
181.4009552423
  0
LINE
  5
4B6
330
1F
100
AcDbEntity
  8
0
  6
Continuous
 62
     7
370
    15
100
AcDbLine
 10
1479.8194942558
 20
396.335833009
 30
0.0
 11
1478.8684369558
 21
396.335833009
 31
0.0
  0
LINE
  5
4B7
330
1F
100
AcDbEntity
  8
0
  6
Continuous
 62
     7
370
    15
100
AcDbLine
 10
1545.9724766696
 20
96.3358471651
 30
0.0
 11
1545.3846929157
 21
96.3358471651
 31
0.0
  0
LWPOLYLINE
  5
4B8
330
1F
100
AcDbEntity
  8
0
  6
Continuous
 62
     7
370
    15
100
AcDbPolyline
 90
        9
 70
   128
 43
0.0
 10
1545.3846929157
 20
96.3358471651
 10
1544.8113334859
 20
96.4319000501
 10
1544.2600128734
 20
96.716422822
 10
1543.751913079
 20
97.1784780283
 10
1543.3065546239
 20
97.8003034849
 10
1542.9410663927
 20
98.5579679269
 10
1542.6694778288
 20
99.4224140901
 10
1542.5022346461
 20
100.3603825826
 10
1542.4457666958
 20
101.3358423967
  0
LINE
  5
4B9
330
1F
100
AcDbEntity
  8
0
  6
Continuous
 62
     7
370
    15
100
AcDbLine
 10
1542.4457666958
 20
101.3358423967
 30
0.0
 11
1542.4457666958
 21
125.0858346481
 31
0.0
  0
LINE
  5
4BA
330
1F
100
AcDbEntity
  8
0
  6
Continuous
 62
     7
370
    15
100
AcDbLine
 10
1542.4457666958
 20
137.0858291645
 30
0.0
 11
1542.4457666958
 21
355.5858323831
 31
0.0
  0
LINE
  5
4BB
330
1F
100
AcDbEntity
  8
0
  6
Continuous
 62
     7
370
    15
100
AcDbLine
 10
1542.4457666958
 20
367.5858324874
 30
0.0
 11
1542.4457666958
 21
391.3358340521
 31
0.0
  0
LWPOLYLINE
  5
4BC
330
1F
100
AcDbEntity
  8
0
  6
Continuous
 62
     7
370
    15
100
AcDbPolyline
 90
        9
 70
   128
 43
0.0
 10
1545.3846929157
 20
396.335833009
 10
1544.8113334859
 20
396.2397577722
 10
1544.2600128734
 20
395.955231275
 10
1543.751913079
 20
395.493179794
 10
1543.3065546239
 20
394.8713655133
 10
1542.9410663927
 20
394.1136824448
 10
1542.6694778288
 20
393.2492511828
 10
1542.5022346461
 20
392.3112826903
 10
1542.4457666958
 20
391.3358340521
  0
LINE
  5
4BD
330
1F
100
AcDbEntity
  8
0
  6
Continuous
 62
     7
370
    15
100
AcDbLine
 10
1545.9724766696
 20
396.335833009
 30
0.0
 11
1545.3846929157
 21
396.335833009
 31
0.0
  0
ARC
  5
4BE
330
1F
100
AcDbEntity
  8
0
  6
Continuous
 62
     7
370
    15
100
AcDbCircle
 10
1439.602622577
 20
101.3358323831
 30
0.0
 40
5.0
100
AcDbArc
 50
180.0
 51
270.0
  0
LINE
  5
4BF
330
1F
100
AcDbEntity
  8
0
  6
Continuous
 62
     7
370
    15
100
AcDbLine
 10
1434.6026228303
 20
101.3358423967
 30
0.0
 11
1434.6026228303
 21
125.0858346481
 31
0.0
  0
LINE
  5
4C0
330
1F
100
AcDbEntity
  8
0
  6
Continuous
 62
     7
370
    15
100
AcDbLine
 10
1434.6026228303
 20
137.0858291645
 30
0.0
 11
1434.6026228303
 21
252.8395319838
 31
0.0
  0
LINE
  5
4C1
330
1F
100
AcDbEntity
  8
0
  6
Continuous
 62
     7
370
    15
100
AcDbLine
 10
1434.6026228303
 20
343.2067839909
 30
0.0
 11
1434.6026228303
 21
347.0858319212
 31
0.0
  0
LINE
  5
4C2
330
1F
100
AcDbEntity
  8
0
  6
Continuous
 62
     7
370
    15
100
AcDbLine
 10
1434.6026228303
 20
386.0858327259
 30
0.0
 11
1434.6026228303
 21
391.3358340521
 31
0.0
  0
ARC
  5
4C3
330
1F
100
AcDbEntity
  8
0
  6
Continuous
 62
     7
370
    15
100
AcDbCircle
 10
1439.602622577
 20
391.3358323831
 30
0.0
 40
5.0
100
AcDbArc
 50
90.0
 51
180.0
  0
ARC
  5
4C4
330
1F
100
AcDbEntity
  8
0
  6
Continuous
 62
     7
370
    15
100
AcDbCircle
 10
1482.5716080302
 20
101.2164469504
 30
0.0
 40
4.88221223929912
100
AcDbArc
 50
178.5986809091
 51
268.527399601
  0
LINE
  5
4C5
330
1F
100
AcDbEntity
  8
0
  6
Continuous
 62
     7
370
    15
100
AcDbLine
 10
1482.4461405659
 20
96.3358471651
 30
0.0
 11
1479.8194942558
 21
96.3358471651
 31
0.0
  0
ARC
  5
4C6
330
1F
100
AcDbEntity
  8
0
  6
Continuous
 62
     7
370
    15
100
AcDbCircle
 10
1479.9449636649
 20
101.2164469818
 30
0.0
 40
4.882212320628156
100
AcDbArc
 50
178.5986813006
 51
268.527376795
  0
LINE
  5
4C7
330
1F
100
AcDbEntity
  8
0
  6
Continuous
 62
     7
370
    15
100
AcDbLine
 10
1477.6908559287
 20
101.3358423967
 30
0.0
 11
1477.6908559287
 21
391.3358340521
 31
0.0
  0
LINE
  5
4C8
330
1F
100
AcDbEntity
  8
0
  6
Continuous
 62
     7
370
    15
100
AcDbLine
 10
1475.0642114812
 20
101.3358423967
 30
0.0
 11
1475.0642114812
 21
391.3358340521
 31
0.0
  0
LINE
  5
4C9
330
1F
100
AcDbEntity
  8
0
  6
Continuous
 62
     7
370
    15
100
AcDbLine
 10
1482.4461405659
 20
396.335833009
 30
0.0
 11
1479.8194942558
 21
396.335833009
 31
0.0
  0
ARC
  5
4CA
330
1F
100
AcDbEntity
  8
0
  6
Continuous
 62
     7
370
    15
100
AcDbCircle
 10
1482.5716473335
 20
391.455195755
 30
0.0
 40
4.882250705704695
100
AcDbArc
 50
91.4730501906
 51
181.4009119343
  0
ARC
  5
4CB
330
1F
100
AcDbEntity
  8
0
  6
Continuous
 62
     7
370
    15
100
AcDbCircle
 10
1479.9450029682
 20
391.4551957236
 30
0.0
 40
4.882250787072314
100
AcDbArc
 50
91.4730729969
 51
181.4009115425
  0
LINE
  5
4CC
330
1F
100
AcDbEntity
  8
0
  6
Continuous
 62
     7
370
    15
100
AcDbLine
 10
1482.4461405659
 20
396.335833009
 30
0.0
 11
1501.4672679389
 21
396.335833009
 31
0.0
  0
ARC
  5
4CD
330
1F
100
AcDbEntity
  8
0
  6
Continuous
 62
     7
370
    15
100
AcDbCircle
 10
1501.3417630703
 20
391.4551975611
 30
0.0
 40
4.88224885138298
100
AcDbArc
 50
358.5990663316
 51
88.5269715435
  0
LINE
  5
4CE
330
1F
100
AcDbEntity
  8
0
  6
Continuous
 62
     7
370
    15
100
AcDbLine
 10
1506.2225525761
 20
101.3358423967
 30
0.0
 11
1506.2225525761
 21
391.3358340521
 31
0.0
  0
ARC
  5
4CF
330
1F
100
AcDbEntity
  8
0
  6
Continuous
 62
     7
370
    15
100
AcDbCircle
 10
1501.3418023735
 20
101.2164451444
 30
0.0
 40
4.882210385047923
100
AcDbArc
 50
271.4725786652
 51
1.4013408247
  0
LINE
  5
4D0
330
1F
100
AcDbEntity
  8
0
  6
Continuous
 62
     7
370
    15
100
AcDbLine
 10
1482.4461405659
 20
96.3358471651
 30
0.0
 11
1501.4672679389
 21
96.3358471651
 31
0.0
  0
LINE
  5
4D1
330
1F
100
AcDbEntity
  8
0
  6
Continuous
 62
     7
370
    15
100
AcDbLine
 10
1316.1988062346
 20
96.3358471651
 30
0.0
 11
1319.8168677771
 21
96.3358471651
 31
0.0
  0
LINE
  5
4D2
330
1F
100
AcDbEntity
  8
0
  6
Continuous
 62
     7
370
    15
100
AcDbLine
 10
1316.1988062346
 20
96.3358471651
 30
0.0
 11
1316.1988062346
 21
101.3358423967
 31
0.0
  0
LINE
  5
4D3
330
1F
100
AcDbEntity
  8
0
  6
Continuous
 62
     7
370
    15
100
AcDbLine
 10
1316.1988062346
 20
396.335833009
 30
0.0
 11
1319.8168677771
 21
396.335833009
 31
0.0
  0
LINE
  5
4D4
330
1F
100
AcDbEntity
  8
0
  6
Continuous
 62
     7
370
    15
100
AcDbLine
 10
1316.1988062346
 20
396.335833009
 30
0.0
 11
1316.1988062346
 21
391.3358340521
 31
0.0
  0
LINE
  5
4D5
330
1F
100
AcDbEntity
  8
0
  6
Continuous
 62
     7
370
    15
100
AcDbLine
 10
1316.1988062346
 20
101.3358423967
 30
0.0
 11
1316.1988062346
 21
391.3358340521
 31
0.0
  0
LWPOLYLINE
  5
4D6
330
1F
100
AcDbEntity
  8
0
  6
Continuous
 62
     7
370
    15
100
AcDbPolyline
 90
        3
 70
   128
 43
0.0
 10
1335.6004161322
 20
396.335833009
 10
1335.027064153
 20
396.2397577722
 10
1334.6046832884
 20
396.0401045639
  0
LWPOLYLINE
  5
4D7
330
1F
100
AcDbEntity
  8
0
  6
Continuous
 62
     7
370
    15
100
AcDbPolyline
 90
        3
 70
   128
 43
0.0
 10
1335.6004161322
 20
96.3358471651
 10
1335.027064153
 20
96.4319000501
 10
1334.6046832884
 20
96.6315458078
  0
ARC
  5
4D8
330
1F
100
AcDbEntity
  8
0
  6
Continuous
 62
     7
370
    15
100
AcDbCircle
 10
1363.4350678859
 20
391.7677015608
 30
0.0
 40
4.599214896801052
100
AcDbArc
 50
96.6650786241
 51
185.3880268291
  0
ARC
  5
4D9
330
1F
100
AcDbEntity
  8
0
  6
Continuous
 62
     7
370
    15
100
AcDbCircle
 10
1363.435026134
 20
100.9039445134
 30
0.0
 40
4.599176181669248
100
AcDbArc
 50
174.6115476011
 51
263.3353886933
  0
LINE
  5
4DA
330
1F
100
AcDbEntity
  8
0
  6
Continuous
 62
     7
370
    15
100
AcDbLine
 10
1358.8561741197
 20
101.3358423967
 30
0.0
 11
1358.8561741197
 21
125.0858346481
 31
0.0
  0
LINE
  5
4DB
330
1F
100
AcDbEntity
  8
0
  6
Continuous
 62
     7
370
    15
100
AcDbLine
 10
1358.8561741197
 20
137.0858291645
 30
0.0
 11
1358.8561741197
 21
355.5858323831
 31
0.0
  0
LINE
  5
4DC
330
1F
100
AcDbEntity
  8
0
  6
Continuous
 62
     7
370
    15
100
AcDbLine
 10
1358.8561741197
 20
367.5858324874
 30
0.0
 11
1358.8561741197
 21
391.3358340521
 31
0.0
  0
LINE
  5
4DD
330
1F
100
AcDbEntity
  8
0
  6
Continuous
 62
     7
370
    15
100
AcDbLine
 10
1319.8168677771
 20
396.335833009
 30
0.0
 11
1325.9972063387
 21
396.335833009
 31
0.0
  0
LWPOLYLINE
  5
4DE
330
1F
100
AcDbEntity
  8
0
  6
Continuous
 62
     7
370
    15
100
AcDbPolyline
 90
        9
 70
   128
 43
0.0
 10
1325.9972063387
 20
396.335833009
 10
1326.2986419284
 20
396.2397577722
 10
1326.5884844148
 20
395.955231275
 10
1326.855610081
 20
395.493179794
 10
1327.0897520268
 20
394.8713655133
 10
1327.2819025004
 20
394.1136824448
 10
1327.424685427
 20
393.2492511828
 10
1327.5126097286
 20
392.3112826903
 10
1327.5422928417
 20
391.3358340521
  0
LINE
  5
4DF
330
1F
100
AcDbEntity
  8
0
  6
Continuous
 62
     7
370
    15
100
AcDbLine
 10
1327.5422928417
 20
101.3358423967
 30
0.0
 11
1327.5422928417
 21
391.3358340521
 31
0.0
  0
LWPOLYLINE
  5
4E0
330
1F
100
AcDbEntity
  8
0
  6
Continuous
 62
     7
370
    15
100
AcDbPolyline
 90
        9
 70
   128
 43
0.0
 10
1325.9972063387
 20
96.3358471651
 10
1326.2986419284
 20
96.4319000501
 10
1326.5884844148
 20
96.716422822
 10
1326.855610081
 20
97.1784780283
 10
1327.0897520268
 20
97.8003034849
 10
1327.2819025004
 20
98.5579679269
 10
1327.424685427
 20
99.4224140901
 10
1327.5126097286
 20
100.3603825826
 10
1327.5422928417
 20
101.3358423967
  0
LINE
  5
4E1
330
1F
100
AcDbEntity
  8
0
  6
Continuous
 62
     7
370
    15
100
AcDbLine
 10
1319.8168677771
 20
96.3358471651
 30
0.0
 11
1325.9972063387
 21
96.3358471651
 31
0.0
  0
LWPOLYLINE
  5
4E2
330
1F
100
AcDbEntity
  8
0
  6
Continuous
 62
     7
370
    15
100
AcDbPolyline
 90
        9
 70
   128
 43
0.0
 10
1319.8168677771
 20
96.3358471651
 10
1319.5154321873
 20
96.4319000501
 10
1319.225589701
 20
96.716422822
 10
1318.9584714854
 20
97.1784780283
 10
1318.7243295396
 20
97.8003034849
 10
1318.532179066
 20
98.5579679269
 10
1318.3893961394
 20
99.4224140901
 10
1318.3014792884
 20
100.3603825826
 10
1318.2717812741
 20
101.3358423967
  0
LINE
  5
4E3
330
1F
100
AcDbEntity
  8
0
  6
Continuous
 62
     7
370
    15
100
AcDbLine
 10
1318.2717812741
 20
101.3358423967
 30
0.0
 11
1318.2717812741
 21
391.3358340521
 31
0.0
  0
LWPOLYLINE
  5
4E4
330
1F
100
AcDbEntity
  8
0
  6
Continuous
 62
     7
370
    15
100
AcDbPolyline
 90
        9
 70
   128
 43
0.0
 10
1318.2717812741
 20
391.3358340521
 10
1318.3014792884
 20
392.3112826903
 10
1318.3893961394
 20
393.2492511828
 10
1318.532179066
 20
394.1136824448
 10
1318.7243295396
 20
394.8713655133
 10
1318.9584714854
 20
395.493179794
 10
1319.225589701
 20
395.955231275
 10
1319.5154321873
 20
396.2397577722
 10
1319.8168677771
 20
396.335833009
  0
LINE
  5
4E5
330
1F
100
AcDbEntity
  8
0
  6
Continuous
 62
     7
370
    15
100
AcDbLine
 10
1325.9972063387
 20
396.335833009
 30
0.0
 11
1334.0811905944
 21
396.335833009
 31
0.0
  0
ARC
  5
4E6
330
1F
100
AcDbEntity
  8
0
  6
Continuous
 62
     7
370
    15
100
AcDbCircle
 10
1333.8752689991
 20
395.3382191773
 30
0.0
 40
1.018644717529401
100
AcDbArc
 50
23.8094706758
 51
78.3371392317
  0
LINE
  5
4E7
330
1F
100
AcDbEntity
  8
0
  6
Continuous
 62
     7
370
    15
100
AcDbLine
 10
1325.9972063387
 20
96.3358471651
 30
0.0
 11
1334.0811905944
 21
96.3358471651
 31
0.0
  0
ARC
  5
4E8
330
1F
100
AcDbEntity
  8
0
  6
Continuous
 62
     7
370
    15
100
AcDbCircle
 10
1333.8753504047
 20
97.3333811022
 30
0.0
 40
1.018550018154009
100
AcDbArc
 50
281.6592845827
 51
336.1912586818
  0
LINE
  5
4E9
330
1F
100
AcDbEntity
  8
0
  6
Continuous
 62
     7
370
    15
100
AcDbLine
 10
1418.7101637507
 20
96.3358471651
 30
0.0
 11
1421.3368081981
 21
96.3358471651
 31
0.0
  0
ARC
  5
4EA
330
1F
100
AcDbEntity
  8
0
  6
Continuous
 62
     7
370
    15
100
AcDbCircle
 10
1418.5846962493
 20
101.2164433492
 30
0.0
 40
4.882208640232441
100
AcDbArc
 50
271.4726019197
 51
1.4013623992
  0
ARC
  5
4EB
330
1F
100
AcDbEntity
  8
0
  6
Continuous
 62
     7
370
    15
100
AcDbCircle
 10
1421.2113406967
 20
101.2164433492
 30
0.0
 40
4.882208640232441
100
AcDbArc
 50
271.4726019197
 51
1.4013623992
  0
LINE
  5
4EC
330
1F
100
AcDbEntity
  8
0
  6
Continuous
 62
     7
370
    15
100
AcDbLine
 10
1399.6890326524
 20
396.335833009
 30
0.0
 11
1418.7101637507
 21
396.335833009
 31
0.0
  0
ARC
  5
4ED
330
1F
100
AcDbEntity
  8
0
  6
Continuous
 62
     7
370
    15
100
AcDbCircle
 10
1418.584656946
 20
391.4551993563
 30
0.0
 40
4.882247106607577
100
AcDbArc
 50
358.5990447577
 51
88.5269482884
  0
LINE
  5
4EE
330
1F
100
AcDbEntity
  8
0
  6
Continuous
 62
     7
370
    15
100
AcDbLine
 10
1423.4654446626
 20
101.3358423967
 30
0.0
 11
1423.4654446626
 21
391.3358340521
 31
0.0
  0
LINE
  5
4EF
330
1F
100
AcDbEntity
  8
0
  6
Continuous
 62
     7
370
    15
100
AcDbLine
 10
1399.6890326524
 20
96.3358471651
 30
0.0
 11
1418.7101637507
 21
96.3358471651
 31
0.0
  0
ARC
  5
4F0
330
1F
100
AcDbEntity
  8
0
  6
Continuous
 62
     7
370
    15
100
AcDbCircle
 10
1399.8144982003
 20
101.2164414914
 30
0.0
 40
4.882206732766221
100
AcDbArc
 50
178.5986152432
 51
268.5274204378
  0
LINE
  5
4F1
330
1F
100
AcDbEntity
  8
0
  6
Continuous
 62
     7
370
    15
100
AcDbLine
 10
1394.9337517405
 20
101.3358423967
 30
0.0
 11
1394.9337517405
 21
391.3358340521
 31
0.0
  0
ARC
  5
4F2
330
1F
100
AcDbEntity
  8
0
  6
Continuous
 62
     7
370
    15
100
AcDbCircle
 10
1399.8145375035
 20
391.4552012142
 30
0.0
 40
4.88224519910403
100
AcDbArc
 50
91.4730293542
 51
181.4009775998
  0
LINE
  5
4F3
330
1F
100
AcDbEntity
  8
0
  6
Continuous
 62
     7
370
    15
100
AcDbLine
 10
1418.7101637507
 20
396.335833009
 30
0.0
 11
1421.3368081981
 21
396.335833009
 31
0.0
  0
ARC
  5
4F4
330
1F
100
AcDbEntity
  8
0
  6
Continuous
 62
     7
370
    15
100
AcDbCircle
 10
1421.2113013935
 20
391.4551993563
 30
0.0
 40
4.882247106607577
100
AcDbArc
 50
358.5990447577
 51
88.5269482884
  0
LINE
  5
4F5
330
1F
100
AcDbEntity
  8
0
  6
Continuous
 62
     7
370
    15
100
AcDbLine
 10
1426.09208911
 20
101.3358423967
 30
0.0
 11
1426.09208911
 21
391.3358340521
 31
0.0
  0
LINE
  5
4F6
330
1F
100
AcDbEntity
  8
0
  6
Continuous
 62
     7
370
    15
100
AcDbLine
 10
1336.1882073367
 20
396.335833009
 30
0.0
 11
1347.9439122164
 21
396.335833009
 31
0.0
  0
LWPOLYLINE
  5
4F7
330
1F
100
AcDbEntity
  8
0
  6
Continuous
 62
     7
370
    15
100
AcDbPolyline
 90
        9
 70
   128
 43
0.0
 10
1347.9439122164
 20
396.335833009
 10
1348.5172641957
 20
396.2397577722
 10
1349.0685848081
 20
395.955231275
 10
1349.5766920531
 20
395.493179794
 10
1350.0220430577
 20
394.8713655133
 10
1350.3875387395
 20
394.1136824448
 10
1350.6591198528
 20
393.2492511828
 10
1350.8263630355
 20
392.3112826903
 10
1350.8828384364
 20
391.3358340521
  0
LINE
  5
4F8
330
1F
100
AcDbEntity
  8
0
  6
Continuous
 62
     7
370
    15
100
AcDbLine
 10
1350.8828384364
 20
101.3358423967
 30
0.0
 11
1350.8828384364
 21
391.3358340521
 31
0.0
  0
LWPOLYLINE
  5
4F9
330
1F
100
AcDbEntity
  8
0
  6
Continuous
 62
     7
370
    15
100
AcDbPolyline
 90
        9
 70
   128
 43
0.0
 10
1347.9439122164
 20
96.3358471651
 10
1348.5172641957
 20
96.4319000501
 10
1349.0685848081
 20
96.716422822
 10
1349.5766920531
 20
97.1784780283
 10
1350.0220430577
 20
97.8003034849
 10
1350.3875387395
 20
98.5579679269
 10
1350.6591198528
 20
99.4224140901
 10
1350.8263630355
 20
100.3603825826
 10
1350.8828384364
 20
101.3358423967
  0
LINE
  5
4FA
330
1F
100
AcDbEntity
  8
0
  6
Continuous
 62
     7
370
    15
100
AcDbLine
 10
1336.1882073367
 20
96.3358471651
 30
0.0
 11
1347.9439122164
 21
96.3358471651
 31
0.0
  0
LWPOLYLINE
  5
4FB
330
1F
100
AcDbEntity
  8
0
  6
Continuous
 62
     7
370
    15
100
AcDbPolyline
 90
        9
 70
   128
 43
0.0
 10
1336.1882073367
 20
96.3358471651
 10
1335.6148479068
 20
96.4319000501
 10
1335.0635272944
 20
96.716422822
 10
1334.5554275
 20
97.1784780283
 10
1334.1100690448
 20
97.8003034849
 10
1333.7445733631
 20
98.5579679269
 10
1333.4729922497
 20
99.4224140901
 10
1333.3057490671
 20
100.3603825826
 10
1333.2492811167
 20
101.3358423967
  0
LINE
  5
4FC
330
1F
100
AcDbEntity
  8
0
  6
Continuous
 62
     7
370
    15
100
AcDbLine
 10
1333.2492811167
 20
101.3358423967
 30
0.0
 11
1333.2492811167
 21
391.3358340521
 31
0.0
  0
LWPOLYLINE
  5
4FD
330
1F
100
AcDbEntity
  8
0
  6
Continuous
 62
     7
370
    15
100
AcDbPolyline
 90
        9
 70
   128
 43
0.0
 10
1333.2492811167
 20
391.3358340521
 10
1333.3057490671
 20
392.3112826903
 10
1333.4729922497
 20
393.2492511828
 10
1333.7445733631
 20
394.1136824448
 10
1334.1100690448
 20
394.8713655133
 10
1334.5554275
 20
395.493179794
 10
1335.0635272944
 20
395.955231275
 10
1335.6148479068
 20
396.2397577722
 10
1336.1882073367
 20
396.335833009
  0
LINE
  5
4FE
330
1F
100
AcDbEntity
  8
0
  6
Continuous
 62
     7
370
    15
100
AcDbLine
 10
1347.9439122164
 20
396.335833009
 30
0.0
 11
1354.8205522382
 21
396.335833009
 31
0.0
  0
LWPOLYLINE
  5
4FF
330
1F
100
AcDbEntity
  8
0
  6
Continuous
 62
     7
370
    15
100
AcDbPolyline
 90
        9
 70
   128
 43
0.0
 10
1354.8205522382
 20
396.335833009
 10
1355.3939116681
 20
396.2397577722
 10
1355.9452322805
 20
395.955231275
 10
1356.4533320749
 20
395.493179794
 10
1356.8986905301
 20
394.8713655133
 10
1357.2641787613
 20
394.1136824448
 10
1357.5357673252
 20
393.2492511828
 10
1357.7030105078
 20
392.3112826903
 10
1357.7594784582
 20
391.3358340521
  0
LINE
  5
500
330
1F
100
AcDbEntity
  8
0
  6
Continuous
 62
     7
370
    15
100
AcDbLine
 10
1357.7594784582
 20
101.3358423967
 30
0.0
 11
1357.7594784582
 21
391.3358340521
 31
0.0
  0
LINE
  5
501
330
1F
100
AcDbEntity
  8
0
  6
Continuous
 62
     7
370
    15
100
AcDbLine
 10
1347.9439122164
 20
96.3358471651
 30
0.0
 11
1354.8205522382
 21
96.3358471651
 31
0.0
  0
LWPOLYLINE
  5
502
330
1F
100
AcDbEntity
  8
0
  6
Continuous
 62
     7
370
    15
100
AcDbPolyline
 90
        9
 70
   128
 43
0.0
 10
1354.8205522382
 20
96.3358471651
 10
1355.3939116681
 20
96.4319000501
 10
1355.9452322805
 20
96.716422822
 10
1356.4533320749
 20
97.1784780283
 10
1356.8986905301
 20
97.8003034849
 10
1357.2641787613
 20
98.5579679269
 10
1357.5357673252
 20
99.4224140901
 10
1357.7030105078
 20
100.3603825826
 10
1357.7594784582
 20
101.3358423967
  0
LINE
  5
503
330
1F
100
AcDbEntity
  8
0
  6
Continuous
 62
     7
370
    15
100
AcDbLine
 10
1363.7102795327
 20
396.335833009
 30
0.0
 11
1379.8906160081
 21
396.335833009
 31
0.0
  0
ARC
  5
504
330
1F
100
AcDbEntity
  8
0
  6
Continuous
 62
     7
370
    15
100
AcDbCircle
 10
1379.3568063607
 20
391.7677015608
 30
0.0
 40
4.599214896801052
100
AcDbArc
 50
354.6119731709
 51
83.3349213759
  0
LINE
  5
505
330
1F
100
AcDbEntity
  8
0
  6
Continuous
 62
     7
370
    15
100
AcDbLine
 10
1383.9357001269
 20
101.3358423967
 30
0.0
 11
1383.9357001269
 21
391.3358340521
 31
0.0
  0
ARC
  5
506
330
1F
100
AcDbEntity
  8
0
  6
Continuous
 62
     7
370
    15
100
AcDbCircle
 10
1379.3568481126
 20
100.9039445134
 30
0.0
 40
4.599176181669389
100
AcDbArc
 50
276.6646113067
 51
5.3884523989
  0
LINE
  5
507
330
1F
100
AcDbEntity
  8
0
  6
Continuous
 62
     7
370
    15
100
AcDbLine
 10
1363.7102795327
 20
96.3358471651
 30
0.0
 11
1379.8906160081
 21
96.3358471651
 31
0.0
  0
ARC
  5
508
330
1F
100
AcDbEntity
  8
0
  6
Continuous
 62
     7
370
    15
100
AcDbCircle
 10
1364.2440524974
 20
100.9039554376
 30
0.0
 40
4.599187620413732
100
AcDbArc
 50
174.6116977385
 51
263.3353417616
  0
LINE
  5
509
330
1F
100
AcDbEntity
  8
0
  6
Continuous
 62
     7
370
    15
100
AcDbLine
 10
1359.6651879633
 20
101.3358423967
 30
0.0
 11
1359.6651879633
 21
391.3358340521
 31
0.0
  0
ARC
  5
50A
330
1F
100
AcDbEntity
  8
0
  6
Continuous
 62
     7
370
    15
100
AcDbCircle
 10
1364.2440942493
 20
391.7676906366
 30
0.0
 40
4.599226335605128
100
AcDbArc
 50
96.6651255538
 51
185.3878766937
  0
LINE
  5
50B
330
1F
100
AcDbEntity
  8
0
  6
Continuous
 62
     7
370
    15
100
AcDbLine
 10
1388.931876936
 20
101.3358423967
 30
0.0
 11
1388.931876936
 21
391.3358340521
 31
0.0
  0
LINE
  5
50C
330
1F
100
AcDbEntity
  8
0
  6
Continuous
 62
     7
370
    15
100
AcDbLine
 10
1379.8906160081
 20
396.335833009
 30
0.0
 11
1384.8867890918
 21
396.335833009
 31
0.0
  0
ARC
  5
50D
330
1F
100
AcDbEntity
  8
0
  6
Continuous
 62
     7
370
    15
100
AcDbCircle
 10
1384.3529751145
 20
391.7676946463
 30
0.0
 40
4.599222267218847
100
AcDbArc
 50
354.6120683532
 51
83.3348777965
  0
LINE
  5
50E
330
1F
100
AcDbEntity
  8
0
  6
Continuous
 62
     7
370
    15
100
AcDbLine
 10
1379.8906160081
 20
96.3358471651
 30
0.0
 11
1384.8867890918
 21
96.3358471651
 31
0.0
  0
ARC
  5
50F
330
1F
100
AcDbEntity
  8
0
  6
Continuous
 62
     7
370
    15
100
AcDbCircle
 10
1384.3530168665
 20
100.9039514279
 30
0.0
 40
4.599183551940351
100
AcDbArc
 50
276.6646548861
 51
5.3883572166
  0
LINE
  5
510
330
1F
100
AcDbEntity
  8
0
  6
Continuous
 62
     7
370
    15
100
AcDbLine
 10
1465.6026223236
 20
125.0858346481
 30
0.0
 11
1475.0642114812
 21
125.0858346481
 31
0.0
  0
LINE
  5
511
330
1F
100
AcDbEntity
  8
0
  6
Continuous
 62
     7
370
    15
100
AcDbLine
 10
1465.6026223236
 20
137.0858291645
 30
0.0
 11
1475.0642114812
 21
137.0858291645
 31
0.0
  0
LINE
  5
512
330
1F
100
AcDbEntity
  8
0
  6
Continuous
 62
     7
370
    15
100
AcDbLine
 10
1426.09208911
 20
125.0858346481
 30
0.0
 11
1435.6026229942
 21
125.0858346481
 31
0.0
  0
LINE
  5
513
330
1F
100
AcDbEntity
  8
0
  6
Continuous
 62
     7
370
    15
100
AcDbLine
 10
1426.09208911
 20
137.0858291645
 30
0.0
 11
1435.6026229942
 21
137.0858291645
 31
0.0
  0
LINE
  5
514
330
1F
100
AcDbEntity
  8
0
  6
Continuous
 62
     7
370
    15
100
AcDbLine
 10
1506.2225525761
 20
125.0858346481
 30
0.0
 11
1512.0823857868
 21
125.0858346481
 31
0.0
  0
LINE
  5
515
330
1F
100
AcDbEntity
  8
0
  6
Continuous
 62
     7
370
    15
100
AcDbLine
 10
1506.2225525761
 20
137.0858291645
 30
0.0
 11
1512.0823857868
 21
137.0858291645
 31
0.0
  0
LINE
  5
516
330
1F
100
AcDbEntity
  8
0
  6
Continuous
 62
     7
370
    15
100
AcDbLine
 10
1388.931876936
 20
125.0858346481
 30
0.0
 11
1394.9337517405
 21
125.0858346481
 31
0.0
  0
LINE
  5
517
330
1F
100
AcDbEntity
  8
0
  6
Continuous
 62
     7
370
    15
100
AcDbLine
 10
1388.931876936
 20
137.0858291645
 30
0.0
 11
1394.9337517405
 21
137.0858291645
 31
0.0
  0
LINE
  5
518
330
1F
100
AcDbEntity
  8
0
  6
Continuous
 62
     7
370
    15
100
AcDbLine
 10
1541.3490710342
 20
125.0858346481
 30
0.0
 11
1542.6246253336
 21
125.0858346481
 31
0.0
  0
LINE
  5
519
330
1F
100
AcDbEntity
  8
0
  6
Continuous
 62
     7
370
    15
100
AcDbLine
 10
1541.3490710342
 20
137.0858291645
 30
0.0
 11
1542.6246253336
 21
137.0858291645
 31
0.0
  0
LINE
  5
51A
330
1F
100
AcDbEntity
  8
0
  6
Continuous
 62
     7
370
    15
100
AcDbLine
 10
1357.7594784582
 20
125.0858346481
 30
0.0
 11
1359.6651879633
 21
125.0858346481
 31
0.0
  0
LINE
  5
51B
330
1F
100
AcDbEntity
  8
0
  6
Continuous
 62
     7
370
    15
100
AcDbLine
 10
1357.7594784582
 20
137.0858291645
 30
0.0
 11
1359.6651879633
 21
137.0858291645
 31
0.0
  0
LINE
  5
51C
330
1F
100
AcDbEntity
  8
0
  6
Continuous
 62
     7
370
    15
100
AcDbLine
 10
1542.6246253336
 20
125.0858346481
 30
0.0
 11
1543.0335504496
 21
125.0858346481
 31
0.0
  0
LINE
  5
51D
330
1F
100
AcDbEntity
  8
0
  6
Continuous
 62
     7
370
    15
100
AcDbLine
 10
1542.6246253336
 20
137.0858291645
 30
0.0
 11
1543.0335504496
 21
137.0858291645
 31
0.0
  0
LINE
  5
51E
330
1F
100
AcDbEntity
  8
0
  6
Continuous
 62
     7
370
    15
100
AcDbLine
 10
1465.5080763185
 20
367.5858324874
 30
0.0
 11
1475.0642114812
 21
367.5858324874
 31
0.0
  0
LINE
  5
51F
330
1F
100
AcDbEntity
  8
0
  6
Continuous
 62
     7
370
    15
100
AcDbLine
 10
1465.6026223236
 20
355.5858323831
 30
0.0
 11
1475.0642114812
 21
355.5858323831
 31
0.0
  0
LINE
  5
520
330
1F
100
AcDbEntity
  8
0
  6
Continuous
 62
     7
370
    15
100
AcDbLine
 10
1426.09208911
 20
367.5858324874
 30
0.0
 11
1435.597737276
 21
367.5858324874
 31
0.0
  0
LINE
  5
521
330
1F
100
AcDbEntity
  8
0
  6
Continuous
 62
     7
370
    15
100
AcDbLine
 10
1426.09208911
 20
355.5858323831
 30
0.0
 11
1435.6026229942
 21
355.5858323831
 31
0.0
  0
LINE
  5
522
330
1F
100
AcDbEntity
  8
0
  6
Continuous
 62
     7
370
    15
100
AcDbLine
 10
1388.931876936
 20
367.5858324874
 30
0.0
 11
1394.9337517405
 21
367.5858324874
 31
0.0
  0
LINE
  5
523
330
1F
100
AcDbEntity
  8
0
  6
Continuous
 62
     7
370
    15
100
AcDbLine
 10
1388.931876936
 20
355.5858323831
 30
0.0
 11
1394.9337517405
 21
355.5858323831
 31
0.0
  0
LINE
  5
524
330
1F
100
AcDbEntity
  8
0
  6
Continuous
 62
     7
370
    15
100
AcDbLine
 10
1506.2225525761
 20
367.5858324874
 30
0.0
 11
1512.0823857868
 21
367.5858324874
 31
0.0
  0
LINE
  5
525
330
1F
100
AcDbEntity
  8
0
  6
Continuous
 62
     7
370
    15
100
AcDbLine
 10
1506.2225525761
 20
355.5858323831
 30
0.0
 11
1512.0823857868
 21
355.5858323831
 31
0.0
  0
LINE
  5
526
330
1F
100
AcDbEntity
  8
0
  6
Continuous
 62
     7
370
    15
100
AcDbLine
 10
1357.7594784582
 20
367.5858324874
 30
0.0
 11
1359.6651879633
 21
367.5858324874
 31
0.0
  0
LINE
  5
527
330
1F
100
AcDbEntity
  8
0
  6
Continuous
 62
     7
370
    15
100
AcDbLine
 10
1357.7594784582
 20
355.5858323831
 30
0.0
 11
1359.6651879633
 21
355.5858323831
 31
0.0
  0
LINE
  5
528
330
1F
100
AcDbEntity
  8
0
  6
Continuous
 62
     7
370
    15
100
AcDbLine
 10
1541.3490710342
 20
367.5858324874
 30
0.0
 11
1542.6246253336
 21
367.5858324874
 31
0.0
  0
LINE
  5
529
330
1F
100
AcDbEntity
  8
0
  6
Continuous
 62
     7
370
    15
100
AcDbLine
 10
1541.3490710342
 20
355.5858323831
 30
0.0
 11
1542.6246253336
 21
355.5858323831
 31
0.0
  0
LINE
  5
52A
330
1F
100
AcDbEntity
  8
0
  6
Continuous
 62
     7
370
    15
100
AcDbLine
 10
1542.6246253336
 20
367.5858324874
 30
0.0
 11
1543.0335504496
 21
367.5858324874
 31
0.0
  0
LINE
  5
52B
330
1F
100
AcDbEntity
  8
0
  6
Continuous
 62
     7
370
    15
100
AcDbLine
 10
1542.6246253336
 20
355.5858323831
 30
0.0
 11
1543.0335504496
 21
355.5858323831
 31
0.0
  0
LINE
  5
52C
330
1F
100
AcDbEntity
  8
0
  6
Continuous
 62
     7
370
    15
100
AcDbLine
 10
1442.102622197
 20
401.0858314593
 30
0.0
 11
1442.102622197
 21
403.5858328004
 31
0.0
  0
LINE
  5
52D
330
1F
100
AcDbEntity
  8
0
  6
Continuous
 62
     7
370
    15
100
AcDbLine
 10
1442.102622197
 20
398.5858338434
 30
0.0
 11
1442.102622197
 21
401.0858314593
 31
0.0
  0
LINE
  5
52E
330
1F
100
AcDbEntity
  8
0
  6
Continuous
 62
     7
370
    15
100
AcDbLine
 10
1447.1026225509
 20
1407.0857951898
 30
0.0
 11
1453.102622603
 21
1407.0857951898
 31
0.0
  0
LINE
  5
52F
330
1F
100
AcDbEntity
  8
0
  6
Continuous
 62
     7
370
    15
100
AcDbLine
 10
1435.597737276
 20
367.5858324874
 30
0.0
 11
1435.597737276
 21
369.5858328153
 31
0.0
  0
LINE
  5
530
330
1F
100
AcDbEntity
  8
0
  6
Continuous
 62
     7
370
    15
100
AcDbLine
 10
1435.597737276
 20
369.5858328153
 30
0.0
 11
1435.6026229942
 21
369.5858328153
 31
0.0
  0
LINE
  5
531
330
1F
100
AcDbEntity
  8
0
  6
Continuous
 62
     7
370
    15
100
AcDbLine
 10
1435.0833473289
 20
367.5858324874
 30
0.0
 11
1435.0833473289
 21
369.5858328153
 31
0.0
  0
LINE
  5
532
330
1F
100
AcDbEntity
  8
0
  6
Continuous
 62
     7
370
    15
100
AcDbLine
 10
1435.597737276
 20
369.5858328153
 30
0.0
 11
1435.0833473289
 21
369.5858328153
 31
0.0
  0
LINE
  5
533
330
1F
100
AcDbEntity
  8
0
  6
Continuous
 62
     7
370
    15
100
AcDbLine
 10
1434.8253607312
 20
367.5858324874
 30
0.0
 11
1434.8253607312
 21
369.5858328153
 31
0.0
  0
LINE
  5
534
330
1F
100
AcDbEntity
  8
0
  6
Continuous
 62
     7
370
    15
100
AcDbLine
 10
1434.8253607312
 20
369.5858328153
 30
0.0
 11
1435.0833473289
 21
369.5858328153
 31
0.0
  0
LINE
  5
535
330
1F
100
AcDbEntity
  8
0
  6
Continuous
 62
     7
370
    15
100
AcDbLine
 10
1465.7562365317
 20
367.5858324874
 30
0.0
 11
1465.7562365317
 21
369.5858328153
 31
0.0
  0
LINE
  5
536
330
1F
100
AcDbEntity
  8
0
  6
Continuous
 62
     7
370
    15
100
AcDbLine
 10
1465.7562365317
 20
369.5858328153
 30
0.0
 11
1465.6026223236
 21
369.5858328153
 31
0.0
  0
LINE
  5
537
330
1F
100
AcDbEntity
  8
0
  6
Continuous
 62
     7
370
    15
100
AcDbLine
 10
1434.3176586116
 20
367.5858324874
 30
0.0
 11
1434.3176586116
 21
369.5858328153
 31
0.0
  0
LINE
  5
538
330
1F
100
AcDbEntity
  8
0
  6
Continuous
 62
     7
370
    15
100
AcDbLine
 10
1434.8253607312
 20
369.5858328153
 30
0.0
 11
1434.3176586116
 21
369.5858328153
 31
0.0
  0
LINE
  5
539
330
1F
100
AcDbEntity
  8
0
  6
Continuous
 62
     7
370
    15
100
AcDbLine
 10
1434.0794318849
 20
367.5858324874
 30
0.0
 11
1434.0794318849
 21
369.5858328153
 31
0.0
  0
LINE
  5
53A
330
1F
100
AcDbEntity
  8
0
  6
Continuous
 62
     7
370
    15
100
AcDbLine
 10
1434.0794318849
 20
369.5858328153
 30
0.0
 11
1434.3176586116
 21
369.5858328153
 31
0.0
  0
LINE
  5
53B
330
1F
100
AcDbEntity
  8
0
  6
Continuous
 62
     7
370
    15
100
AcDbLine
 10
1466.2602645838
 20
367.5858324874
 30
0.0
 11
1466.2602645838
 21
369.5858328153
 31
0.0
  0
LINE
  5
53C
330
1F
100
AcDbEntity
  8
0
  6
Continuous
 62
     7
370
    15
100
AcDbLine
 10
1465.7562365317
 20
369.5858328153
 30
0.0
 11
1466.2602645838
 21
369.5858328153
 31
0.0
  0
LINE
  5
53D
330
1F
100
AcDbEntity
  8
0
  6
Continuous
 62
     7
370
    15
100
AcDbLine
 10
1466.4884535158
 20
367.5858324874
 30
0.0
 11
1466.4884535158
 21
369.5858328153
 31
0.0
  0
LINE
  5
53E
330
1F
100
AcDbEntity
  8
0
  6
Continuous
 62
     7
370
    15
100
AcDbLine
 10
1466.4884535158
 20
369.5858328153
 30
0.0
 11
1466.2602645838
 21
369.5858328153
 31
0.0
  0
LINE
  5
53F
330
1F
100
AcDbEntity
  8
0
  6
Continuous
 62
     7
370
    15
100
AcDbLine
 10
1433.5792967612
 20
367.5858324874
 30
0.0
 11
1433.5792967612
 21
369.5858328153
 31
0.0
  0
LINE
  5
540
330
1F
100
AcDbEntity
  8
0
  6
Continuous
 62
     7
370
    15
100
AcDbLine
 10
1434.0794318849
 20
369.5858328153
 30
0.0
 11
1433.5792967612
 21
369.5858328153
 31
0.0
  0
LINE
  5
541
330
1F
100
AcDbEntity
  8
0
  6
Continuous
 62
     7
370
    15
100
AcDbLine
 10
1433.3612424815
 20
367.5858324874
 30
0.0
 11
1433.3612424815
 21
369.5858328153
 31
0.0
  0
LINE
  5
542
330
1F
100
AcDbEntity
  8
0
  6
Continuous
 62
     7
370
    15
100
AcDbLine
 10
1433.3612424815
 20
369.5858328153
 30
0.0
 11
1433.5792967612
 21
369.5858328153
 31
0.0
  0
LINE
  5
543
330
1F
100
AcDbEntity
  8
0
  6
Continuous
 62
     7
370
    15
100
AcDbLine
 10
1466.9844796443
 20
367.5858324874
 30
0.0
 11
1466.9844796443
 21
369.5858328153
 31
0.0
  0
LINE
  5
544
330
1F
100
AcDbEntity
  8
0
  6
Continuous
 62
     7
370
    15
100
AcDbLine
 10
1466.4884535158
 20
369.5858328153
 30
0.0
 11
1466.9844796443
 21
369.5858328153
 31
0.0
  0
LINE
  5
545
330
1F
100
AcDbEntity
  8
0
  6
Continuous
 62
     7
370
    15
100
AcDbLine
 10
1467.1923061395
 20
367.5858324874
 30
0.0
 11
1467.1923061395
 21
369.5858328153
 31
0.0
  0
LINE
  5
546
330
1F
100
AcDbEntity
  8
0
  6
Continuous
 62
     7
370
    15
100
AcDbLine
 10
1467.1923061395
 20
369.5858328153
 30
0.0
 11
1466.9844796443
 21
369.5858328153
 31
0.0
  0
LINE
  5
547
330
1F
100
AcDbEntity
  8
0
  6
Continuous
 62
     7
370
    15
100
AcDbLine
 10
1432.8695395523
 20
367.5858324874
 30
0.0
 11
1432.8695395523
 21
369.5858328153
 31
0.0
  0
LINE
  5
548
330
1F
100
AcDbEntity
  8
0
  6
Continuous
 62
     7
370
    15
100
AcDbLine
 10
1433.3612424815
 20
369.5858328153
 30
0.0
 11
1432.8695395523
 21
369.5858328153
 31
0.0
  0
LINE
  5
549
330
1F
100
AcDbEntity
  8
0
  6
Continuous
 62
     7
370
    15
100
AcDbLine
 10
1432.6720339739
 20
367.5858324874
 30
0.0
 11
1432.6720339739
 21
369.5858328153
 31
0.0
  0
LINE
  5
54A
330
1F
100
AcDbEntity
  8
0
  6
Continuous
 62
     7
370
    15
100
AcDbLine
 10
1432.6720339739
 20
369.5858328153
 30
0.0
 11
1432.8695395523
 21
369.5858328153
 31
0.0
  0
LINE
  5
54B
330
1F
100
AcDbEntity
  8
0
  6
Continuous
 62
     7
370
    15
100
AcDbLine
 10
1467.679471665
 20
367.5858324874
 30
0.0
 11
1467.679471665
 21
369.5858328153
 31
0.0
  0
LINE
  5
54C
330
1F
100
AcDbEntity
  8
0
  6
Continuous
 62
     7
370
    15
100
AcDbLine
 10
1467.1923061395
 20
369.5858328153
 30
0.0
 11
1467.679471665
 21
369.5858328153
 31
0.0
  0
LINE
  5
54D
330
1F
100
AcDbEntity
  8
0
  6
Continuous
 62
     7
370
    15
100
AcDbLine
 10
1467.866570645
 20
367.5858324874
 30
0.0
 11
1467.866570645
 21
369.5858328153
 31
0.0
  0
LINE
  5
54E
330
1F
100
AcDbEntity
  8
0
  6
Continuous
 62
     7
370
    15
100
AcDbLine
 10
1467.866570645
 20
369.5858328153
 30
0.0
 11
1467.679471665
 21
369.5858328153
 31
0.0
  0
LINE
  5
54F
330
1F
100
AcDbEntity
  8
0
  6
Continuous
 62
     7
370
    15
100
AcDbLine
 10
1432.1896163309
 20
367.5858324874
 30
0.0
 11
1432.1896163309
 21
369.5858328153
 31
0.0
  0
LINE
  5
550
330
1F
100
AcDbEntity
  8
0
  6
Continuous
 62
     7
370
    15
100
AcDbLine
 10
1432.6720339739
 20
369.5858328153
 30
0.0
 11
1432.1896163309
 21
369.5858328153
 31
0.0
  0
LINE
  5
551
330
1F
100
AcDbEntity
  8
0
  6
Continuous
 62
     7
370
    15
100
AcDbLine
 10
1432.0130021805
 20
367.5858324874
 30
0.0
 11
1432.0130021805
 21
369.5858328153
 31
0.0
  0
LINE
  5
552
330
1F
100
AcDbEntity
  8
0
  6
Continuous
 62
     7
370
    15
100
AcDbLine
 10
1432.0130021805
 20
369.5858328153
 30
0.0
 11
1432.1896163309
 21
369.5858328153
 31
0.0
  0
LINE
  5
553
330
1F
100
AcDbEntity
  8
0
  6
Continuous
 62
     7
370
    15
100
AcDbLine
 10
1468.344033652
 20
367.5858324874
 30
0.0
 11
1468.344033652
 21
369.5858328153
 31
0.0
  0
LINE
  5
554
330
1F
100
AcDbEntity
  8
0
  6
Continuous
 62
     7
370
    15
100
AcDbLine
 10
1467.866570645
 20
369.5858328153
 30
0.0
 11
1468.344033652
 21
369.5858328153
 31
0.0
  0
LINE
  5
555
330
1F
100
AcDbEntity
  8
0
  6
Continuous
 62
     7
370
    15
100
AcDbLine
 10
1468.5100847417
 20
367.5858324874
 30
0.0
 11
1468.5100847417
 21
369.5858328153
 31
0.0
  0
LINE
  5
556
330
1F
100
AcDbEntity
  8
0
  6
Continuous
 62
     7
370
    15
100
AcDbLine
 10
1468.5100847417
 20
369.5858328153
 30
0.0
 11
1468.344033652
 21
369.5858328153
 31
0.0
  0
LINE
  5
557
330
1F
100
AcDbEntity
  8
0
  6
Continuous
 62
     7
370
    15
100
AcDbLine
 10
1431.5407042885
 20
367.5858324874
 30
0.0
 11
1431.5407042885
 21
369.5858328153
 31
0.0
  0
LINE
  5
558
330
1F
100
AcDbEntity
  8
0
  6
Continuous
 62
     7
370
    15
100
AcDbLine
 10
1432.0130021805
 20
369.5858328153
 30
0.0
 11
1431.5407042885
 21
369.5858328153
 31
0.0
  0
LINE
  5
559
330
1F
100
AcDbEntity
  8
0
  6
Continuous
 62
     7
370
    15
100
AcDbLine
 10
1431.3852870399
 20
367.5858324874
 30
0.0
 11
1431.3852870399
 21
369.5858328153
 31
0.0
  0
LINE
  5
55A
330
1F
100
AcDbEntity
  8
0
  6
Continuous
 62
     7
370
    15
100
AcDbLine
 10
1431.3852870399
 20
369.5858328153
 30
0.0
 11
1431.5407042885
 21
369.5858328153
 31
0.0
  0
LINE
  5
55B
330
1F
100
AcDbEntity
  8
0
  6
Continuous
 62
     7
370
    15
100
AcDbLine
 10
1468.977016353
 20
367.5858324874
 30
0.0
 11
1468.977016353
 21
369.5858328153
 31
0.0
  0
LINE
  5
55C
330
1F
100
AcDbEntity
  8
0
  6
Continuous
 62
     7
370
    15
100
AcDbLine
 10
1468.5100847417
 20
369.5858328153
 30
0.0
 11
1468.977016353
 21
369.5858328153
 31
0.0
  0
LINE
  5
55D
330
1F
100
AcDbEntity
  8
0
  6
Continuous
 62
     7
370
    15
100
AcDbLine
 10
1469.1217308426
 20
367.5858324874
 30
0.0
 11
1469.1217308426
 21
369.5858328153
 31
0.0
  0
LINE
  5
55E
330
1F
100
AcDbEntity
  8
0
  6
Continuous
 62
     7
370
    15
100
AcDbLine
 10
1469.1217308426
 20
369.5858328153
 30
0.0
 11
1468.977016353
 21
369.5858328153
 31
0.0
  0
LINE
  5
55F
330
1F
100
AcDbEntity
  8
0
  6
Continuous
 62
     7
370
    15
100
AcDbLine
 10
1430.9239247376
 20
367.5858324874
 30
0.0
 11
1430.9239247376
 21
369.5858328153
 31
0.0
  0
LINE
  5
560
330
1F
100
AcDbEntity
  8
0
  6
Continuous
 62
     7
370
    15
100
AcDbLine
 10
1431.3852870399
 20
369.5858328153
 30
0.0
 11
1430.9239247376
 21
369.5858328153
 31
0.0
  0
LINE
  5
561
330
1F
100
AcDbEntity
  8
0
  6
Continuous
 62
     7
370
    15
100
AcDbLine
 10
1430.7899744743
 20
367.5858324874
 30
0.0
 11
1430.7899744743
 21
369.5858328153
 31
0.0
  0
LINE
  5
562
330
1F
100
AcDbEntity
  8
0
  6
Continuous
 62
     7
370
    15
100
AcDbLine
 10
1430.7899744743
 20
369.5858328153
 30
0.0
 11
1430.9239247376
 21
369.5858328153
 31
0.0
  0
LINE
  5
563
330
1F
100
AcDbEntity
  8
0
  6
Continuous
 62
     7
370
    15
100
AcDbLine
 10
1469.5773226702
 20
367.5858324874
 30
0.0
 11
1469.5773226702
 21
369.5858328153
 31
0.0
  0
LINE
  5
564
330
1F
100
AcDbEntity
  8
0
  6
Continuous
 62
     7
370
    15
100
AcDbLine
 10
1469.1217308426
 20
369.5858328153
 30
0.0
 11
1469.5773226702
 21
369.5858328153
 31
0.0
  0
LINE
  5
565
330
1F
100
AcDbEntity
  8
0
  6
Continuous
 62
     7
370
    15
100
AcDbLine
 10
1469.7004509652
 20
367.5858324874
 30
0.0
 11
1469.7004509652
 21
369.5858328153
 31
0.0
  0
LINE
  5
566
330
1F
100
AcDbEntity
  8
0
  6
Continuous
 62
     7
370
    15
100
AcDbLine
 10
1469.7004509652
 20
369.5858328153
 30
0.0
 11
1469.5773226702
 21
369.5858328153
 31
0.0
  0
LINE
  5
567
330
1F
100
AcDbEntity
  8
0
  6
Continuous
 62
     7
370
    15
100
AcDbLine
 10
1430.3403486991
 20
367.5858324874
 30
0.0
 11
1430.3403486991
 21
369.5858328153
 31
0.0
  0
LINE
  5
568
330
1F
100
AcDbEntity
  8
0
  6
Continuous
 62
     7
370
    15
100
AcDbLine
 10
1430.7899744743
 20
369.5858328153
 30
0.0
 11
1430.3403486991
 21
369.5858328153
 31
0.0
  0
LINE
  5
569
330
1F
100
AcDbEntity
  8
0
  6
Continuous
 62
     7
370
    15
100
AcDbLine
 10
1430.2280963892
 20
367.5858324874
 30
0.0
 11
1430.2280963892
 21
369.5858328153
 31
0.0
  0
LINE
  5
56A
330
1F
100
AcDbEntity
  8
0
  6
Continuous
 62
     7
370
    15
100
AcDbLine
 10
1430.2280963892
 20
369.5858328153
 30
0.0
 11
1430.3403486991
 21
369.5858328153
 31
0.0
  0
LINE
  5
56B
330
1F
100
AcDbEntity
  8
0
  6
Continuous
 62
     7
370
    15
100
AcDbLine
 10
1470.1439169729
 20
367.5858324874
 30
0.0
 11
1470.1439169729
 21
369.5858328153
 31
0.0
  0
LINE
  5
56C
330
1F
100
AcDbEntity
  8
0
  6
Continuous
 62
     7
370
    15
100
AcDbLine
 10
1469.7004509652
 20
369.5858328153
 30
0.0
 11
1470.1439169729
 21
369.5858328153
 31
0.0
  0
LINE
  5
56D
330
1F
100
AcDbEntity
  8
0
  6
Continuous
 62
     7
370
    15
100
AcDbLine
 10
1470.245244869
 20
367.5858324874
 30
0.0
 11
1470.245244869
 21
369.5858328153
 31
0.0
  0
LINE
  5
56E
330
1F
100
AcDbEntity
  8
0
  6
Continuous
 62
     7
370
    15
100
AcDbLine
 10
1470.245244869
 20
369.5858328153
 30
0.0
 11
1470.1439169729
 21
369.5858328153
 31
0.0
  0
LINE
  5
56F
330
1F
100
AcDbEntity
  8
0
  6
Continuous
 62
     7
370
    15
100
AcDbLine
 10
1429.7909838641
 20
367.5858324874
 30
0.0
 11
1429.7909838641
 21
369.5858328153
 31
0.0
  0
LINE
  5
570
330
1F
100
AcDbEntity
  8
0
  6
Continuous
 62
     7
370
    15
100
AcDbLine
 10
1430.2280963892
 20
369.5858328153
 30
0.0
 11
1429.7909838641
 21
369.5858328153
 31
0.0
  0
LINE
  5
571
330
1F
100
AcDbEntity
  8
0
  6
Continuous
 62
     7
370
    15
100
AcDbLine
 10
1429.7006232226
 20
367.5858324874
 30
0.0
 11
1429.7006232226
 21
369.5858328153
 31
0.0
  0
LINE
  5
572
330
1F
100
AcDbEntity
  8
0
  6
Continuous
 62
     7
370
    15
100
AcDbLine
 10
1429.7006232226
 20
369.5858328153
 30
0.0
 11
1429.7909838641
 21
369.5858328153
 31
0.0
  0
LINE
  5
573
330
1F
100
AcDbEntity
  8
0
  6
Continuous
 62
     7
370
    15
100
AcDbLine
 10
1470.6758139217
 20
367.5858324874
 30
0.0
 11
1470.6758139217
 21
369.5858328153
 31
0.0
  0
LINE
  5
574
330
1F
100
AcDbEntity
  8
0
  6
Continuous
 62
     7
370
    15
100
AcDbLine
 10
1470.245244869
 20
369.5858328153
 30
0.0
 11
1470.6758139217
 21
369.5858328153
 31
0.0
  0
LINE
  5
575
330
1F
100
AcDbEntity
  8
0
  6
Continuous
 62
     7
370
    15
100
AcDbLine
 10
1470.7551663304
 20
367.5858324874
 30
0.0
 11
1470.7551663304
 21
369.5858328153
 31
0.0
  0
LINE
  5
576
330
1F
100
AcDbEntity
  8
0
  6
Continuous
 62
     7
370
    15
100
AcDbLine
 10
1470.7551663304
 20
369.5858328153
 30
0.0
 11
1470.6758139217
 21
369.5858328153
 31
0.0
  0
LINE
  5
577
330
1F
100
AcDbEntity
  8
0
  6
Continuous
 62
     7
370
    15
100
AcDbLine
 10
1429.2767820442
 20
367.5858324874
 30
0.0
 11
1429.2767820442
 21
369.5858328153
 31
0.0
  0
LINE
  5
578
330
1F
100
AcDbEntity
  8
0
  6
Continuous
 62
     7
370
    15
100
AcDbLine
 10
1429.7006232226
 20
369.5858328153
 30
0.0
 11
1429.2767820442
 21
369.5858328153
 31
0.0
  0
LINE
  5
579
330
1F
100
AcDbEntity
  8
0
  6
Continuous
 62
     7
370
    15
100
AcDbLine
 10
1429.208471396
 20
367.5858324874
 30
0.0
 11
1429.208471396
 21
369.5858328153
 31
0.0
  0
LINE
  5
57A
330
1F
100
AcDbEntity
  8
0
  6
Continuous
 62
     7
370
    15
100
AcDbLine
 10
1429.208471396
 20
369.5858328153
 30
0.0
 11
1429.2767820442
 21
369.5858328153
 31
0.0
  0
LINE
  5
57B
330
1F
100
AcDbEntity
  8
0
  6
Continuous
 62
     7
370
    15
100
AcDbLine
 10
1471.1720970953
 20
367.5858324874
 30
0.0
 11
1471.1720970953
 21
369.5858328153
 31
0.0
  0
LINE
  5
57C
330
1F
100
AcDbEntity
  8
0
  6
Continuous
 62
     7
370
    15
100
AcDbLine
 10
1470.7551663304
 20
369.5858328153
 30
0.0
 11
1471.1720970953
 21
369.5858328153
 31
0.0
  0
LINE
  5
57D
330
1F
100
AcDbEntity
  8
0
  6
Continuous
 62
     7
370
    15
100
AcDbLine
 10
1471.2293361807
 20
367.5858324874
 30
0.0
 11
1471.2293361807
 21
369.5858328153
 31
0.0
  0
LINE
  5
57E
330
1F
100
AcDbEntity
  8
0
  6
Continuous
 62
     7
370
    15
100
AcDbLine
 10
1471.2293361807
 20
369.5858328153
 30
0.0
 11
1471.1720970953
 21
369.5858328153
 31
0.0
  0
LINE
  5
57F
330
1F
100
AcDbEntity
  8
0
  6
Continuous
 62
     7
370
    15
100
AcDbLine
 10
1428.7986335838
 20
367.5858324874
 30
0.0
 11
1428.7986335838
 21
369.5858328153
 31
0.0
  0
LINE
  5
580
330
1F
100
AcDbEntity
  8
0
  6
Continuous
 62
     7
370
    15
100
AcDbLine
 10
1429.208471396
 20
369.5858328153
 30
0.0
 11
1428.7986335838
 21
369.5858328153
 31
0.0
  0
LINE
  5
581
330
1F
100
AcDbEntity
  8
0
  6
Continuous
 62
     7
370
    15
100
AcDbLine
 10
1428.7524902755
 20
367.5858324874
 30
0.0
 11
1428.7524902755
 21
369.5858328153
 31
0.0
  0
LINE
  5
582
330
1F
100
AcDbEntity
  8
0
  6
Continuous
 62
     7
370
    15
100
AcDbLine
 10
1428.7524902755
 20
369.5858328153
 30
0.0
 11
1428.7986335838
 21
369.5858328153
 31
0.0
  0
LINE
  5
583
330
1F
100
AcDbEntity
  8
0
  6
Continuous
 62
     7
370
    15
100
AcDbLine
 10
1471.6319040889
 20
367.5858324874
 30
0.0
 11
1471.6319040889
 21
369.5858328153
 31
0.0
  0
LINE
  5
584
330
1F
100
AcDbEntity
  8
0
  6
Continuous
 62
     7
370
    15
100
AcDbLine
 10
1471.2293361807
 20
369.5858328153
 30
0.0
 11
1471.6319040889
 21
369.5858328153
 31
0.0
  0
LINE
  5
585
330
1F
100
AcDbEntity
  8
0
  6
Continuous
 62
     7
370
    15
100
AcDbLine
 10
1471.6669311309
 20
367.5858324874
 30
0.0
 11
1471.6669311309
 21
369.5858328153
 31
0.0
  0
LINE
  5
586
330
1F
100
AcDbEntity
  8
0
  6
Continuous
 62
     7
370
    15
100
AcDbLine
 10
1471.6669311309
 20
369.5858328153
 30
0.0
 11
1471.6319040889
 21
369.5858328153
 31
0.0
  0
LINE
  5
587
330
1F
100
AcDbEntity
  8
0
  6
Continuous
 62
     7
370
    15
100
AcDbLine
 10
1428.35736736
 20
367.5858324874
 30
0.0
 11
1428.35736736
 21
369.5858328153
 31
0.0
  0
LINE
  5
588
330
1F
100
AcDbEntity
  8
0
  6
Continuous
 62
     7
370
    15
100
AcDbLine
 10
1428.7524902755
 20
369.5858328153
 30
0.0
 11
1428.35736736
 21
369.5858328153
 31
0.0
  0
LINE
  5
589
330
1F
100
AcDbEntity
  8
0
  6
Continuous
 62
     7
370
    15
100
AcDbLine
 10
1428.3334714854
 20
367.5858324874
 30
0.0
 11
1428.3334714854
 21
369.5858328153
 31
0.0
  0
LINE
  5
58A
330
1F
100
AcDbEntity
  8
0
  6
Continuous
 62
     7
370
    15
100
AcDbLine
 10
1428.3334714854
 20
369.5858328153
 30
0.0
 11
1428.35736736
 21
369.5858328153
 31
0.0
  0
LINE
  5
58B
330
1F
100
AcDbEntity
  8
0
  6
Continuous
 62
     7
370
    15
100
AcDbLine
 10
1472.054439553
 20
367.5858324874
 30
0.0
 11
1472.054439553
 21
369.5858328153
 31
0.0
  0
LINE
  5
58C
330
1F
100
AcDbEntity
  8
0
  6
Continuous
 62
     7
370
    15
100
AcDbLine
 10
1471.6669311309
 20
369.5858328153
 30
0.0
 11
1472.054439553
 21
369.5858328153
 31
0.0
  0
LINE
  5
58D
330
1F
100
AcDbEntity
  8
0
  6
Continuous
 62
     7
370
    15
100
AcDbLine
 10
1472.067194947
 20
367.5858324874
 30
0.0
 11
1472.067194947
 21
369.5858328153
 31
0.0
  0
LINE
  5
58E
330
1F
100
AcDbEntity
  8
0
  6
Continuous
 62
     7
370
    15
100
AcDbLine
 10
1472.067194947
 20
369.5858328153
 30
0.0
 11
1472.054439553
 21
369.5858328153
 31
0.0
  0
LINE
  5
58F
330
1F
100
AcDbEntity
  8
0
  6
Continuous
 62
     7
370
    15
100
AcDbLine
 10
1427.9537451947
 20
367.5858324874
 30
0.0
 11
1427.9537451947
 21
369.5858328153
 31
0.0
  0
LINE
  5
590
330
1F
100
AcDbEntity
  8
0
  6
Continuous
 62
     7
370
    15
100
AcDbLine
 10
1428.3334714854
 20
369.5858328153
 30
0.0
 11
1427.9537451947
 21
369.5858328153
 31
0.0
  0
LINE
  5
591
330
1F
100
AcDbEntity
  8
0
  6
Continuous
 62
     7
370
    15
100
AcDbLine
 10
1427.9521377319
 20
367.5858324874
 30
0.0
 11
1427.9521377319
 21
369.5858328153
 31
0.0
  0
LINE
  5
592
330
1F
100
AcDbEntity
  8
0
  6
Continuous
 62
     7
370
    15
100
AcDbLine
 10
1427.9521377319
 20
369.5858328153
 30
0.0
 11
1427.9537451947
 21
369.5858328153
 31
0.0
  0
LINE
  5
593
330
1F
100
AcDbEntity
  8
0
  6
Continuous
 62
     7
370
    15
100
AcDbLine
 10
1472.4389733309
 20
367.5858324874
 30
0.0
 11
1472.4389733309
 21
369.5858328153
 31
0.0
  0
LINE
  5
594
330
1F
100
AcDbEntity
  8
0
  6
Continuous
 62
     7
370
    15
100
AcDbLine
 10
1472.067194947
 20
369.5858328153
 30
0.0
 11
1472.4389733309
 21
369.5858328153
 31
0.0
  0
LINE
  5
595
330
1F
100
AcDbEntity
  8
0
  6
Continuous
 62
     7
370
    15
100
AcDbLine
 10
1427.5884674424
 20
367.5858324874
 30
0.0
 11
1427.5884674424
 21
369.5858328153
 31
0.0
  0
LINE
  5
596
330
1F
100
AcDbEntity
  8
0
  6
Continuous
 62
     7
370
    15
100
AcDbLine
 10
1427.9521377319
 20
369.5858328153
 30
0.0
 11
1427.5884674424
 21
369.5858328153
 31
0.0
  0
LINE
  5
597
330
1F
100
AcDbEntity
  8
0
  6
Continuous
 62
     7
370
    15
100
AcDbLine
 10
1472.7848385954
 20
367.5858324874
 30
0.0
 11
1472.7848385954
 21
369.5858328153
 31
0.0
  0
LINE
  5
598
330
1F
100
AcDbEntity
  8
0
  6
Continuous
 62
     7
370
    15
100
AcDbLine
 10
1472.4389733309
 20
369.5858328153
 30
0.0
 11
1472.7848385954
 21
369.5858328153
 31
0.0
  0
LINE
  5
599
330
1F
100
AcDbEntity
  8
0
  6
Continuous
 62
     7
370
    15
100
AcDbLine
 10
1427.2621655399
 20
367.5858324874
 30
0.0
 11
1427.2621655399
 21
369.5858328153
 31
0.0
  0
LINE
  5
59A
330
1F
100
AcDbEntity
  8
0
  6
Continuous
 62
     7
370
    15
100
AcDbLine
 10
1427.5884674424
 20
369.5858328153
 30
0.0
 11
1427.2621655399
 21
369.5858328153
 31
0.0
  0
LINE
  5
59B
330
1F
100
AcDbEntity
  8
0
  6
Continuous
 62
     7
370
    15
100
AcDbLine
 10
1473.0914355749
 20
367.5858324874
 30
0.0
 11
1473.0914355749
 21
369.5858328153
 31
0.0
  0
LINE
  5
59C
330
1F
100
AcDbEntity
  8
0
  6
Continuous
 62
     7
370
    15
100
AcDbLine
 10
1472.7848385954
 20
369.5858328153
 30
0.0
 11
1473.0914355749
 21
369.5858328153
 31
0.0
  0
LINE
  5
59D
330
1F
100
AcDbEntity
  8
0
  6
Continuous
 62
     7
370
    15
100
AcDbLine
 10
1426.9754038686
 20
367.5858324874
 30
0.0
 11
1426.9754038686
 21
369.5858328153
 31
0.0
  0
LINE
  5
59E
330
1F
100
AcDbEntity
  8
0
  6
Continuous
 62
     7
370
    15
100
AcDbLine
 10
1427.2621655399
 20
369.5858328153
 30
0.0
 11
1426.9754038686
 21
369.5858328153
 31
0.0
  0
LINE
  5
59F
330
1F
100
AcDbEntity
  8
0
  6
Continuous
 62
     7
370
    15
100
AcDbLine
 10
1473.3582352781
 20
367.5858324874
 30
0.0
 11
1473.3582352781
 21
369.5858328153
 31
0.0
  0
LINE
  5
5A0
330
1F
100
AcDbEntity
  8
0
  6
Continuous
 62
     7
370
    15
100
AcDbLine
 10
1473.0914355749
 20
369.5858328153
 30
0.0
 11
1473.3582352781
 21
369.5858328153
 31
0.0
  0
LINE
  5
5A1
330
1F
100
AcDbEntity
  8
0
  6
Continuous
 62
     7
370
    15
100
AcDbLine
 10
1426.7286816174
 20
367.5858324874
 30
0.0
 11
1426.7286816174
 21
369.5858328153
 31
0.0
  0
LINE
  5
5A2
330
1F
100
AcDbEntity
  8
0
  6
Continuous
 62
     7
370
    15
100
AcDbLine
 10
1426.9754038686
 20
369.5858328153
 30
0.0
 11
1426.7286816174
 21
369.5858328153
 31
0.0
  0
LINE
  5
5A3
330
1F
100
AcDbEntity
  8
0
  6
Continuous
 62
     7
370
    15
100
AcDbLine
 10
1473.5847757691
 20
367.5858324874
 30
0.0
 11
1473.5847757691
 21
369.5858328153
 31
0.0
  0
LINE
  5
5A4
330
1F
100
AcDbEntity
  8
0
  6
Continuous
 62
     7
370
    15
100
AcDbLine
 10
1473.3582352781
 20
369.5858328153
 30
0.0
 11
1473.5847757691
 21
369.5858328153
 31
0.0
  0
LINE
  5
5A5
330
1F
100
AcDbEntity
  8
0
  6
Continuous
 62
     7
370
    15
100
AcDbLine
 10
1426.5224216068
 20
367.5858324874
 30
0.0
 11
1426.5224216068
 21
369.5858328153
 31
0.0
  0
LINE
  5
5A6
330
1F
100
AcDbEntity
  8
0
  6
Continuous
 62
     7
370
    15
100
AcDbLine
 10
1426.7286816174
 20
369.5858328153
 30
0.0
 11
1426.5224216068
 21
369.5858328153
 31
0.0
  0
LINE
  5
5A7
330
1F
100
AcDbEntity
  8
0
  6
Continuous
 62
     7
370
    15
100
AcDbLine
 10
1473.7706640297
 20
367.5858324874
 30
0.0
 11
1473.7706640297
 21
369.5858328153
 31
0.0
  0
LINE
  5
5A8
330
1F
100
AcDbEntity
  8
0
  6
Continuous
 62
     7
370
    15
100
AcDbLine
 10
1473.5847757691
 20
369.5858328153
 30
0.0
 11
1473.7706640297
 21
369.5858328153
 31
0.0
  0
LINE
  5
5A9
330
1F
100
AcDbEntity
  8
0
  6
Continuous
 62
     7
370
    15
100
AcDbLine
 10
1426.3569851899
 20
367.5858324874
 30
0.0
 11
1426.3569851899
 21
369.5858328153
 31
0.0
  0
LINE
  5
5AA
330
1F
100
AcDbEntity
  8
0
  6
Continuous
 62
     7
370
    15
100
AcDbLine
 10
1426.5224216068
 20
369.5858328153
 30
0.0
 11
1426.3569851899
 21
369.5858328153
 31
0.0
  0
LINE
  5
5AB
330
1F
100
AcDbEntity
  8
0
  6
Continuous
 62
     7
370
    15
100
AcDbLine
 10
1473.915579685
 20
367.5858324874
 30
0.0
 11
1473.915579685
 21
369.5858328153
 31
0.0
  0
LINE
  5
5AC
330
1F
100
AcDbEntity
  8
0
  6
Continuous
 62
     7
370
    15
100
AcDbLine
 10
1473.7706640297
 20
369.5858328153
 30
0.0
 11
1473.915579685
 21
369.5858328153
 31
0.0
  0
LINE
  5
5AD
330
1F
100
AcDbEntity
  8
0
  6
Continuous
 62
     7
370
    15
100
AcDbLine
 10
1426.2326554889
 20
367.5858324874
 30
0.0
 11
1426.2326554889
 21
369.5858328153
 31
0.0
  0
LINE
  5
5AE
330
1F
100
AcDbEntity
  8
0
  6
Continuous
 62
     7
370
    15
100
AcDbLine
 10
1426.3569851899
 20
369.5858328153
 30
0.0
 11
1426.2326554889
 21
369.5858328153
 31
0.0
  0
LINE
  5
5AF
330
1F
100
AcDbEntity
  8
0
  6
Continuous
 62
     7
370
    15
100
AcDbLine
 10
1474.0192694152
 20
367.5858324874
 30
0.0
 11
1474.0192694152
 21
369.5858328153
 31
0.0
  0
LINE
  5
5B0
330
1F
100
AcDbEntity
  8
0
  6
Continuous
 62
     7
370
    15
100
AcDbLine
 10
1473.915579685
 20
369.5858328153
 30
0.0
 11
1474.0192694152
 21
369.5858328153
 31
0.0
  0
LINE
  5
5B1
330
1F
100
AcDbEntity
  8
0
  6
Continuous
 62
     7
370
    15
100
AcDbLine
 10
1426.1496485704
 20
367.5858324874
 30
0.0
 11
1426.1496485704
 21
369.5858328153
 31
0.0
  0
LINE
  5
5B2
330
1F
100
AcDbEntity
  8
0
  6
Continuous
 62
     7
370
    15
100
AcDbLine
 10
1426.2326554889
 20
369.5858328153
 30
0.0
 11
1426.1496485704
 21
369.5858328153
 31
0.0
  0
LINE
  5
5B3
330
1F
100
AcDbEntity
  8
0
  6
Continuous
 62
     7
370
    15
100
AcDbLine
 10
1474.0815544063
 20
367.5858324874
 30
0.0
 11
1474.0815544063
 21
369.5858328153
 31
0.0
  0
LINE
  5
5B4
330
1F
100
AcDbEntity
  8
0
  6
Continuous
 62
     7
370
    15
100
AcDbLine
 10
1474.0192694152
 20
369.5858328153
 30
0.0
 11
1474.0815544063
 21
369.5858328153
 31
0.0
  0
LINE
  5
5B5
330
1F
100
AcDbEntity
  8
0
  6
Continuous
 62
     7
370
    15
100
AcDbLine
 10
1426.108109721
 20
367.5858324874
 30
0.0
 11
1426.108109721
 21
369.5858328153
 31
0.0
  0
LINE
  5
5B6
330
1F
100
AcDbEntity
  8
0
  6
Continuous
 62
     7
370
    15
100
AcDbLine
 10
1426.1496485704
 20
369.5858328153
 30
0.0
 11
1426.108109721
 21
369.5858328153
 31
0.0
  0
LINE
  5
5B7
330
1F
100
AcDbEntity
  8
0
  6
Continuous
 62
     7
370
    15
100
AcDbLine
 10
1474.1023284876
 20
367.5858324874
 30
0.0
 11
1474.1023284876
 21
369.5858328153
 31
0.0
  0
LINE
  5
5B8
330
1F
100
AcDbEntity
  8
0
  6
Continuous
 62
     7
370
    15
100
AcDbLine
 10
1474.0815544063
 20
369.5858328153
 30
0.0
 11
1474.1023284876
 21
369.5858328153
 31
0.0
  0
LINE
  5
5B9
330
1F
100
AcDbEntity
  8
0
  6
Continuous
 62
     7
370
    15
100
AcDbLine
 10
1431.1026231879
 20
383.0858322341
 30
0.0
 11
1435.6026229942
 21
383.0858322341
 31
0.0
  0
LINE
  5
5BA
330
1F
100
AcDbEntity
  8
0
  6
Continuous
 62
     7
370
    15
100
AcDbLine
 10
1465.6026223236
 20
383.0858322341
 30
0.0
 11
1469.102621966
 21
383.0858322341
 31
0.0
  0
LINE
  5
5BB
330
1F
100
AcDbEntity
  8
0
  6
Continuous
 62
     7
370
    15
100
AcDbLine
 10
1431.1026231879
 20
386.0858327259
 30
0.0
 11
1435.6026229942
 21
386.0858327259
 31
0.0
  0
LINE
  5
5BC
330
1F
100
AcDbEntity
  8
0
  6
Continuous
 62
     7
370
    15
100
AcDbLine
 10
1465.6026223236
 20
386.0858327259
 30
0.0
 11
1469.102621966
 21
386.0858327259
 31
0.0
  0
LINE
  5
5BD
330
1F
100
AcDbEntity
  8
0
  6
Continuous
 62
     7
370
    15
100
AcDbLine
 10
1432.1026233518
 20
347.8358325098
 30
0.0
 11
1435.6026229942
 21
347.8358325098
 31
0.0
  0
LINE
  5
5BE
330
1F
100
AcDbEntity
  8
0
  6
Continuous
 62
     7
370
    15
100
AcDbLine
 10
1465.6026223236
 20
347.8358325098
 30
0.0
 11
1468.1026218021
 21
347.8358325098
 31
0.0
  0
LINE
  5
5BF
330
1F
100
AcDbEntity
  8
0
  6
Continuous
 62
     7
370
    15
100
AcDbLine
 10
1431.1026231879
 20
348.5858321671
 30
0.0
 11
1435.6026229942
 21
348.5858321671
 31
0.0
  0
LINE
  5
5C0
330
1F
100
AcDbEntity
  8
0
  6
Continuous
 62
     7
370
    15
100
AcDbLine
 10
1465.6026223236
 20
348.5858321671
 30
0.0
 11
1469.102621966
 21
348.5858321671
 31
0.0
  0
LINE
  5
5C1
330
1F
100
AcDbEntity
  8
0
  6
Continuous
 62
     7
370
    15
100
AcDbLine
 10
1432.1026233518
 20
349.33583229
 30
0.0
 11
1435.6026229942
 21
349.33583229
 31
0.0
  0
LINE
  5
5C2
330
1F
100
AcDbEntity
  8
0
  6
Continuous
 62
     7
370
    15
100
AcDbLine
 10
1465.6026223236
 20
349.33583229
 30
0.0
 11
1468.1026218021
 21
349.33583229
 31
0.0
  0
LINE
  5
5C3
330
1F
100
AcDbEntity
  8
0
  6
Continuous
 62
     7
370
    15
100
AcDbLine
 10
1431.1026231879
 20
347.0858319212
 30
0.0
 11
1435.6026229942
 21
347.0858319212
 31
0.0
  0
LINE
  5
5C4
330
1F
100
AcDbEntity
  8
0
  6
Continuous
 62
     7
370
    15
100
AcDbLine
 10
1465.6026223236
 20
347.0858319212
 30
0.0
 11
1469.102621966
 21
347.0858319212
 31
0.0
  0
LINE
  5
5C5
330
1F
100
AcDbEntity
  8
0
  6
Continuous
 62
     7
370
    15
100
AcDbLine
 10
1431.1026231879
 20
350.0858324129
 30
0.0
 11
1435.6026229942
 21
350.0858324129
 31
0.0
  0
LINE
  5
5C6
330
1F
100
AcDbEntity
  8
0
  6
Continuous
 62
     7
370
    15
100
AcDbLine
 10
1465.6026223236
 20
350.0858324129
 30
0.0
 11
1469.102621966
 21
350.0858324129
 31
0.0
  0
LINE
  5
5C7
330
1F
100
AcDbEntity
  8
0
  6
Continuous
 62
     7
370
    15
100
AcDbLine
 10
1432.1026233518
 20
350.8358325359
 30
0.0
 11
1435.6026229942
 21
350.8358325359
 31
0.0
  0
LINE
  5
5C8
330
1F
100
AcDbEntity
  8
0
  6
Continuous
 62
     7
370
    15
100
AcDbLine
 10
1465.6026223236
 20
350.8358325359
 30
0.0
 11
1468.1026218021
 21
350.8358325359
 31
0.0
  0
LINE
  5
5C9
330
1F
100
AcDbEntity
  8
0
  6
Continuous
 62
     7
370
    15
100
AcDbLine
 10
1431.1026231879
 20
351.5858321931
 30
0.0
 11
1435.6026229942
 21
351.5858321931
 31
0.0
  0
LINE
  5
5CA
330
1F
100
AcDbEntity
  8
0
  6
Continuous
 62
     7
370
    15
100
AcDbLine
 10
1465.6026223236
 20
351.5858321931
 30
0.0
 11
1469.102621966
 21
351.5858321931
 31
0.0
  0
LINE
  5
5CB
330
1F
100
AcDbEntity
  8
0
  6
Continuous
 62
     7
370
    15
100
AcDbLine
 10
1432.1026233518
 20
352.3358323161
 30
0.0
 11
1435.6026229942
 21
352.3358323161
 31
0.0
  0
LINE
  5
5CC
330
1F
100
AcDbEntity
  8
0
  6
Continuous
 62
     7
370
    15
100
AcDbLine
 10
1465.6026223236
 20
352.3358323161
 30
0.0
 11
1468.1026218021
 21
352.3358323161
 31
0.0
  0
LINE
  5
5CD
330
1F
100
AcDbEntity
  8
0
  6
Continuous
 62
     7
370
    15
100
AcDbLine
 10
1431.1026231879
 20
353.085832439
 30
0.0
 11
1435.6026229942
 21
353.085832439
 31
0.0
  0
LINE
  5
5CE
330
1F
100
AcDbEntity
  8
0
  6
Continuous
 62
     7
370
    15
100
AcDbLine
 10
1465.6026223236
 20
353.085832439
 30
0.0
 11
1469.102621966
 21
353.085832439
 31
0.0
  0
LINE
  5
5CF
330
1F
100
AcDbEntity
  8
0
  6
Continuous
 62
     7
370
    15
100
AcDbLine
 10
1432.1026233518
 20
353.8358323291
 30
0.0
 11
1435.6026229942
 21
353.8358323291
 31
0.0
  0
LINE
  5
5D0
330
1F
100
AcDbEntity
  8
0
  6
Continuous
 62
     7
370
    15
100
AcDbLine
 10
1465.6026223236
 20
353.8358323291
 30
0.0
 11
1468.1026218021
 21
353.8358323291
 31
0.0
  0
LINE
  5
5D1
330
1F
100
AcDbEntity
  8
0
  6
Continuous
 62
     7
370
    15
100
AcDbLine
 10
1431.1026231879
 20
354.5858323356
 30
0.0
 11
1435.6026229942
 21
354.5858323356
 31
0.0
  0
LINE
  5
5D2
330
1F
100
AcDbEntity
  8
0
  6
Continuous
 62
     7
370
    15
100
AcDbLine
 10
1465.6026223236
 20
354.5858323356
 30
0.0
 11
1469.102621966
 21
354.5858323356
 31
0.0
  0
LINE
  5
5D3
330
1F
100
AcDbEntity
  8
0
  6
Continuous
 62
     7
370
    15
100
AcDbLine
 10
1432.1026233518
 20
355.3358323712
 30
0.0
 11
1435.6026229942
 21
355.3358323712
 31
0.0
  0
LINE
  5
5D4
330
1F
100
AcDbEntity
  8
0
  6
Continuous
 62
     7
370
    15
100
AcDbLine
 10
1465.6026223236
 20
355.3358323712
 30
0.0
 11
1468.1026218021
 21
355.3358323712
 31
0.0
  0
LINE
  5
5D5
330
1F
100
AcDbEntity
  8
0
  6
Continuous
 62
     7
370
    15
100
AcDbLine
 10
1442.6026227446
 20
407.0858324427
 30
0.0
 11
1457.6026224093
 21
407.0858324427
 31
0.0
  0
ENDSEC
  0
SECTION
  2
OBJECTS
  0
DICTIONARY
  5
C
330
0
100
AcDbDictionary
281
     1
  3
ACAD_DETAILVIEWSTYLE
350
5DD
  3
ACAD_GROUP
350
D
  3
ACAD_LAYOUT
350
1A
  3
ACAD_MATERIAL
350
43
  3
ACAD_MLEADERSTYLE
350
6B
  3
ACAD_MLINESTYLE
350
17
  3
ACAD_PLOTSETTINGS
350
19
  3
ACAD_PLOTSTYLENAME
350
E
  3
ACAD_SCALELIST
350
47
  3
ACAD_SECTIONVIEWSTYLE
350
5DE
  3
ACAD_TABLESTYLE
350
69
  3
ACAD_VISUALSTYLE
350
2A
  3
ACDB_RECOMPOSE_DATA
350
5DA
  3
AcDbVariableDictionary
350
5D6
  0
SUN
  5
6D
330
29
100
AcDbSun
 90
        1
290
     0
 63
     7
421
 16777215
 40
1.0
291
     1
 91
  2455826
 92
 54000000
292
     0
 70
     2
 71
   256
280
     1
  0
DICTIONARY
  5
5DD
102
{ACAD_REACTORS
330
C
102
}
330
C
100
AcDbDictionary
281
     1
  0
DICTIONARY
  5
D
102
{ACAD_REACTORS
330
C
102
}
330
C
100
AcDbDictionary
281
     1
  0
DICTIONARY
  5
1A
102
{ACAD_REACTORS
330
C
102
}
330
C
100
AcDbDictionary
281
     1
  3
Layout1
350
1E
  3
Layout2
350
26
  3
Model
350
22
  0
DICTIONARY
  5
43
102
{ACAD_REACTORS
330
C
102
}
330
C
100
AcDbDictionary
281
     1
  3
ByBlock
350
45
  3
ByLayer
350
44
  3
Global
350
46
  0
DICTIONARY
  5
6B
102
{ACAD_REACTORS
330
C
102
}
330
C
100
AcDbDictionary
281
     1
  3
Standard
350
6C
  0
DICTIONARY
  5
17
102
{ACAD_REACTORS
330
C
102
}
330
C
100
AcDbDictionary
281
     1
  3
Standard
350
18
  0
DICTIONARY
  5
19
102
{ACAD_REACTORS
330
C
102
}
330
C
100
AcDbDictionary
281
     1
  0
ACDBDICTIONARYWDFLT
  5
E
102
{ACAD_REACTORS
330
C
102
}
330
C
100
AcDbDictionary
281
     1
  3
Normal
350
F
100
AcDbDictionaryWithDefault
340
F
  0
DICTIONARY
  5
47
102
{ACAD_REACTORS
330
C
102
}
330
C
100
AcDbDictionary
281
     1
  3
A0
350
48
  3
A1
350
49
  3
A2
350
4A
  3
A3
350
4B
  3
A4
350
4C
  3
A5
350
4D
  3
A6
350
4E
  3
A7
350
4F
  3
A8
350
50
  3
A9
350
51
  3
B0
350
52
  3
B1
350
53
  3
B2
350
54
  3
B3
350
55
  3
B4
350
56
  3
B5
350
57
  3
B6
350
58
  3
B7
350
59
  3
B8
350
5A
  3
B9
350
5B
  3
C0
350
5C
  3
C1
350
5D
  3
C2
350
5E
  3
C3
350
5F
  3
C4
350
60
  3
C5
350
61
  3
C6
350
62
  3
C7
350
63
  3
C8
350
64
  3
C9
350
65
  3
D0
350
66
  3
D1
350
67
  3
D2
350
68
  0
DICTIONARY
  5
5DE
102
{ACAD_REACTORS
330
C
102
}
330
C
100
AcDbDictionary
281
     1
  0
DICTIONARY
  5
69
102
{ACAD_REACTORS
330
C
102
}
330
C
100
AcDbDictionary
281
     1
  3
Standard
350
6A
  0
DICTIONARY
  5
2A
102
{ACAD_REACTORS
330
C
102
}
330
C
100
AcDbDictionary
281
     1
  3
2dWireframe
350
2F
  3
Basic
350
32
  3
Brighten
350
36
  3
ColorChange
350
3A
  3
Conceptual
350
34
  3
Dim
350
35
  3
EdgeColorOff
350
3D
  3
Facepattern
350
39
  3
Flat
350
2B
  3
FlatWithEdges
350
2C
  3
Gouraud
350
2D
  3
GouraudWithEdges
350
2E
  3
Hidden
350
31
  3
JitterOff
350
3B
  3
Linepattern
350
38
  3
OverhangOff
350
3C
  3
Realistic
350
33
  3
Shaded
350
42
  3
Shaded with edges
350
41
  3
Shades of Gray
350
3E
  3
Sketchy
350
3F
  3
Thicken
350
37
  3
Wireframe
350
30
  3
X-Ray
350
40
  0
XRECORD
  5
5DA
102
{ACAD_REACTORS
330
C
102
}
330
C
100
AcDbXrecord
280
     1
 90
        1
330
6A
  0
DICTIONARY
  5
5D6
102
{ACAD_REACTORS
330
C
102
}
330
C
100
AcDbDictionary
281
     1
  3
CANNOSCALE
350
5D7
  3
CMLEADERSTYLE
350
5DC
  3
CTABLESTYLE
350
5DB
  0
LAYOUT
  5
1E
102
{ACAD_REACTORS
330
1A
102
}
330
1A
100
AcDbPlotSettings
  1

  2
none_device
  4

  6

 40
0.0
 41
0.0
 42
0.0
 43
0.0
 44
0.0
 45
0.0
 46
0.0
 47
0.0
 48
0.0
 49
0.0
140
0.0
141
0.0
142
1.0
143
1.0
 70
   688
 72
     1
 73
     0
 74
     5
  7

 75
    16
 76
     0
 77
     2
 78
   300
147
1.0
148
0.0
149
0.0
100
AcDbLayout
  1
Layout1
 70
     1
 71
     1
 10
0.0
 20
0.0
 11
420.0
 21
297.0
 12
0.0
 22
0.0
 32
0.0
 14
1.0000000000E+20
 24
1.0000000000E+20
 34
1.0000000000E+20
 15
-1.0000000000E+20
 25
-1.0000000000E+20
 35
-1.0000000000E+20
146
0.0
 13
0.0
 23
0.0
 33
0.0
 16
1.0
 26
0.0
 36
0.0
 17
0.0
 27
1.0
 37
0.0
 76
     0
330
1B
  0
LAYOUT
  5
26
102
{ACAD_REACTORS
330
1A
102
}
330
1A
100
AcDbPlotSettings
  1

  2
none_device
  4

  6

 40
0.0
 41
0.0
 42
0.0
 43
0.0
 44
0.0
 45
0.0
 46
0.0
 47
0.0
 48
0.0
 49
0.0
140
0.0
141
0.0
142
1.0
143
1.0
 70
   688
 72
     1
 73
     0
 74
     5
  7

 75
    16
 76
     0
 77
     2
 78
   300
147
1.0
148
0.0
149
0.0
100
AcDbLayout
  1
Layout2
 70
     1
 71
     2
 10
0.0
 20
0.0
 11
0.0
 21
0.0
 12
0.0
 22
0.0
 32
0.0
 14
0.0
 24
0.0
 34
0.0
 15
0.0
 25
0.0
 35
0.0
146
0.0
 13
0.0
 23
0.0
 33
0.0
 16
1.0
 26
0.0
 36
0.0
 17
0.0
 27
1.0
 37
0.0
 76
     0
330
23
  0
LAYOUT
  5
22
102
{ACAD_REACTORS
330
1A
102
}
330
1A
100
AcDbPlotSettings
  1

  2
none_device
  4
Letter_(8.50_x_11.00_Inches)
  6

 40
6.35
 41
6.35
 42
6.35000508
 43
6.35000508
 44
215.9
 45
279.4
 46
0.0
 47
0.0
 48
0.0
 49
0.0
140
0.0
141
0.0
142
1.0
143
1.0
 70
  1712
 72
     1
 73
     0
 74
     0
  7

 75
     0
 76
     0
 77
     2
 78
   300
147
1.0
148
0.0
149
0.0
100
AcDbLayout
  1
Model
 70
     1
 71
     0
 10
0.0
 20
0.0
 11
2000.0
 21
2000.0
 12
0.0
 22
0.0
 32
0.0
 14
0.0
 24
0.0
 34
0.0
 15
2000.0
 25
2000.0
 35
0.0
146
0.0
 13
0.0
 23
0.0
 33
0.0
 16
1.0
 26
0.0
 36
0.0
 17
0.0
 27
1.0
 37
0.0
 76
     0
330
1F
331
29
  0
MATERIAL
  5
45
102
{ACAD_REACTORS
330
43
102
}
330
43
100
AcDbMaterial
  1
ByBlock
 72
     1
 94
      127
  0
MATERIAL
  5
44
102
{ACAD_REACTORS
330
43
102
}
330
43
100
AcDbMaterial
  1
ByLayer
 72
     1
 94
      127
  0
MATERIAL
  5
46
102
{ACAD_REACTORS
330
43
102
}
330
43
100
AcDbMaterial
  1
Global
 72
     1
 94
      127
  0
MLEADERSTYLE
  5
6C
102
{ACAD_REACTORS
330
6B
102
}
330
6B
100
AcDbMLeaderStyle
179
     2
170
     2
171
     1
172
     0
 90
        2
 40
0.0
 41
0.0
173
     1
 91
-1056964608
340
14
 92
       -2
290
     1
 42
2.0
291
     1
 43
8.0
  3
Standard
341
0
 44
4.0
300

342
11
174
     1
178
     6
175
     1
176
     0
 93
-1056964608
 45
4.0
292
     0
297
     0
 46
4.0
343
0
 94
-1056964608
 47
1.0
 49
1.0
140
1.0
293
     1
141
0.0
294
     1
177
     0
142
1.0
295
     0
296
     0
143
3.75
271
     0
272
     9
273
     9
  0
MLINESTYLE
  5
18
102
{ACAD_REACTORS
330
17
102
}
330
17
100
AcDbMlineStyle
  2
Standard
 70
     0
  3

 62
   256
 51
90.0
 52
90.0
 71
     2
 49
0.5
 62
   256
  6
BYLAYER
 49
-0.5
 62
   256
  6
BYLAYER
  0
ACDBPLACEHOLDER
  5
F
102
{ACAD_REACTORS
330
E
102
}
330
E
  0
SCALE
  5
48
102
{ACAD_REACTORS
330
47
102
}
330
47
100
AcDbScale
 70
     0
300
1:1
140
1.0
141
1.0
290
     1
  0
SCALE
  5
49
102
{ACAD_REACTORS
330
47
102
}
330
47
100
AcDbScale
 70
     0
300
1:2
140
1.0
141
2.0
290
     0
  0
SCALE
  5
4A
102
{ACAD_REACTORS
330
47
102
}
330
47
100
AcDbScale
 70
     0
300
1:4
140
1.0
141
4.0
290
     0
  0
SCALE
  5
4B
102
{ACAD_REACTORS
330
47
102
}
330
47
100
AcDbScale
 70
     0
300
1:5
140
1.0
141
5.0
290
     0
  0
SCALE
  5
4C
102
{ACAD_REACTORS
330
47
102
}
330
47
100
AcDbScale
 70
     0
300
1:8
140
1.0
141
8.0
290
     0
  0
SCALE
  5
4D
102
{ACAD_REACTORS
330
47
102
}
330
47
100
AcDbScale
 70
     0
300
1:10
140
1.0
141
10.0
290
     0
  0
SCALE
  5
4E
102
{ACAD_REACTORS
330
47
102
}
330
47
100
AcDbScale
 70
     0
300
1:16
140
1.0
141
16.0
290
     0
  0
SCALE
  5
4F
102
{ACAD_REACTORS
330
47
102
}
330
47
100
AcDbScale
 70
     0
300
1:20
140
1.0
141
20.0
290
     0
  0
SCALE
  5
50
102
{ACAD_REACTORS
330
47
102
}
330
47
100
AcDbScale
 70
     0
300
1:30
140
1.0
141
30.0
290
     0
  0
SCALE
  5
51
102
{ACAD_REACTORS
330
47
102
}
330
47
100
AcDbScale
 70
     0
300
1:40
140
1.0
141
40.0
290
     0
  0
SCALE
  5
52
102
{ACAD_REACTORS
330
47
102
}
330
47
100
AcDbScale
 70
     0
300
1:50
140
1.0
141
50.0
290
     0
  0
SCALE
  5
53
102
{ACAD_REACTORS
330
47
102
}
330
47
100
AcDbScale
 70
     0
300
1:100
140
1.0
141
100.0
290
     0
  0
SCALE
  5
54
102
{ACAD_REACTORS
330
47
102
}
330
47
100
AcDbScale
 70
     0
300
2:1
140
2.0
141
1.0
290
     0
  0
SCALE
  5
55
102
{ACAD_REACTORS
330
47
102
}
330
47
100
AcDbScale
 70
     0
300
4:1
140
4.0
141
1.0
290
     0
  0
SCALE
  5
56
102
{ACAD_REACTORS
330
47
102
}
330
47
100
AcDbScale
 70
     0
300
8:1
140
8.0
141
1.0
290
     0
  0
SCALE
  5
57
102
{ACAD_REACTORS
330
47
102
}
330
47
100
AcDbScale
 70
     0
300
10:1
140
10.0
141
1.0
290
     0
  0
SCALE
  5
58
102
{ACAD_REACTORS
330
47
102
}
330
47
100
AcDbScale
 70
     0
300
100:1
140
100.0
141
1.0
290
     0
  0
SCALE
  5
59
102
{ACAD_REACTORS
330
47
102
}
330
47
100
AcDbScale
 70
     0
300
1/128" = 1'-0"
140
0.0078125
141
12.0
290
     0
  0
SCALE
  5
5A
102
{ACAD_REACTORS
330
47
102
}
330
47
100
AcDbScale
 70
     0
300
1/64" = 1'-0"
140
0.015625
141
12.0
290
     0
  0
SCALE
  5
5B
102
{ACAD_REACTORS
330
47
102
}
330
47
100
AcDbScale
 70
     0
300
1/32" = 1'-0"
140
0.03125
141
12.0
290
     0
  0
SCALE
  5
5C
102
{ACAD_REACTORS
330
47
102
}
330
47
100
AcDbScale
 70
     0
300
1/16" = 1'-0"
140
0.0625
141
12.0
290
     0
  0
SCALE
  5
5D
102
{ACAD_REACTORS
330
47
102
}
330
47
100
AcDbScale
 70
     0
300
3/32" = 1'-0"
140
0.09375
141
12.0
290
     0
  0
SCALE
  5
5E
102
{ACAD_REACTORS
330
47
102
}
330
47
100
AcDbScale
 70
     0
300
1/8" = 1'-0"
140
0.125
141
12.0
290
     0
  0
SCALE
  5
5F
102
{ACAD_REACTORS
330
47
102
}
330
47
100
AcDbScale
 70
     0
300
3/16" = 1'-0"
140
0.1875
141
12.0
290
     0
  0
SCALE
  5
60
102
{ACAD_REACTORS
330
47
102
}
330
47
100
AcDbScale
 70
     0
300
1/4" = 1'-0"
140
0.25
141
12.0
290
     0
  0
SCALE
  5
61
102
{ACAD_REACTORS
330
47
102
}
330
47
100
AcDbScale
 70
     0
300
3/8" = 1'-0"
140
0.375
141
12.0
290
     0
  0
SCALE
  5
62
102
{ACAD_REACTORS
330
47
102
}
330
47
100
AcDbScale
 70
     0
300
1/2" = 1'-0"
140
0.5
141
12.0
290
     0
  0
SCALE
  5
63
102
{ACAD_REACTORS
330
47
102
}
330
47
100
AcDbScale
 70
     0
300
3/4" = 1'-0"
140
0.75
141
12.0
290
     0
  0
SCALE
  5
64
102
{ACAD_REACTORS
330
47
102
}
330
47
100
AcDbScale
 70
     0
300
1" = 1'-0"
140
1.0
141
12.0
290
     0
  0
SCALE
  5
65
102
{ACAD_REACTORS
330
47
102
}
330
47
100
AcDbScale
 70
     0
300
1-1/2" = 1'-0"
140
1.5
141
12.0
290
     0
  0
SCALE
  5
66
102
{ACAD_REACTORS
330
47
102
}
330
47
100
AcDbScale
 70
     0
300
3" = 1'-0"
140
3.0
141
12.0
290
     0
  0
SCALE
  5
67
102
{ACAD_REACTORS
330
47
102
}
330
47
100
AcDbScale
 70
     0
300
6" = 1'-0"
140
6.0
141
12.0
290
     0
  0
SCALE
  5
68
102
{ACAD_REACTORS
330
47
102
}
330
47
100
AcDbScale
 70
     0
300
1'-0" = 1'-0"
140
12.0
141
12.0
290
     0
  0
TABLESTYLE
  5
6A
102
{ACAD_REACTORS
330
69
102
}
102
{ACAD_XDICTIONARY
360
5D8
102
}
330
69
100
AcDbTableStyle
  3
Standard
 70
     0
 71
     0
 40
0.06
 41
0.06
280
     0
281
     0
  7
Standard
140
4.5
170
     2
 62
     0
 63
   257
283
     0
 90
        4
 91
        0
  1

274
    -2
284
     1
 64
     0
275
    -2
285
     1
 65
     0
276
    -2
286
     1
 66
     0
277
    -2
287
     1
 67
     0
278
    -2
288
     1
 68
     0
279
    -2
289
     1
 69
     0
  7
Standard
140
6.0
170
     5
 62
     0
 63
   257
283
     0
 90
        4
 91
        0
  1

274
    -2
284
     1
 64
     0
275
    -2
285
     1
 65
     0
276
    -2
286
     1
 66
     0
277
    -2
287
     1
 67
     0
278
    -2
288
     1
 68
     0
279
    -2
289
     1
 69
     0
  7
Standard
140
4.5
170
     5
 62
     0
 63
   257
283
     0
 90
        4
 91
        0
  1

274
    -2
284
     1
 64
     0
275
    -2
285
     1
 65
     0
276
    -2
286
     1
 66
     0
277
    -2
287
     1
 67
     0
278
    -2
288
     1
 68
     0
279
    -2
289
     1
 69
     0
  0
VISUALSTYLE
  5
2F
102
{ACAD_REACTORS
330
2A
102
}
330
2A
100
AcDbVisualStyle
  2
2dWireframe
 70
     4
177
     2
291
     0
 71
     0
176
     1
 72
     2
176
     1
 73
     0
176
     1
 90
        0
176
     1
 40
0.6
176
     1
 41
30.0
176
     1
 62
     5
 63
     7
421
 16777215
176
     1
 74
     1
176
     1
 91
        4
176
     1
 64
     7
176
     1
 65
   257
176
     1
 75
     1
176
     1
175
     1
176
     1
 42
1.0
176
     1
 92
        0
176
     1
 66
   257
176
     1
 43
1.0
176
     1
 76
     1
176
     1
 77
     6
176
     1
 78
     2
176
     1
 67
     7
176
     1
 79
     5
176
     1
170
     0
176
     1
171
     0
176
     1
290
     0
176
     1
 93
        1
176
     1
 44
0.0
176
     1
173
     0
176
     1
  0
VISUALSTYLE
  5
32
102
{ACAD_REACTORS
330
2A
102
}
330
2A
100
AcDbVisualStyle
  2
Basic
 70
     7
177
     2
291
     1
 71
     1
176
     1
 72
     0
176
     1
 73
     1
176
     1
 90
        0
176
     1
 40
0.6
176
     1
 41
30.0
176
     1
 62
     5
 63
     7
421
 16777215
176
     1
 74
     0
176
     1
 91
        4
176
     1
 64
     7
176
     1
 65
   257
176
     1
 75
     1
176
     1
175
     1
176
     1
 42
1.0
176
     1
 92
        8
176
     1
 66
     7
176
     1
 43
1.0
176
     1
 76
     1
176
     1
 77
     6
176
     1
 78
     2
176
     1
 67
     7
176
     1
 79
     5
176
     1
170
     0
176
     1
171
     0
176
     1
290
     0
176
     1
 93
        1
176
     1
 44
0.0
176
     1
173
     0
176
     1
  0
VISUALSTYLE
  5
36
102
{ACAD_REACTORS
330
2A
102
}
330
2A
100
AcDbVisualStyle
  2
Brighten
 70
    12
177
     2
291
     1
 71
     2
176
     1
 72
     2
176
     1
 73
     0
176
     1
 90
        0
176
     1
 40
0.6
176
     1
 41
30.0
176
     1
 62
     5
 63
     7
421
 16777215
176
     1
 74
     1
176
     1
 91
        4
176
     1
 64
     7
176
     1
 65
   257
176
     1
 75
     1
176
     1
175
     1
176
     1
 42
1.0
176
     1
 92
        8
176
     1
 66
     7
176
     1
 43
1.0
176
     1
 76
     1
176
     1
 77
     6
176
     1
 78
     2
176
     1
 67
     7
176
     1
 79
     5
176
     1
170
     0
176
     1
171
     0
176
     1
290
     0
176
     1
 93
        1
176
     1
 44
50.0
176
     1
173
     0
176
     1
  0
VISUALSTYLE
  5
3A
102
{ACAD_REACTORS
330
2A
102
}
330
2A
100
AcDbVisualStyle
  2
ColorChange
 70
    16
177
     2
291
     1
 71
     2
176
     1
 72
     2
176
     1
 73
     3
176
     1
 90
        0
176
     1
 40
0.6
176
     1
 41
30.0
176
     1
 62
     5
 63
     8
421
  8421504
176
     1
 74
     1
176
     1
 91
        4
176
     1
 64
     7
176
     1
 65
   257
176
     1
 75
     1
176
     1
175
     1
176
     1
 42
1.0
176
     1
 92
        8
176
     1
 66
     8
424
  8421504
176
     1
 43
1.0
176
     1
 76
     1
176
     1
 77
     6
176
     1
 78
     2
176
     1
 67
     7
176
     1
 79
     5
176
     1
170
     0
176
     1
171
     0
176
     1
290
     0
176
     1
 93
        1
176
     1
 44
0.0
176
     1
173
     0
176
     1
  0
VISUALSTYLE
  5
34
102
{ACAD_REACTORS
330
2A
102
}
330
2A
100
AcDbVisualStyle
  2
Conceptual
 70
     9
177
     2
291
     0
 71
     3
176
     1
 72
     2
176
     1
 73
     0
176
     1
 90
        0
176
     1
 40
0.6
176
     1
 41
30.0
176
     1
 62
     5
 63
     7
421
 16777215
176
     1
 74
     2
176
     1
 91
        2
176
     1
 64
     7
176
     1
 65
   257
176
     1
 75
     1
176
     1
175
     1
176
     1
 42
179.0
176
     1
 92
        8
176
     1
 66
     7
176
     1
 43
1.0
176
     1
 76
     1
176
     1
 77
     6
176
     1
 78
     2
176
     1
 67
     7
176
     1
 79
     3
176
     1
170
     0
176
     1
171
     0
176
     1
290
     0
176
     1
 93
        1
176
     1
 44
0.0
176
     1
173
     0
176
     1
  0
VISUALSTYLE
  5
35
102
{ACAD_REACTORS
330
2A
102
}
330
2A
100
AcDbVisualStyle
  2
Dim
 70
    11
177
     2
291
     1
 71
     2
176
     1
 72
     2
176
     1
 73
     0
176
     1
 90
        0
176
     1
 40
0.6
176
     1
 41
30.0
176
     1
 62
     5
 63
     7
421
 16777215
176
     1
 74
     1
176
     1
 91
        4
176
     1
 64
     7
176
     1
 65
   257
176
     1
 75
     1
176
     1
175
     1
176
     1
 42
1.0
176
     1
 92
        8
176
     1
 66
     7
176
     1
 43
1.0
176
     1
 76
     1
176
     1
 77
     6
176
     1
 78
     2
176
     1
 67
     7
176
     1
 79
     5
176
     1
170
     0
176
     1
171
     0
176
     1
290
     0
176
     1
 93
        1
176
     1
 44
-50.0
176
     1
173
     0
176
     1
  0
VISUALSTYLE
  5
3D
102
{ACAD_REACTORS
330
2A
102
}
330
2A
100
AcDbVisualStyle
  2
EdgeColorOff
 70
    22
177
     2
291
     1
 71
     2
176
     0
 72
     2
176
     0
 73
     0
176
     0
 90
        0
176
     0
 40
0.6
176
     0
 41
30.0
176
     0
 62
     5
 63
     7
421
 16777215
176
     0
 74
     1
176
     0
 91
        4
176
     0
 64
     7
176
     0
 65
   257
176
     0
 75
     1
176
     0
175
     1
176
     0
 42
1.0
176
     0
 92
        8
176
     2
 66
     7
176
     0
 43
1.0
176
     0
 76
     1
176
     0
 77
     6
176
     0
 78
     2
176
     0
 67
     7
176
     0
 79
     5
176
     0
170
     0
176
     0
171
     0
176
     0
290
     0
176
     0
 93
        1
176
     0
 44
0.0
176
     0
173
     0
176
     0
  0
VISUALSTYLE
  5
39
102
{ACAD_REACTORS
330
2A
102
}
330
2A
100
AcDbVisualStyle
  2
Facepattern
 70
    15
177
     2
291
     1
 71
     2
176
     1
 72
     2
176
     1
 73
     0
176
     1
 90
        0
176
     1
 40
0.6
176
     1
 41
30.0
176
     1
 62
     5
 63
     7
421
 16777215
176
     1
 74
     1
176
     1
 91
        4
176
     1
 64
     7
176
     1
 65
   257
176
     1
 75
     1
176
     1
175
     1
176
     1
 42
1.0
176
     1
 92
        8
176
     1
 66
     7
176
     1
 43
1.0
176
     1
 76
     1
176
     1
 77
     6
176
     1
 78
     2
176
     1
 67
     7
176
     1
 79
     5
176
     1
170
     0
176
     1
171
     0
176
     1
290
     0
176
     1
 93
        1
176
     1
 44
0.0
176
     1
173
     0
176
     1
  0
VISUALSTYLE
  5
2B
102
{ACAD_REACTORS
330
2A
102
}
330
2A
100
AcDbVisualStyle
  2
Flat
 70
     0
177
     2
291
     1
 71
     2
176
     1
 72
     1
176
     1
 73
     1
176
     1
 90
        2
176
     1
 40
0.6
176
     1
 41
30.0
176
     1
 62
     5
 63
     7
421
 16777215
176
     1
 74
     0
176
     1
 91
        0
176
     1
 64
     7
176
     1
 65
   257
176
     1
 75
     1
176
     1
175
     1
176
     1
 42
1.0
176
     1
 92
        8
176
     1
 66
     7
176
     1
 43
1.0
176
     1
 76
     1
176
     1
 77
     6
176
     1
 78
     2
176
     1
 67
     7
176
     1
 79
     5
176
     1
170
     0
176
     1
171
     0
176
     1
290
     0
176
     1
 93
       13
176
     1
 44
0.0
176
     1
173
     0
176
     1
  0
VISUALSTYLE
  5
2C
102
{ACAD_REACTORS
330
2A
102
}
330
2A
100
AcDbVisualStyle
  2
FlatWithEdges
 70
     1
177
     2
291
     1
 71
     2
176
     1
 72
     1
176
     1
 73
     1
176
     1
 90
        2
176
     1
 40
0.6
176
     1
 41
30.0
176
     1
 62
     5
 63
     7
421
 16777215
176
     1
 74
     1
176
     1
 91
        0
176
     1
 64
     7
176
     1
 65
   257
176
     1
 75
     1
176
     1
175
     1
176
     1
 42
1.0
176
     1
 92
        0
176
     1
 66
   257
176
     1
 43
1.0
176
     1
 76
     1
176
     1
 77
     6
176
     1
 78
     2
176
     1
 67
     7
176
     1
 79
     5
176
     1
170
     0
176
     1
171
     0
176
     1
290
     0
176
     1
 93
       13
176
     1
 44
0.0
176
     1
173
     0
176
     1
  0
VISUALSTYLE
  5
2D
102
{ACAD_REACTORS
330
2A
102
}
330
2A
100
AcDbVisualStyle
  2
Gouraud
 70
     2
177
     2
291
     1
 71
     2
176
     1
 72
     2
176
     1
 73
     1
176
     1
 90
        2
176
     1
 40
0.6
176
     1
 41
30.0
176
     1
 62
     5
 63
     7
421
 16777215
176
     1
 74
     0
176
     1
 91
        0
176
     1
 64
     7
176
     1
 65
   257
176
     1
 75
     1
176
     1
175
     1
176
     1
 42
1.0
176
     1
 92
        0
176
     1
 66
     7
176
     1
 43
1.0
176
     1
 76
     1
176
     1
 77
     6
176
     1
 78
     2
176
     1
 67
     7
176
     1
 79
     5
176
     1
170
     0
176
     1
171
     0
176
     1
290
     0
176
     1
 93
       13
176
     1
 44
0.0
176
     1
173
     0
176
     1
  0
VISUALSTYLE
  5
2E
102
{ACAD_REACTORS
330
2A
102
}
330
2A
100
AcDbVisualStyle
  2
GouraudWithEdges
 70
     3
177
     2
291
     1
 71
     2
176
     1
 72
     2
176
     1
 73
     1
176
     1
 90
        2
176
     1
 40
0.6
176
     1
 41
30.0
176
     1
 62
     5
 63
     7
421
 16777215
176
     1
 74
     1
176
     1
 91
        0
176
     1
 64
     7
176
     1
 65
   257
176
     1
 75
     1
176
     1
175
     1
176
     1
 42
1.0
176
     1
 92
        0
176
     1
 66
   257
176
     1
 43
1.0
176
     1
 76
     1
176
     1
 77
     6
176
     1
 78
     2
176
     1
 67
     7
176
     1
 79
     5
176
     1
170
     0
176
     1
171
     0
176
     1
290
     0
176
     1
 93
       13
176
     1
 44
0.0
176
     1
173
     0
176
     1
  0
VISUALSTYLE
  5
31
102
{ACAD_REACTORS
330
2A
102
}
330
2A
100
AcDbVisualStyle
  2
Hidden
 70
     6
177
     2
291
     0
 71
     1
176
     1
 72
     2
176
     1
 73
     2
176
     1
 90
        0
176
     1
 40
0.6
176
     1
 41
30.0
176
     1
 62
     5
 63
     7
421
 16777215
176
     1
 74
     2
176
     1
 91
        2
176
     1
 64
     7
176
     1
 65
   257
176
     1
 75
     2
176
     1
175
     1
176
     1
 42
40.0
176
     1
 92
        0
176
     1
 66
   257
176
     1
 43
1.0
176
     1
 76
     1
176
     1
 77
     6
176
     1
 78
     2
176
     1
 67
     7
176
     1
 79
     3
176
     1
170
     0
176
     1
171
     0
176
     1
290
     0
176
     1
 93
        1
176
     1
 44
0.0
176
     1
173
     0
176
     1
  0
VISUALSTYLE
  5
3B
102
{ACAD_REACTORS
330
2A
102
}
330
2A
100
AcDbVisualStyle
  2
JitterOff
 70
    20
177
     2
291
     1
 71
     2
176
     0
 72
     2
176
     0
 73
     0
176
     0
 90
        0
176
     0
 40
0.6
176
     0
 41
30.0
176
     0
 62
     5
 63
     7
421
 16777215
176
     0
 74
     1
176
     0
 91
        4
176
     0
 64
     7
176
     0
 65
   257
176
     0
 75
     1
176
     0
175
     1
176
     0
 42
1.0
176
     0
 92
       10
176
     2
 66
     7
176
     0
 43
1.0
176
     0
 76
     1
176
     0
 77
     6
176
     0
 78
     2
176
     0
 67
     7
176
     0
 79
     5
176
     0
170
     0
176
     0
171
     0
176
     0
290
     0
176
     0
 93
        1
176
     0
 44
0.0
176
     0
173
     0
176
     0
  0
VISUALSTYLE
  5
38
102
{ACAD_REACTORS
330
2A
102
}
330
2A
100
AcDbVisualStyle
  2
Linepattern
 70
    14
177
     2
291
     1
 71
     2
176
     1
 72
     2
176
     1
 73
     0
176
     1
 90
        0
176
     1
 40
0.6
176
     1
 41
30.0
176
     1
 62
     5
 63
     7
421
 16777215
176
     1
 74
     1
176
     1
 91
        4
176
     1
 64
     7
176
     1
 65
   257
176
     1
 75
     7
176
     1
175
     7
176
     1
 42
1.0
176
     1
 92
        8
176
     1
 66
     7
176
     1
 43
1.0
176
     1
 76
     1
176
     1
 77
     6
176
     1
 78
     2
176
     1
 67
     7
176
     1
 79
     5
176
     1
170
     0
176
     1
171
     0
176
     1
290
     0
176
     1
 93
        1
176
     1
 44
0.0
176
     1
173
     0
176
     1
  0
VISUALSTYLE
  5
3C
102
{ACAD_REACTORS
330
2A
102
}
330
2A
100
AcDbVisualStyle
  2
OverhangOff
 70
    21
177
     2
291
     1
 71
     2
176
     0
 72
     2
176
     0
 73
     0
176
     0
 90
        0
176
     0
 40
0.6
176
     0
 41
30.0
176
     0
 62
     5
 63
     7
421
 16777215
176
     0
 74
     1
176
     0
 91
        4
176
     0
 64
     7
176
     0
 65
   257
176
     0
 75
     1
176
     0
175
     1
176
     0
 42
1.0
176
     0
 92
        9
176
     2
 66
     7
176
     0
 43
1.0
176
     0
 76
     1
176
     0
 77
     6
176
     0
 78
     2
176
     0
 67
     7
176
     0
 79
     5
176
     0
170
     0
176
     0
171
     0
176
     0
290
     0
176
     0
 93
        1
176
     0
 44
0.0
176
     0
173
     0
176
     0
  0
VISUALSTYLE
  5
33
102
{ACAD_REACTORS
330
2A
102
}
330
2A
100
AcDbVisualStyle
  2
Realistic
 70
     8
177
     2
291
     0
 71
     2
176
     1
 72
     3
176
     1
 73
     0
176
     1
 90
        2
176
     1
 40
0.6
176
     1
 41
30.0
176
     1
 62
     5
 63
     7
421
 16777215
176
     1
 74
     0
176
     1
 91
        0
176
     1
 64
     7
176
     1
 65
   257
176
     1
 75
     1
176
     1
175
     1
176
     1
 42
1.0
176
     1
 92
        8
176
     1
 66
   257
176
     1
 43
1.0
176
     1
 76
     1
176
     1
 77
     6
176
     1
 78
     2
176
     1
 67
     7
176
     1
 79
     3
176
     1
170
     0
176
     1
171
     0
176
     1
290
     0
176
     1
 93
       13
176
     1
 44
0.0
176
     1
173
     0
176
     1
  0
VISUALSTYLE
  5
42
102
{ACAD_REACTORS
330
2A
102
}
330
2A
100
AcDbVisualStyle
  2
Shaded
 70
    27
177
     2
291
     0
 71
     2
176
     1
 72
     2
176
     1
 73
     1
176
     1
 90
        2
176
     1
 40
0.6
176
     1
 41
30.0
176
     1
 62
     5
 63
     7
421
 16777215
176
     1
 74
     0
176
     1
 91
        4
176
     1
 64
     7
176
     1
 65
   257
176
     1
 75
     1
176
     1
175
     1
176
     1
 42
1.0
176
     1
 92
        8
176
     1
 66
   257
176
     1
 43
1.0
176
     1
 76
     1
176
     1
 77
     6
176
     1
 78
     2
176
     1
 67
     8
425
  7895160
176
     1
 79
     3
176
     1
170
     0
176
     1
171
     0
176
     1
290
     0
176
     1
 93
        5
176
     1
 44
0.0
176
     1
173
     0
176
     1
  0
VISUALSTYLE
  5
41
102
{ACAD_REACTORS
330
2A
102
}
330
2A
100
AcDbVisualStyle
  2
Shaded with edges
 70
    26
177
     2
291
     0
 71
     2
176
     1
 72
     2
176
     1
 73
     1
176
     1
 90
        2
176
     1
 40
0.6
176
     1
 41
30.0
176
     1
 62
     5
 63
     7
421
 16777215
176
     1
 74
     1
176
     1
 91
       10
176
     1
 64
     7
176
     1
 65
   257
176
     1
 75
     2
176
     1
175
     1
176
     1
 42
1.0
176
     1
 92
        8
176
     1
 66
   257
176
     1
 43
1.0
176
     1
 76
     1
176
     1
 77
     6
176
     1
 78
     2
176
     1
 67
     7
176
     1
 79
     3
176
     1
170
     0
176
     1
171
     0
176
     1
290
     0
176
     1
 93
        5
176
     1
 44
0.0
176
     1
173
     0
176
     1
  0
VISUALSTYLE
  5
3E
102
{ACAD_REACTORS
330
2A
102
}
330
2A
100
AcDbVisualStyle
  2
Shades of Gray
 70
    23
177
     2
291
     0
 71
     2
176
     1
 72
     2
176
     1
 73
     3
176
     1
 90
        0
176
     1
 40
0.6
176
     1
 41
30.0
176
     1
 62
     5
 63
     7
421
 16777215
176
     1
 74
     2
176
     1
 91
        2
176
     1
 64
     7
176
     1
 65
     7
176
     1
 75
     1
176
     1
175
     1
176
     1
 42
40.0
176
     1
 92
        8
176
     1
 66
     7
176
     1
 43
1.0
176
     1
 76
     1
176
     1
 77
     6
176
     1
 78
     2
176
     1
 67
     7
176
     1
 79
     3
176
     1
170
     0
176
     1
171
     0
176
     1
290
     0
176
     1
 93
        1
176
     1
 44
0.0
176
     1
173
     0
176
     1
  0
VISUALSTYLE
  5
3F
102
{ACAD_REACTORS
330
2A
102
}
330
2A
100
AcDbVisualStyle
  2
Sketchy
 70
    24
177
     2
291
     0
 71
     1
176
     1
 72
     2
176
     1
 73
     2
176
     1
 90
        0
176
     1
 40
0.6
176
     1
 41
30.0
176
     1
 62
     5
 63
     7
421
 16777215
176
     1
 74
     2
176
     1
 91
        2
176
     1
 64
     7
176
     1
 65
     7
176
     1
 75
     1
176
     1
175
     1
176
     1
 42
40.0
176
     1
 92
       11
176
     1
 66
     7
176
     1
 43
1.0
176
     1
 76
     1
176
     1
 77
     6
176
     1
 78
     2
176
     1
 67
     7
176
     1
 79
     6
176
     1
170
     0
176
     1
171
     0
176
     1
290
     0
176
     1
 93
        1
176
     1
 44
0.0
176
     1
173
     0
176
     1
  0
VISUALSTYLE
  5
37
102
{ACAD_REACTORS
330
2A
102
}
330
2A
100
AcDbVisualStyle
  2
Thicken
 70
    13
177
     2
291
     1
 71
     2
176
     1
 72
     2
176
     1
 73
     0
176
     1
 90
        0
176
     1
 40
0.6
176
     1
 41
30.0
176
     1
 62
     5
 63
     7
421
 16777215
176
     1
 74
     1
176
     1
 91
        4
176
     1
 64
     7
176
     1
 65
   257
176
     1
 75
     1
176
     1
175
     1
176
     1
 42
1.0
176
     1
 92
       12
176
     1
 66
     7
176
     1
 43
1.0
176
     1
 76
     1
176
     1
 77
     6
176
     1
 78
     2
176
     1
 67
     7
176
     1
 79
     5
176
     1
170
     0
176
     1
171
     0
176
     1
290
     0
176
     1
 93
        1
176
     1
 44
0.0
176
     1
173
     0
176
     1
  0
VISUALSTYLE
  5
30
102
{ACAD_REACTORS
330
2A
102
}
330
2A
100
AcDbVisualStyle
  2
Wireframe
 70
     5
177
     2
291
     0
 71
     0
176
     1
 72
     2
176
     1
 73
     0
176
     1
 90
        0
176
     1
 40
0.6
176
     1
 41
30.0
176
     1
 62
     5
 63
     7
421
 16777215
176
     1
 74
     1
176
     1
 91
        4
176
     1
 64
     7
176
     1
 65
   257
176
     1
 75
     1
176
     1
175
     1
176
     1
 42
1.0
176
     1
 92
        0
176
     1
 66
   257
176
     1
 43
1.0
176
     1
 76
     1
176
     1
 77
     6
176
     1
 78
     2
176
     1
 67
     7
176
     1
 79
     3
176
     1
170
     0
176
     1
171
     0
176
     1
290
     0
176
     1
 93
        1
176
     1
 44
0.0
176
     1
173
     0
176
     1
  0
VISUALSTYLE
  5
40
102
{ACAD_REACTORS
330
2A
102
}
330
2A
100
AcDbVisualStyle
  2
X-Ray
 70
    25
177
     2
291
     0
 71
     2
176
     1
 72
     2
176
     1
 73
     1
176
     1
 90
        1
176
     1
 40
0.5
176
     1
 41
30.0
176
     1
 62
     5
 63
     7
421
 16777215
176
     1
 74
     1
176
     1
 91
        0
176
     1
 64
     7
176
     1
 65
   257
176
     1
 75
     1
176
     1
175
     1
176
     1
 42
1.0
176
     1
 92
        8
176
     1
 66
     7
176
     1
 43
1.0
176
     1
 76
     1
176
     1
 77
     6
176
     1
 78
     2
176
     1
 67
     7
176
     1
 79
     3
176
     1
170
     0
176
     1
171
     0
176
     1
290
     0
176
     1
 93
       13
176
     1
 44
0.0
176
     1
173
     0
176
     1
  0
DICTIONARYVAR
  5
5D7
102
{ACAD_REACTORS
330
5D6
102
}
330
5D6
100
DictionaryVariables
280
     0
  1
1:1
  0
DICTIONARYVAR
  5
5DC
102
{ACAD_REACTORS
330
5D6
102
}
330
5D6
100
DictionaryVariables
280
     0
  1
Standard
  0
DICTIONARYVAR
  5
5DB
102
{ACAD_REACTORS
330
5D6
102
}
330
5D6
100
DictionaryVariables
280
     0
  1
Standard
  0
DICTIONARY
  5
5D8
330
6A
100
AcDbDictionary
280
     1
281
     1
  3
ACAD_ROUNDTRIP_2008_TABLESTYLE_CELLSTYLEMAP
360
5D9
  0
CELLSTYLEMAP
  5
5D9
102
{ACAD_REACTORS
330
5D8
102
}
330
5D8
100
AcDbCellStyleMap
 90
        3
300
CELLSTYLE
  1
TABLEFORMAT_BEGIN
 90
        5
170
     1
 91
        0
 92
    32768
 62
   257
 93
        1
300
CONTENTFORMAT
  1
CONTENTFORMAT_BEGIN
 90
        0
 91
        0
 92
        4
 93
        0
300

 40
0.0
140
1.0
 94
        5
 62
     0
340
11
144
6.0
309
CONTENTFORMAT_END
171
     1
301
MARGIN
  1
CELLMARGIN_BEGIN
 40
1.5
 40
1.5
 40
1.5
 40
1.5
 40
1.5
 40
1.5
309
CELLMARGIN_END
 94
        6
 95
        1
302
GRIDFORMAT
  1
GRIDFORMAT_BEGIN
 90
        0
 91
        1
 62
     0
 92
       -2
340
14
 93
        0
 40
0.045
309
GRIDFORMAT_END
 95
        2
302
GRIDFORMAT
  1
GRIDFORMAT_BEGIN
 90
        0
 91
        1
 62
     0
 92
       -2
340
14
 93
        0
 40
0.045
309
GRIDFORMAT_END
 95
        4
302
GRIDFORMAT
  1
GRIDFORMAT_BEGIN
 90
        0
 91
        1
 62
     0
 92
       -2
340
14
 93
        0
 40
0.045
309
GRIDFORMAT_END
 95
        8
302
GRIDFORMAT
  1
GRIDFORMAT_BEGIN
 90
        0
 91
        1
 62
     0
 92
       -2
340
14
 93
        0
 40
0.045
309
GRIDFORMAT_END
 95
       16
302
GRIDFORMAT
  1
GRIDFORMAT_BEGIN
 90
        0
 91
        1
 62
     0
 92
       -2
340
14
 93
        0
 40
0.045
309
GRIDFORMAT_END
 95
       32
302
GRIDFORMAT
  1
GRIDFORMAT_BEGIN
 90
        0
 91
        1
 62
     0
 92
       -2
340
14
 93
        0
 40
0.045
309
GRIDFORMAT_END
309
TABLEFORMAT_END
  1
CELLSTYLE_BEGIN
 90
        1
 91
        1
300
_TITLE
309
CELLSTYLE_END
300
CELLSTYLE
  1
TABLEFORMAT_BEGIN
 90
        5
170
     1
 91
        0
 92
        0
 62
   257
 93
        1
300
CONTENTFORMAT
  1
CONTENTFORMAT_BEGIN
 90
        0
 91
        0
 92
        4
 93
        0
300

 40
0.0
140
1.0
 94
        5
 62
     0
340
11
144
4.5
309
CONTENTFORMAT_END
171
     1
301
MARGIN
  1
CELLMARGIN_BEGIN
 40
1.5
 40
1.5
 40
1.5
 40
1.5
 40
1.5
 40
1.5
309
CELLMARGIN_END
 94
        6
 95
        1
302
GRIDFORMAT
  1
GRIDFORMAT_BEGIN
 90
        0
 91
        1
 62
     0
 92
       -2
340
14
 93
        0
 40
0.045
309
GRIDFORMAT_END
 95
        2
302
GRIDFORMAT
  1
GRIDFORMAT_BEGIN
 90
        0
 91
        1
 62
     0
 92
       -2
340
14
 93
        0
 40
0.045
309
GRIDFORMAT_END
 95
        4
302
GRIDFORMAT
  1
GRIDFORMAT_BEGIN
 90
        0
 91
        1
 62
     0
 92
       -2
340
14
 93
        0
 40
0.045
309
GRIDFORMAT_END
 95
        8
302
GRIDFORMAT
  1
GRIDFORMAT_BEGIN
 90
        0
 91
        1
 62
     0
 92
       -2
340
14
 93
        0
 40
0.045
309
GRIDFORMAT_END
 95
       16
302
GRIDFORMAT
  1
GRIDFORMAT_BEGIN
 90
        0
 91
        1
 62
     0
 92
       -2
340
14
 93
        0
 40
0.045
309
GRIDFORMAT_END
 95
       32
302
GRIDFORMAT
  1
GRIDFORMAT_BEGIN
 90
        0
 91
        1
 62
     0
 92
       -2
340
14
 93
        0
 40
0.045
309
GRIDFORMAT_END
309
TABLEFORMAT_END
  1
CELLSTYLE_BEGIN
 90
        2
 91
        1
300
_HEADER
309
CELLSTYLE_END
300
CELLSTYLE
  1
TABLEFORMAT_BEGIN
 90
        5
170
     1
 91
        0
 92
        0
 62
   257
 93
        1
300
CONTENTFORMAT
  1
CONTENTFORMAT_BEGIN
 90
        0
 91
        0
 92
        4
 93
        0
300

 40
0.0
140
1.0
 94
        2
 62
     0
340
11
144
4.5
309
CONTENTFORMAT_END
171
     1
301
MARGIN
  1
CELLMARGIN_BEGIN
 40
1.5
 40
1.5
 40
1.5
 40
1.5
 40
1.5
 40
1.5
309
CELLMARGIN_END
 94
        6
 95
        1
302
GRIDFORMAT
  1
GRIDFORMAT_BEGIN
 90
        0
 91
        1
 62
     0
 92
       -2
340
14
 93
        0
 40
0.045
309
GRIDFORMAT_END
 95
        2
302
GRIDFORMAT
  1
GRIDFORMAT_BEGIN
 90
        0
 91
        1
 62
     0
 92
       -2
340
14
 93
        0
 40
0.045
309
GRIDFORMAT_END
 95
        4
302
GRIDFORMAT
  1
GRIDFORMAT_BEGIN
 90
        0
 91
        1
 62
     0
 92
       -2
340
14
 93
        0
 40
0.045
309
GRIDFORMAT_END
 95
        8
302
GRIDFORMAT
  1
GRIDFORMAT_BEGIN
 90
        0
 91
        1
 62
     0
 92
       -2
340
14
 93
        0
 40
0.045
309
GRIDFORMAT_END
 95
       16
302
GRIDFORMAT
  1
GRIDFORMAT_BEGIN
 90
        0
 91
        1
 62
     0
 92
       -2
340
14
 93
        0
 40
0.045
309
GRIDFORMAT_END
 95
       32
302
GRIDFORMAT
  1
GRIDFORMAT_BEGIN
 90
        0
 91
        1
 62
     0
 92
       -2
340
14
 93
        0
 40
0.045
309
GRIDFORMAT_END
309
TABLEFORMAT_END
  1
CELLSTYLE_BEGIN
 90
        3
 91
        2
300
_DATA
309
CELLSTYLE_END
  0
ENDSEC
  0
EOF
