  0
SECTION
  2
HEADER
  9
$ACADVER
  1
AC1015
  9
$ACADMAINTVER
 70
     6
  9
$DWGCODEPAGE
  3
ANSI_1252
  9
$INSBASE
 10
0.0
 20
0.0
 30
0.0
  9
$EXTMIN
 10
0.0
 20
0.0
 30
0.0
  9
$EXTMAX
 10
1189.0
 20
841.0
 30
0.0
  9
$LIMMIN
 10
0.0
 20
0.0
  9
$LIMMAX
 10
1189.0
 20
841.0
  9
$ORTHOMODE
 70
     0
  9
$REGENMODE
 70
     1
  9
$FILLMODE
 70
     1
  9
$QTEXTMODE
 70
     0
  9
$MIRRTEXT
 70
     1
  9
$LTSCALE
 40
1.0
  9
$ATTMODE
 70
     1
  9
$TEXTSIZE
 40
3.5
  9
$TRACEWID
 40
1.0
  9
$TEXTSTYLE
  7
Standard
  9
$CLAYER
  8
0
  9
$CELTYPE
  6
ByLayer
  9
$CECOLOR
 62
   256
  9
$CELTSCALE
 40
1.0
  9
$DISPSILH
 70
     0
  9
$DIMSCALE
 40
1.0
  9
$DIMASZ
 40
3.302
  9
$DIMEXO
 40
1.0
  9
$DIMDLI
 40
3.75
  9
$DIMRND
 40
0.0
  9
$DIMDLE
 40
0.0
  9
$DIMEXE
 40
1.0
  9
$DIMTP
 40
0.0
  9
$DIMTM
 40
0.0
  9
$DIMTXT
 40
3.5
  9
$DIMCEN
 40
2.5
  9
$DIMTSZ
 40
0.0
  9
$DIMTOL
 70
     0
  9
$DIMLIM
 70
     0
  9
$DIMTIH
 70
     1
  9
$DIMTOH
 70
     1
  9
$DIMSE1
 70
     0
  9
$DIMSE2
 70
     0
  9
$DIMTAD
 70
     1
  9
$DIMZIN
 70
     0
  9
$DIMBLK
  1

  9
$DIMASO
 70
     1
  9
$DIMSHO
 70
     1
  9
$DIMPOST
  1

  9
$DIMAPOST
  1

  9
$DIMALT
 70
     0
  9
$DIMALTD
 70
     3
  9
$DIMALTF
 40
0.0393700787
  9
$DIMLFAC
 40
5.0
  9
$DIMTOFL
 70
     1
  9
$DIMTVP
 40
0.0
  9
$DIMTIX
 70
     0
  9
$DIMSOXD
 70
     0
  9
$DIMSAH
 70
     0
  9
$DIMBLK1
  1

  9
$DIMBLK2
  1

  9
$DIMSTYLE
  2
ISO-25
  9
$DIMCLRD
 70
     0
  9
$DIMCLRE
 70
     0
  9
$DIMCLRT
 70
     0
  9
$DIMTFAC
 40
1.0
  9
$DIMGAP
 40
1.524
  9
$DIMJUST
 70
     0
  9
$DIMSD1
 70
     0
  9
$DIMSD2
 70
     0
  9
$DIMTOLJ
 70
     0
  9
$DIMTZIN
 70
     0
  9
$DIMALTZ
 70
     0
  9
$DIMALTTZ
 70
     0
  9
$DIMUPT
 70
     0
  9
$DIMDEC
 70
     2
  9
$DIMTDEC
 70
     2
  9
$DIMALTU
 70
     2
  9
$DIMALTTD
 70
     3
  9
$DIMTXSTY
  7
Standard
  9
$DIMAUNIT
 70
     0
  9
$DIMADEC
 70
     2
  9
$DIMALTRND
 40
0.0
  9
$DIMAZIN
 70
     0
  9
$DIMDSEP
 70
    44
  9
$DIMATFIT
 70
     3
  9
$DIMFRAC
 70
     0
  9
$DIMLDRBLK
  1

  9
$DIMLUNIT
 70
     2
  9
$DIMLWD
 70
    -2
  9
$DIMLWE
 70
    -2
  9
$DIMTMOVE
 70
     0
  9
$LUNITS
 70
     2
  9
$LUPREC
 70
     2
  9
$SKETCHINC
 40
1.0
  9
$FILLETRAD
 40
10.0
  9
$AUNITS
 70
     0
  9
$AUPREC
 70
     2
  9
$MENU
  1
.
  9
$ELEVATION
 40
0.0
  9
$PELEVATION
 40
0.0
  9
$THICKNESS
 40
0.0
  9
$LIMCHECK
 70
     0
  9
$CHAMFERA
 40
0.0
  9
$CHAMFERB
 40
0.0
  9
$CHAMFERC
 40
0.0
  9
$CHAMFERD
 40
0.0
  9
$SKPOLY
 70
     0
  9
$TDCREATE
 40
2458057.50681515
  9
$TDUCREATE
 40
2458057.50681515
  9
$TDUPDATE
 40
2458057.506815324
  9
$TDUUPDATE
 40
2458057.506815324
  9
$TDINDWG
 40
0.0000000116
  9
$TDUSRTIMER
 40
0.0000000116
  9
$USRTIMER
 70
     1
  9
$ANGBASE
 50
0.0
  9
$ANGDIR
 70
     0
  9
$PDMODE
 70
     0
  9
$PDSIZE
 40
-1.0
  9
$PLINEWID
 40
0.0
  9
$SPLFRAME
 70
     0
  9
$SPLINETYPE
 70
     6
  9
$SPLINESEGS
 70
     8
  9
$HANDSEED
  5
375
  9
$SURFTAB1
 70
     6
  9
$SURFTAB2
 70
     6
  9
$SURFTYPE
 70
     6
  9
$SURFU
 70
     6
  9
$SURFV
 70
     6
  9
$UCSBASE
  2

  9
$UCSNAME
  2

  9
$UCSORG
 10
0.0
 20
0.0
 30
0.0
  9
$UCSXDIR
 10
1.0
 20
0.0
 30
0.0
  9
$UCSYDIR
 10
0.0
 20
1.0
 30
0.0
  9
$UCSORTHOREF
  2

  9
$UCSORTHOVIEW
 70
     0
  9
$UCSORGTOP
 10
0.0
 20
0.0
 30
0.0
  9
$UCSORGBOTTOM
 10
0.0
 20
0.0
 30
0.0
  9
$UCSORGLEFT
 10
0.0
 20
0.0
 30
0.0
  9
$UCSORGRIGHT
 10
0.0
 20
0.0
 30
0.0
  9
$UCSORGFRONT
 10
0.0
 20
0.0
 30
0.0
  9
$UCSORGBACK
 10
0.0
 20
0.0
 30
0.0
  9
$PUCSBASE
  2

  9
$PUCSNAME
  2

  9
$PUCSORG
 10
0.0
 20
0.0
 30
0.0
  9
$PUCSXDIR
 10
1.0
 20
0.0
 30
0.0
  9
$PUCSYDIR
 10
0.0
 20
1.0
 30
0.0
  9
$PUCSORTHOREF
  2

  9
$PUCSORTHOVIEW
 70
     0
  9
$PUCSORGTOP
 10
0.0
 20
0.0
 30
0.0
  9
$PUCSORGBOTTOM
 10
0.0
 20
0.0
 30
0.0
  9
$PUCSORGLEFT
 10
0.0
 20
0.0
 30
0.0
  9
$PUCSORGRIGHT
 10
0.0
 20
0.0
 30
0.0
  9
$PUCSORGFRONT
 10
0.0
 20
0.0
 30
0.0
  9
$PUCSORGBACK
 10
0.0
 20
0.0
 30
0.0
  9
$USERI1
 70
     0
  9
$USERI2
 70
     0
  9
$USERI3
 70
     0
  9
$USERI4
 70
     0
  9
$USERI5
 70
     0
  9
$USERR1
 40
0.0
  9
$USERR2
 40
0.0
  9
$USERR3
 40
0.0
  9
$USERR4
 40
0.0
  9
$USERR5
 40
0.0
  9
$WORLDVIEW
 70
     1
  9
$SHADEDGE
 70
     3
  9
$SHADEDIF
 70
    70
  9
$TILEMODE
 70
     1
  9
$MAXACTVP
 70
    64
  9
$PINSBASE
 10
0.0
 20
0.0
 30
0.0
  9
$PLIMCHECK
 70
     0
  9
$PEXTMIN
 10
1.0000000000E+20
 20
1.0000000000E+20
 30
1.0000000000E+20
  9
$PEXTMAX
 10
-1.0000000000E+20
 20
-1.0000000000E+20
 30
-1.0000000000E+20
  9
$PLIMMIN
 10
0.0
 20
0.0
  9
$PLIMMAX
 10
420.0
 20
297.0
  9
$UNITMODE
 70
     0
  9
$VISRETAIN
 70
     1
  9
$PLINEGEN
 70
     0
  9
$PSLTSCALE
 70
     1
  9
$TREEDEPTH
 70
  3020
  9
$CMLSTYLE
  2
Standard
  9
$CMLJUST
 70
     0
  9
$CMLSCALE
 40
20.0
  9
$PROXYGRAPHICS
 70
     1
  9
$MEASUREMENT
 70
     1
  9
$CELWEIGHT
370
    -1
  9
$ENDCAPS
280
     0
  9
$JOINSTYLE
280
     0
  9
$LWDISPLAY
290
     1
  9
$INSUNITS
 70
     4
  9
$HYPERLINKBASE
  1

  9
$STYLESHEET
  1

  9
$XEDIT
290
     1
  9
$CEPSNTYPE
380
     0
  9
$PSTYLEMODE
290
     1
  9
$FINGERPRINTGUID
  2
{B49175A2-7D94-4A67-AB83-7CA25465598C}
  9
$VERSIONGUID
  2
{FAEB1C32-E019-11D5-929B-00C0DF256EC4}
  9
$EXTNAMES
290
     1
  9
$PSVPSCALE
 40
0.0
  9
$OLESTARTUP
290
     0
  0
ENDSEC
  0
SECTION
  2
CLASSES
  0
CLASS
  1
ACDBDICTIONARYWDFLT
  2
AcDbDictionaryWithDefault
  3
ObjectDBX Classes
 90
        0
280
     0
281
     0
  0
CLASS
  1
VISUALSTYLE
  2
AcDbVisualStyle
  3
ObjectDBX Classes
 90
     4095
280
     0
281
     0
  0
CLASS
  1
MATERIAL
  2
AcDbMaterial
  3
ObjectDBX Classes
 90
     1153
280
     0
281
     0
  0
CLASS
  1
SCALE
  2
AcDbScale
  3
ObjectDBX Classes
 90
     1153
280
     0
281
     0
  0
CLASS
  1
TABLESTYLE
  2
AcDbTableStyle
  3
ObjectDBX Classes
 90
     4095
280
     0
281
     0
  0
CLASS
  1
MLEADERSTYLE
  2
AcDbMLeaderStyle
  3
ACDB_MLEADERSTYLE_CLASS
 90
     4095
280
     0
281
     0
  0
CLASS
  1
SUN
  2
AcDbSun
  3
SCENEOE
 90
     1153
280
     0
281
     0
  0
CLASS
  1
ACDBPLACEHOLDER
  2
AcDbPlaceHolder
  3
ObjectDBX Classes
 90
        0
280
     0
281
     0
  0
CLASS
  1
LAYOUT
  2
AcDbLayout
  3
ObjectDBX Classes
 90
        0
280
     0
281
     0
  0
ENDSEC
  0
SECTION
  2
TABLES
  0
TABLE
  2
VPORT
  5
8
330
0
100
AcDbSymbolTable
 70
     1
  0
VPORT
  5
29
330
8
100
AcDbSymbolTableRecord
100
AcDbViewportTableRecord
  2
*Active
 70
     0
 10
0.0
 20
0.0
 11
1.0
 21
1.0
 12
594.5
 22
420.5
 13
0.0
 23
0.0
 14
10.0
 24
10.0
 15
10.0
 25
10.0
 16
0.0
 26
0.0
 36
1.0
 17
0.0
 27
0.0
 37
0.0
 40
841.0
 41
1.4137931034
 42
50.0
 43
0.0
 44
0.0
 50
0.0
 51
0.0
 71
     0
 72
  2000
 73
     1
 74
     3
 75
     0
 76
     0
 77
     0
 78
     0
281
     0
 65
     1
110
0.0
120
0.0
130
0.0
111
1.0
121
0.0
131
0.0
112
0.0
122
1.0
132
0.0
 79
     0
146
0.0
  0
ENDTAB
  0
TABLE
  2
LTYPE
  5
5
330
0
100
AcDbSymbolTable
 70
     6
  0
LTYPE
  5
14
330
5
100
AcDbSymbolTableRecord
100
AcDbLinetypeTableRecord
  2
ByBlock
 70
     0
  3

 72
    65
 73
     0
 40
0.0
  0
LTYPE
  5
15
330
5
100
AcDbSymbolTableRecord
100
AcDbLinetypeTableRecord
  2
ByLayer
 70
     0
  3

 72
    65
 73
     0
 40
0.0
  0
LTYPE
  5
16
330
5
100
AcDbSymbolTableRecord
100
AcDbLinetypeTableRecord
  2
Continuous
 70
     0
  3
Solid line
 72
    65
 73
     0
 40
0.0
  0
LTYPE
  5
6E
330
5
100
AcDbSymbolTableRecord
100
AcDbLinetypeTableRecord
  2
HIDDEN
 70
     0
  3
Hidden __ __ __ __ __ __ __ __ __ __ __ __ __ __
 72
    65
 73
     2
 40
1.905
 49
1.27
 74
     0
 49
-0.635
 74
     0
  0
LTYPE
  5
6F
330
5
100
AcDbSymbolTableRecord
100
AcDbLinetypeTableRecord
  2
PHANTOM
 70
     0
  3
Phantom ______  __  __  ______  __  __  ______
 72
    65
 73
     6
 40
12.7
 49
6.35
 74
     0
 49
-1.27
 74
     0
 49
1.27
 74
     0
 49
-1.27
 74
     0
 49
1.27
 74
     0
 49
-1.27
 74
     0
  0
LTYPE
  5
70
330
5
100
AcDbSymbolTableRecord
100
AcDbLinetypeTableRecord
  2
CENTER
 70
     0
  3
Center ____ _ ____ _ ____ _ ____ _ ____ _ ____
 72
    65
 73
     4
 40
10.16
 49
6.35
 74
     0
 49
-1.27
 74
     0
 49
1.27
 74
     0
 49
-1.27
 74
     0
  0
LTYPE
  5
71
330
5
100
AcDbSymbolTableRecord
100
AcDbLinetypeTableRecord
  2
CENTERX2
 70
     0
  3
Center (2x) ________  __  ________  __  _____
 72
    65
 73
     4
 40
20.32
 49
12.7
 74
     0
 49
-2.54
 74
     0
 49
2.54
 74
     0
 49
-2.54
 74
     0
  0
LTYPE
  5
72
330
5
100
AcDbSymbolTableRecord
100
AcDbLinetypeTableRecord
  2
DOT2
 70
     0
  3
Dot (.5x) ........................................
 72
    65
 73
     2
 40
0.635
 49
0.0
 74
     0
 49
-0.635
 74
     0
  0
ENDTAB
  0
TABLE
  2
LAYER
  5
2
330
0
100
AcDbSymbolTable
 70
     2
  0
LAYER
  5
10
330
2
100
AcDbSymbolTableRecord
100
AcDbLayerTableRecord
  2
0
 70
     0
 62
     7
  6
Continuous
370
    -3
390
F
  0
LAYER
  5
73
330
2
100
AcDbSymbolTableRecord
100
AcDbLayerTableRecord
  2
FORMAT
 70
     0
 62
     7
  6
Continuous
370
    -3
390
F
  0
ENDTAB
  0
TABLE
  2
STYLE
  5
3
330
0
100
AcDbSymbolTable
 70
     1
  0
STYLE
  5
11
330
3
100
AcDbSymbolTableRecord
100
AcDbTextStyleTableRecord
  2
Standard
 70
     0
 40
0.0
 41
1.0
 50
0.0
 71
     0
 42
3.5
  3
txt
  4

  0
ENDTAB
  0
TABLE
  2
VIEW
  5
6
330
0
100
AcDbSymbolTable
 70
     0
  0
ENDTAB
  0
TABLE
  2
UCS
  5
7
330
0
100
AcDbSymbolTable
 70
     0
  0
ENDTAB
  0
TABLE
  2
APPID
  5
9
330
0
100
AcDbSymbolTable
 70
     1
  0
APPID
  5
12
330
9
100
AcDbSymbolTableRecord
100
AcDbRegAppTableRecord
  2
ACAD
 70
     0
  0
ENDTAB
  0
TABLE
  2
DIMSTYLE
  5
A
330
0
100
AcDbSymbolTable
 70
     1
100
AcDbDimStyleTable
  0
DIMSTYLE
105
27
330
A
100
AcDbSymbolTableRecord
100
AcDbDimStyleTableRecord
  2
ISO-25
 70
     0
 41
2.5
 42
0.625
 43
3.75
 44
1.25
 73
     0
 74
     0
 77
     1
 78
     8
140
2.5
141
2.5
143
0.0393700787
147
0.625
171
     3
172
     1
178
     0
271
     2
272
     2
274
     3
278
    44
283
     0
284
     8
340
11
  0
ENDTAB
  0
TABLE
  2
BLOCK_RECORD
  5
1
330
0
100
AcDbSymbolTable
 70
     1
  0
BLOCK_RECORD
  5
1F
330
1
100
AcDbSymbolTableRecord
100
AcDbBlockTableRecord
  2
*Model_Space
340
22
  0
BLOCK_RECORD
  5
1B
330
1
100
AcDbSymbolTableRecord
100
AcDbBlockTableRecord
  2
*Paper_Space
340
1E
  0
BLOCK_RECORD
  5
23
330
1
100
AcDbSymbolTableRecord
100
AcDbBlockTableRecord
  2
*Paper_Space0
340
26
  0
ENDTAB
  0
ENDSEC
  0
SECTION
  2
BLOCKS
  0
BLOCK
  5
20
330
1F
100
AcDbEntity
  8
0
100
AcDbBlockBegin
  2
*Model_Space
 70
     0
 10
0.0
 20
0.0
 30
0.0
  3
*Model_Space
  1

  0
ENDBLK
  5
21
330
1F
100
AcDbEntity
  8
0
100
AcDbBlockEnd
  0
BLOCK
  5
1C
330
1B
100
AcDbEntity
 67
     1
  8
0
100
AcDbBlockBegin
  2
*Paper_Space
 70
     0
 10
0.0
 20
0.0
 30
0.0
  3
*Paper_Space
  1

  0
ENDBLK
  5
1D
330
1B
100
AcDbEntity
 67
     1
  8
0
100
AcDbBlockEnd
  0
BLOCK
  5
24
330
23
100
AcDbEntity
  8
0
100
AcDbBlockBegin
  2
*Paper_Space0
 70
     0
 10
0.0
 20
0.0
 30
0.0
  3
*Paper_Space0
  1

  0
ENDBLK
  5
25
330
23
100
AcDbEntity
  8
0
100
AcDbBlockEnd
  0
ENDSEC
  0
SECTION
  2
ENTITIES
  0
LINE
  5
74
330
1F
100
AcDbEntity
  8
0
  6
Continuous
 62
     7
370
    15
100
AcDbLine
 10
401.7967101911
 20
287.2902703883
 30
0.0
 11
403.0374965424
 21
286.7842567565
 31
0.0
  0
LINE
  5
75
330
1F
100
AcDbEntity
  8
0
  6
Continuous
 62
     7
370
    15
100
AcDbLine
 10
409.0794474611
 20
301.5996111037
 30
0.0
 11
407.8386611099
 21
302.1056247356
 31
0.0
  0
ARC
  5
76
330
1F
100
AcDbEntity
  8
0
  6
Continuous
 62
     7
370
    15
100
AcDbCircle
 10
437.8708842417
 20
294.5018126369
 30
0.0
 40
0.4200000000000351
100
AcDbArc
 50
337.8135433712
 51
157.8135433712
  0
ARC
  5
77
330
1F
100
AcDbEntity
  8
0
  6
Continuous
 62
     7
370
    15
100
AcDbCircle
 10
428.5813849533
 20
271.7231997956
 30
0.0
 40
0.4199999999999825
100
AcDbArc
 50
157.8135433712
 51
337.8135433712
  0
LWPOLYLINE
  5
78
330
1F
100
AcDbEntity
  8
0
  6
Continuous
 62
     7
370
    15
100
AcDbPolyline
 90
       13
 70
   128
 43
0.0
 10
437.4819804708
 20
294.6604145171
 10
437.4683518687
 20
294.6269941928
 10
437.4275465289
 20
294.5269358756
 10
437.3598028699
 20
294.3608236911
 10
437.2655202428
 20
294.1296291949
 10
437.1452470103
 20
293.8347173335
 10
436.999695448
 20
293.4778106811
 10
436.8297179023
 20
293.0610073211
 10
436.6363097707
 20
292.5867570045
 10
436.4206065217
 20
292.0578313472
 10
436.1838747541
 20
291.4773476722
 10
435.927503256
 20
290.8487034442
 10
435.8507443944
 20
290.6604838969
  0
LWPOLYLINE
  5
79
330
1F
100
AcDbEntity
  8
0
  6
Continuous
 62
     7
370
    15
100
AcDbPolyline
 90
       14
 70
   128
 43
0.0
 10
435.0349028388
 20
288.6599732043
 10
434.737252144
 20
287.9301143291
 10
434.407236127
 20
287.1208859088
 10
434.068005232
 20
286.2890613677
 10
433.721550254
 20
285.4395282867
 10
433.3699066917
 20
284.577269614
 10
433.0151368657
 20
283.7073517444
 10
432.6593239585
 20
282.8348649146
 10
432.3045571128
 20
281.9649410846
 10
431.9529135505
 20
281.1026824119
 10
431.6064585725
 20
280.2531493308
 10
431.2672276775
 20
279.4213307502
 10
430.9372086803
 20
278.6121023299
 10
430.6395609656
 20
277.8822374942
  0
LWPOLYLINE
  5
7A
330
1F
100
AcDbEntity
  8
0
  6
Continuous
 62
     7
370
    15
100
AcDbPolyline
 90
       13
 70
   128
 43
0.0
 10
429.8237194101
 20
275.8817268016
 10
429.7469605485
 20
275.6935072543
 10
429.4905890504
 20
275.0648689868
 10
429.2538572828
 20
274.4843793513
 10
429.0381540338
 20
273.9554596545
 10
428.8447459022
 20
273.4812033775
 10
428.6747668663
 20
273.0644059779
 10
428.529215304
 20
272.7074993255
 10
428.4089435617
 20
272.4125815036
 10
428.3146594444
 20
272.1813929679
 10
428.2469157854
 20
272.0152807834
 10
428.2061104456
 20
271.9152224662
 10
428.1924818436
 20
271.8818021419
  0
LWPOLYLINE
  5
7B
330
1F
100
AcDbEntity
  8
0
  6
Continuous
 62
     7
370
    15
100
AcDbPolyline
 90
       13
 70
   128
 43
0.0
 10
428.9702881852
 20
271.5645981433
 10
428.9839167873
 20
271.5980184676
 10
429.0247221271
 20
271.6980767848
 10
429.0924657861
 20
271.8641889693
 10
429.1867499033
 20
272.0953834655
 10
429.3070216457
 20
272.3902953269
 10
429.452573208
 20
272.7472019794
 10
429.6225522438
 20
273.1640053394
 10
429.8159603754
 20
273.638255656
 10
430.0316651145
 20
274.1671813132
 10
430.2683939019
 20
274.7476649882
 10
430.5247654
 20
275.3763092162
 10
430.6015242616
 20
275.564522803
  0
LWPOLYLINE
  5
7C
330
1F
100
AcDbEntity
  8
0
  6
Continuous
 62
     7
370
    15
100
AcDbPolyline
 90
       14
 70
   128
 43
0.0
 10
431.4173687974
 20
277.5650394561
 10
431.715016512
 20
278.2948983314
 10
432.045032529
 20
279.1041267516
 10
432.3842664043
 20
279.9359512927
 10
432.730718402
 20
280.7854843738
 10
433.0823619643
 20
281.6477430465
 10
433.4371317903
 20
282.5176609161
 10
433.7929446975
 20
283.3901477458
 10
434.1477145234
 20
284.2600715759
 10
434.4993580857
 20
285.1223302486
 10
434.8458100835
 20
285.9718633296
 10
435.1850409785
 20
286.8036819102
 10
435.5150599757
 20
287.6129103305
 10
435.8127076904
 20
288.3427692058
  0
LWPOLYLINE
  5
7D
330
1F
100
AcDbEntity
  8
0
  6
Continuous
 62
     7
370
    15
100
AcDbPolyline
 90
       13
 70
   128
 43
0.0
 10
436.6285492459
 20
290.3432858588
 10
436.7053081075
 20
290.5315054061
 10
436.9616796056
 20
291.1601436736
 10
437.1984113733
 20
291.7406333091
 10
437.4141146222
 20
292.2695530059
 10
437.6075227538
 20
292.743809283
 10
437.7775032798
 20
293.1606066825
 10
437.9230548421
 20
293.517513335
 10
438.0433250943
 20
293.8124311568
 10
438.1376107017
 20
294.0436196925
 10
438.2053543607
 20
294.2097318771
 10
438.2461597005
 20
294.3097901942
 10
438.2597883025
 20
294.3432105186
  0
LINE
  5
7E
330
1F
100
AcDbEntity
  8
0
  6
Continuous
 62
     7
370
    15
100
AcDbLine
 10
437.3686958829
 20
294.3826270702
 30
0.0
 11
422.8027467409
 21
300.3228617313
 31
0.0
  0
LINE
  5
7F
330
1F
100
AcDbEntity
  8
0
  6
Continuous
 62
     7
370
    15
100
AcDbLine
 10
413.7398202697
 20
278.09982425
 30
0.0
 11
428.3057679216
 21
272.1595895889
 31
0.0
  0
ARC
  5
80
330
1F
100
AcDbEntity
  8
0
  6
Continuous
 62
     7
370
    15
100
AcDbCircle
 10
422.1985515781
 20
298.8413272427
 30
0.0
 40
1.599999999999951
100
AcDbArc
 50
67.8135433712
 51
123.7363480911
  0
ARC
  5
81
330
1F
100
AcDbEntity
  8
0
  6
Continuous
 62
     7
370
    15
100
AcDbCircle
 10
414.3440155944
 20
279.5813619136
 30
0.0
 40
1.599999999999991
100
AcDbArc
 50
191.8907386514
 51
247.8135433712
  0
LINE
  5
82
330
1F
100
AcDbEntity
  8
0
  6
Continuous
 62
     7
370
    15
100
AcDbLine
 10
421.3099558631
 20
300.1718891265
 30
0.0
 11
415.8953589181
 21
296.5558362605
 31
0.0
  0
LINE
  5
83
330
1F
100
AcDbEntity
  8
0
  6
Continuous
 62
     7
370
    15
100
AcDbLine
 10
411.4367735366
 20
285.6230211856
 30
0.0
 11
412.7783481756
 21
279.2516899707
 31
0.0
  0
ARC
  5
84
330
1F
100
AcDbEntity
  8
0
  6
Continuous
 62
     7
370
    15
100
AcDbCircle
 10
415.0067636367
 20
297.8864011817
 30
0.0
 40
1.60000000000002
100
AcDbArc
 50
247.8135433712
 51
303.7363480911
  0
ARC
  5
85
330
1F
100
AcDbEntity
  8
0
  6
Continuous
 62
     7
370
    15
100
AcDbCircle
 10
409.8711054936
 20
285.293346928
 30
0.0
 40
1.600000000000003
100
AcDbArc
 50
11.8907386514
 51
67.8135433712
  0
LINE
  5
86
330
1F
100
AcDbEntity
  8
0
  6
Continuous
 62
     7
370
    15
100
AcDbLine
 10
414.4025687853
 20
296.4048636558
 30
0.0
 11
409.4480843077
 21
298.4253895881
 31
0.0
  0
LINE
  5
87
330
1F
100
AcDbEntity
  8
0
  6
Continuous
 62
     7
370
    15
100
AcDbLine
 10
405.5208161732
 20
288.7954068782
 30
0.0
 11
410.4753006974
 21
286.7748809459
 31
0.0
  0
ARC
  5
88
330
1F
100
AcDbEntity
  8
0
  6
Continuous
 62
     7
370
    15
100
AcDbCircle
 10
409.3725597786
 20
298.2401950139
 30
0.0
 40
0.1999999999999909
100
AcDbArc
 50
67.8135433712
 51
157.8135433712
  0
ARC
  5
89
330
1F
100
AcDbEntity
  8
0
  6
Continuous
 62
     7
370
    15
100
AcDbCircle
 10
405.5963405557
 20
288.980596298
 30
0.0
 40
0.1999999999999597
100
AcDbArc
 50
157.8135433712
 51
247.8135433712
  0
LINE
  5
8A
330
1F
100
AcDbEntity
  8
0
  6
Continuous
 62
     7
370
    15
100
AcDbLine
 10
430.0180096904
 20
205.6895566585
 30
0.0
 11
430.0180096904
 21
209.7095565351
 31
0.0
  0
LINE
  5
8B
330
1F
100
AcDbEntity
  8
0
  6
Continuous
 62
     7
370
    15
100
AcDbLine
 10
380.0180096904
 20
206.7985269653
 30
0.0
 11
380.0180096904
 21
205.6895566585
 31
0.0
  0
LINE
  5
8C
330
1F
100
AcDbEntity
  8
0
  6
Continuous
 62
     7
370
    15
100
AcDbLine
 10
380.0180096904
 20
209.7095565351
 30
0.0
 11
380.0180096904
 21
208.1883837881
 31
0.0
  0
ARC
  5
8D
330
1F
100
AcDbEntity
  8
0
  6
Continuous
 62
     7
370
    15
100
AcDbCircle
 10
409.1915014012
 20
284.3049013118
 30
0.0
 40
1.999999999999985
100
AcDbArc
 50
11.8907386514
 51
67.8135433712
  0
LINE
  5
8E
330
1F
100
AcDbEntity
  8
0
  6
Continuous
 62
     7
370
    15
100
AcDbLine
 10
411.1485858241
 20
284.7169948222
 30
0.0
 11
412.4096494893
 21
278.7280214431
 31
0.0
  0
ARC
  5
8F
330
1F
100
AcDbEntity
  8
0
  6
Continuous
 62
     7
370
    15
100
AcDbCircle
 10
414.3667340727
 20
279.1401127753
 30
0.0
 40
2.000000000000056
100
AcDbArc
 50
191.8907386514
 51
247.8135433712
  0
LINE
  5
90
330
1F
100
AcDbEntity
  8
0
  6
Continuous
 62
     7
370
    15
100
AcDbLine
 10
413.6114899794
 20
277.2881937625
 30
0.0
 11
428.8327042738
 21
271.080727637
 31
0.0
  0
ARC
  5
91
330
1F
100
AcDbEntity
  8
0
  6
Continuous
 62
     7
370
    15
100
AcDbCircle
 10
429.0215154348
 20
271.5437072241
 30
0.0
 40
0.5000000000000046
100
AcDbArc
 50
247.8135433712
 51
337.8135433712
  0
LINE
  5
92
330
1F
100
AcDbEntity
  8
0
  6
Continuous
 62
     7
370
    15
100
AcDbLine
 10
429.4844959656
 20
271.3548970821
 30
0.0
 11
429.5600195209
 21
271.5400887134
 31
0.0
  0
ARC
  5
93
330
1F
100
AcDbEntity
  8
0
  6
Continuous
 62
     7
370
    15
100
AcDbCircle
 10
429.0970398193
 20
271.7288991984
 30
0.0
 40
0.4999999999999831
100
AcDbArc
 50
337.8135433712
 51
67.8135433712
  0
LINE
  5
94
330
1F
100
AcDbEntity
  8
0
  6
Continuous
 62
     7
370
    15
100
AcDbLine
 10
429.2858500758
 20
272.1918774249
 30
0.0
 11
429.2346228639
 21
272.2127688529
 31
0.0
  0
LINE
  5
95
330
1F
100
AcDbEntity
  8
0
  6
Continuous
 62
     7
370
    15
100
AcDbLine
 10
429.9898673574
 20
274.0646911266
 30
0.0
 11
430.5040736476
 21
273.8549900653
 31
0.0
  0
ARC
  5
96
330
1F
100
AcDbEntity
  8
0
  6
Continuous
 62
     7
370
    15
100
AcDbCircle
 10
429.7488307162
 20
272.0030681731
 30
0.0
 40
1.999999999999985
100
AcDbArc
 50
337.8135433712
 51
67.8135433712
  0
LINE
  5
97
330
1F
100
AcDbEntity
  8
0
  6
Continuous
 62
     7
370
    15
100
AcDbLine
 10
431.6007514278
 20
271.2478232982
 30
0.0
 11
431.1476041356
 21
270.1366735103
 31
0.0
  0
ARC
  5
98
330
1F
100
AcDbEntity
  8
0
  6
Continuous
 62
     7
370
    15
100
AcDbCircle
 10
429.2956844095
 20
270.8919163272
 30
0.0
 40
2.000000000000028
100
AcDbArc
 50
247.8135433712
 51
337.8135433712
  0
LINE
  5
99
330
1F
100
AcDbEntity
  8
0
  6
Continuous
 62
     7
370
    15
100
AcDbLine
 10
428.5404403487
 20
269.0399957301
 30
0.0
 11
411.8731629828
 21
275.837190211
 31
0.0
  0
ARC
  5
9A
330
1F
100
AcDbEntity
  8
0
  6
Continuous
 62
     7
370
    15
100
AcDbCircle
 10
412.6284067208
 20
277.6891109284
 30
0.0
 40
2.000000000000007
100
AcDbArc
 50
191.8907386514
 51
247.8135433712
  0
LINE
  5
9B
330
1F
100
AcDbEntity
  8
0
  6
Continuous
 62
     7
370
    15
100
AcDbLine
 10
410.6713221202
 20
277.2770178916
 30
0.0
 11
409.2942916582
 21
283.816732228
 31
0.0
  0
ARC
  5
9C
330
1F
100
AcDbEntity
  8
0
  6
Continuous
 62
     7
370
    15
100
AcDbCircle
 10
408.8050206344
 20
283.7137119119
 30
0.0
 40
0.5000000000000572
100
AcDbArc
 50
11.8907386514
 51
157.8135433712
  0
LINE
  5
9D
330
1F
100
AcDbEntity
  8
0
  6
Continuous
 62
     7
370
    15
100
AcDbLine
 10
408.3420407752
 20
283.9025211932
 30
0.0
 11
407.0933813954
 21
280.8407080772
 31
0.0
  0
LINE
  5
9E
330
1F
100
AcDbEntity
  8
0
  6
Continuous
 62
     7
370
    15
100
AcDbLine
 10
401.9915074835
 20
284.2194033267
 30
0.0
 11
403.0481098944
 21
286.8102801444
 31
0.0
  0
LINE
  5
9F
330
1F
100
AcDbEntity
  8
0
  6
Continuous
 62
     7
370
    15
100
AcDbLine
 10
405.0441399563
 20
288.1561828258
 30
0.0
 11
409.946745334
 21
286.1568225028
 31
0.0
  0
LWPOLYLINE
  5
A0
330
1F
100
AcDbEntity
  8
0
  6
Continuous
 62
     7
370
    15
100
AcDbPolyline
 90
       33
 70
   128
 43
0.0
 10
407.8041274825
 20
302.0209444167
 10
407.7483535538
 20
301.8841815593
 10
407.6668248305
 20
301.6842675807
 10
407.5602578724
 20
301.422960818
 10
407.4295888448
 20
301.1025500896
 10
407.2759666274
 20
300.7258546951
 10
407.1007407064
 20
300.2961826923
 10
406.9054513032
 20
299.8173189761
 10
406.691814659
 20
299.2934656741
 10
406.4617079476
 20
298.7292242648
 10
406.217153536
 20
298.1295538547
 10
405.9603005441
 20
297.4997294547
 10
405.6934062185
 20
296.845282376
 10
405.4188160485
 20
296.1719704272
 10
405.1389431374
 20
295.4856944682
 10
404.8562469802
 20
294.7925043704
 10
404.573211938
 20
294.0984798076
 10
404.2923253754
 20
293.4097183349
 10
404.0160557049
 20
292.7322817447
 10
403.7468307445
 20
292.072124541
 10
403.4870165194
 20
291.4350343349
 10
403.2388961667
 20
290.8266258838
 10
403.0046504716
 20
290.2522338035
 10
402.7863376567
 20
289.7169125678
 10
402.585876433
 20
289.2253649833
 10
402.4050284902
 20
288.7819123866
 10
402.2453830371
 20
288.3904469611
 10
402.108343018
 20
288.0544138553
 10
401.9951128194
 20
287.7767694595
 10
401.9066874663
 20
287.5599396827
 10
401.8438440541
 20
287.4058437946
 10
401.8071350435
 20
287.31582886
 10
401.7967101911
 20
287.2902703883
  0
LWPOLYLINE
  5
A1
330
1F
100
AcDbEntity
  8
0
  6
Continuous
 62
     7
370
    15
100
AcDbPolyline
 90
        3
 70
   128
 43
0.0
 10
407.8386611099
 20
302.1056247356
 10
407.8336563686
 20
302.0933521392
 10
407.8041274825
 20
302.0209444167
  0
LWPOLYLINE
  5
A2
330
1F
100
AcDbEntity
  8
0
  6
Continuous
 62
     7
370
    15
100
AcDbPolyline
 90
       32
 70
   128
 43
0.0
 10
409.0449136475
 20
301.5149307849
 10
408.9891397188
 20
301.3781679275
 10
408.9076109955
 20
301.1782539489
 10
408.8010438511
 20
300.9169471862
 10
408.6703751961
 20
300.5965364577
 10
408.5167527924
 20
300.2198410632
 10
408.3415270576
 20
299.7901690604
 10
408.1462376544
 20
299.3113053443
 10
407.932600824
 20
298.7874520423
 10
407.7024941126
 20
298.223210633
 10
407.4579397941
 20
297.6235402229
 10
407.2010868022
 20
296.9937158229
 10
406.9341924766
 20
296.3392747047
 10
406.65960226
 20
295.6659567954
 10
406.3797293956
 20
294.9796808364
 10
406.0970332267
 20
294.2864907386
 10
405.8139981495
 20
293.5924661758
 10
405.533111587
 20
292.9037047031
 10
405.2568419164
 20
292.2262681129
 10
404.9876169648
 20
291.5661109092
 10
404.7278027309
 20
290.929020703
 10
404.4796824714
 20
290.320612252
 10
404.2454366831
 20
289.7462201717
 10
404.0271239149
 20
289.210898936
 10
403.8266626911
 20
288.7193513515
 10
403.6458146552
 20
288.2758987548
 10
403.4861692021
 20
287.8844392898
 10
403.349129183
 20
287.5484002235
 10
403.2358989844
 20
287.2707558276
 10
403.1474736313
 20
287.0539260509
 10
403.0846302191
 20
286.8998301627
 10
403.0481098944
 20
286.8102801444
  0
LINE
  5
A3
330
1F
100
AcDbEntity
  8
0
  6
Continuous
 62
     7
370
    15
100
AcDbLine
 10
409.0794474611
 20
301.5996111037
 30
0.0
 11
409.0449136475
 21
301.5149307849
 31
0.0
  0
LINE
  5
A4
330
1F
100
AcDbEntity
  8
0
  6
Continuous
 62
     7
370
    15
100
AcDbLine
 10
406.3908093402
 20
291.45832783
 30
0.0
 11
411.2934146801
 21
289.4589675071
 31
0.0
  0
ARC
  5
A5
330
1F
100
AcDbEntity
  8
0
  6
Continuous
 62
     7
370
    15
100
AcDbCircle
 10
410.3078120468
 20
286.7311900393
 30
0.0
 40
2.900376262594585
100
AcDbArc
 50
35.7631796582
 51
70.1341599269
  0
LINE
  5
A6
330
1F
100
AcDbEntity
  8
0
  6
Continuous
 62
     7
370
    15
100
AcDbLine
 10
412.6612921039
 20
288.4262753131
 30
0.0
 11
414.8795028011
 21
284.7843063476
 31
0.0
  0
ARC
  5
A7
330
1F
100
AcDbEntity
  8
0
  6
Continuous
 62
     7
370
    15
100
AcDbCircle
 10
417.2329317012
 20
286.4793245712
 30
0.0
 40
2.900295565368044
100
AcDbArc
 50
215.7626954761
 51
250.1346741233
  0
LINE
  5
A8
330
1F
100
AcDbEntity
  8
0
  6
Continuous
 62
     7
370
    15
100
AcDbLine
 10
416.2473809699
 20
283.7516141536
 30
0.0
 11
431.4685960094
 21
277.5441480281
 31
0.0
  0
LWPOLYLINE
  5
A9
330
1F
100
AcDbEntity
  8
0
  6
Continuous
 62
     7
370
    15
100
AcDbPolyline
 90
        9
 70
   128
 43
0.0
 10
431.4685960094
 20
277.5441480281
 10
431.5607328693
 20
277.5117588641
 10
431.6529561559
 20
277.4895144107
 10
431.7417223731
 20
277.4782610538
 10
431.8236221353
 20
277.4784398677
 10
431.8955053369
 20
277.4900389316
 10
431.9546093026
 20
277.5126112106
 10
431.9986660758
 20
277.5452924373
 10
432.0259799043
 20
277.5868249538
  0
LINE
  5
AA
330
1F
100
AcDbEntity
  8
0
  6
Continuous
 62
     7
370
    15
100
AcDbLine
 10
432.0259799043
 20
277.5868249538
 30
0.0
 11
432.063742427
 21
277.6794207694
 31
0.0
  0
LWPOLYLINE
  5
AB
330
1F
100
AcDbEntity
  8
0
  6
Continuous
 62
     7
370
    15
100
AcDbPolyline
 90
        9
 70
   128
 43
0.0
 10
432.063742427
 20
277.6794207694
 10
432.073264269
 20
277.7282131316
 10
432.064627556
 20
277.7823818328
 10
432.0381660739
 20
277.8398526313
 10
431.9948931018
 20
277.8984141948
 10
431.9364745895
 20
277.9558134677
 10
431.865157632
 20
278.0098450782
 10
431.7836780826
 20
278.0584407451
 10
431.6951681653
 20
278.0997229221
  0
LINE
  5
AC
330
1F
100
AcDbEntity
  8
0
  6
Continuous
 62
     7
370
    15
100
AcDbLine
 10
431.6951681653
 20
278.0997229221
 30
0.0
 11
431.6439409534
 21
278.1206143501
 31
0.0
  0
LINE
  5
AD
330
1F
100
AcDbEntity
  8
0
  6
Continuous
 62
     7
370
    15
100
AcDbLine
 10
432.0215632001
 20
279.0465725066
 30
0.0
 11
432.5357694904
 21
278.8368714454
 31
0.0
  0
LWPOLYLINE
  5
AE
330
1F
100
AcDbEntity
  8
0
  6
Continuous
 62
     7
370
    15
100
AcDbPolyline
 90
        9
 70
   128
 43
0.0
 10
432.5357694904
 20
278.8368714454
 10
432.8898061792
 20
278.671736777
 10
433.2157243768
 20
278.4773660304
 10
433.5010011474
 20
278.2612276675
 10
433.7346722165
 20
278.0316246154
 10
433.9077581445
 20
277.7973843219
 10
434.0136070529
 20
277.5675070884
 10
434.048153905
 20
277.3508263232
 10
434.010066537
 20
277.1556687953
  0
LINE
  5
AF
330
1F
100
AcDbEntity
  8
0
  6
Continuous
 62
     7
370
    15
100
AcDbLine
 10
434.010066537
 20
277.1556687953
 30
0.0
 11
433.7834943811
 21
276.6000939014
 31
0.0
  0
LWPOLYLINE
  5
B0
330
1F
100
AcDbEntity
  8
0
  6
Continuous
 62
     7
370
    15
100
AcDbPolyline
 90
        9
 70
   128
 43
0.0
 10
433.7834943811
 20
276.6000939014
 10
433.6742390672
 20
276.433957875
 10
433.4980149547
 20
276.3032329681
 10
433.2615931312
 20
276.2129378917
 10
432.9740603248
 20
276.1665475967
 10
432.6464642564
 20
276.1658383014
 10
432.2913964072
 20
276.2108398082
 10
431.9225002805
 20
276.2998295428
 10
431.5539528409
 20
276.4293742778
  0
LINE
  5
B1
330
1F
100
AcDbEntity
  8
0
  6
Continuous
 62
     7
370
    15
100
AcDbLine
 10
431.5539528409
 20
276.4293742778
 30
0.0
 11
414.886675475
 21
283.2265687587
 31
0.0
  0
ARC
  5
B2
330
1F
100
AcDbEntity
  8
0
  6
Continuous
 62
     7
370
    15
100
AcDbCircle
 10
415.8722217026
 20
285.954271513
 30
0.0
 40
2.900286827622339
100
AcDbArc
 50
215.7626332296
 51
250.1347063555
  0
LINE
  5
B3
330
1F
100
AcDbEntity
  8
0
  6
Continuous
 62
     7
370
    15
100
AcDbLine
 10
413.5187980512
 20
284.2592609527
 30
0.0
 11
411.300586609
 21
287.9012299182
 31
0.0
  0
ARC
  5
B4
330
1F
100
AcDbEntity
  8
0
  6
Continuous
 62
     7
370
    15
100
AcDbCircle
 10
408.9471629576
 20
286.2062193579
 30
0.0
 40
2.90028682762163
100
AcDbArc
 50
35.7626332296
 51
70.1347063555
  0
LINE
  5
B5
330
1F
100
AcDbEntity
  8
0
  6
Continuous
 62
     7
370
    15
100
AcDbLine
 10
409.9327091852
 20
288.9339221122
 30
0.0
 11
404.772401138
 21
291.0383833053
 31
0.0
  0
LINE
  5
B6
330
1F
100
AcDbEntity
  8
0
  6
Continuous
 62
     7
370
    15
100
AcDbLine
 10
433.3452750722
 20
275.5255413654
 30
0.0
 11
433.7834943811
 21
276.6000939014
 31
0.0
  0
LWPOLYLINE
  5
B7
330
1F
100
AcDbEntity
  8
0
  6
Continuous
 62
     7
370
    15
100
AcDbPolyline
 90
        9
 70
   128
 43
0.0
 10
433.3452750722
 20
275.5255413654
 10
433.2360197583
 20
275.359405339
 10
433.0597956458
 20
275.2286804321
 10
432.8233738223
 20
275.1383853557
 10
432.5358410159
 20
275.0919950607
 10
432.2082449475
 20
275.0912857654
 10
431.8531770984
 20
275.1362872722
 10
431.4842809716
 20
275.2252770068
 10
431.1157335321
 20
275.3548217418
  0
LINE
  5
B8
330
1F
100
AcDbEntity
  8
0
  6
Continuous
 62
     7
370
    15
100
AcDbLine
 10
431.1157335321
 20
275.3548217418
 30
0.0
 11
414.448454676
 21
282.1520162227
 31
0.0
  0
ARC
  5
B9
330
1F
100
AcDbEntity
  8
0
  6
Continuous
 62
     7
370
    15
100
AcDbCircle
 10
415.4340009037
 20
284.879718977
 30
0.0
 40
2.900286827622339
100
AcDbArc
 50
215.7626332296
 51
250.1347063555
  0
LINE
  5
BA
330
1F
100
AcDbEntity
  8
0
  6
Continuous
 62
     7
370
    15
100
AcDbLine
 10
413.0805772523
 20
283.1847084167
 30
0.0
 11
410.8623661826
 21
286.8266773822
 31
0.0
  0
ARC
  5
BB
330
1F
100
AcDbEntity
  8
0
  6
Continuous
 62
     7
370
    15
100
AcDbCircle
 10
408.5089425312
 20
285.1316668219
 30
0.0
 40
2.90028682762163
100
AcDbArc
 50
35.7626332296
 51
70.1347063555
  0
LINE
  5
BC
330
1F
100
AcDbEntity
  8
0
  6
Continuous
 62
     7
370
    15
100
AcDbLine
 10
409.4944887588
 20
287.8593695762
 30
0.0
 11
404.3341806883
 21
289.9638307693
 31
0.0
  0
LINE
  5
BD
330
1F
100
AcDbEntity
  8
0
  6
Continuous
 62
     7
370
    15
100
AcDbLine
 10
412.504850773
 20
295.2410233619
 30
0.0
 11
407.3445427025
 21
297.345484555
 31
0.0
  0
ARC
  5
BE
330
1F
100
AcDbEntity
  8
0
  6
Continuous
 62
     7
370
    15
100
AcDbCircle
 10
413.7079398093
 20
297.8800602087
 30
0.0
 40
2.900334240758392
100
AcDbArc
 50
245.4926179733
 51
279.8641141821
  0
LINE
  5
BF
330
1F
100
AcDbEntity
  8
0
  6
Continuous
 62
     7
370
    15
100
AcDbLine
 10
418.3373083154
 20
296.0746420028
 30
0.0
 11
414.2048020641
 21
295.0226021411
 31
0.0
  0
ARC
  5
C0
330
1F
100
AcDbEntity
  8
0
  6
Continuous
 62
     7
370
    15
100
AcDbCircle
 10
418.8341855087
 20
293.2172281857
 30
0.0
 40
2.900293203693455
100
AcDbArc
 50
65.492572727
 51
99.8645546906
  0
LINE
  5
C1
330
1F
100
AcDbEntity
  8
0
  6
Continuous
 62
     7
370
    15
100
AcDbLine
 10
436.7045362273
 20
289.0590322616
 30
0.0
 11
420.0372596065
 21
295.8562267425
 31
0.0
  0
LWPOLYLINE
  5
C2
330
1F
100
AcDbEntity
  8
0
  6
Continuous
 62
     7
370
    15
100
AcDbPolyline
 90
        9
 70
   128
 43
0.0
 10
438.1788362542
 20
287.377823651
 10
438.216920642
 20
287.572981179
 10
438.1823767701
 20
287.7896619441
 10
438.0765248815
 20
288.0195451381
 10
437.9034389535
 20
288.2537854316
 10
437.6697678844
 20
288.4833884837
 10
437.3844911138
 20
288.6995268466
 10
437.0585729161
 20
288.8938975932
 10
436.7045362273
 20
289.0590322616
  0
LINE
  5
C3
330
1F
100
AcDbEntity
  8
0
  6
Continuous
 62
     7
370
    15
100
AcDbLine
 10
437.952261118
 20
286.8222487571
 30
0.0
 11
438.1788362542
 21
287.377823651
 31
0.0
  0
LWPOLYLINE
  5
C4
330
1F
100
AcDbEntity
  8
0
  6
Continuous
 62
     7
370
    15
100
AcDbPolyline
 90
        9
 70
   128
 43
0.0
 10
435.7227195779
 20
286.651535094
 10
436.0912670175
 20
286.5219843986
 10
436.4601631442
 20
286.4330006244
 10
436.8152309934
 20
286.3879931571
 10
437.1428270618
 20
286.3887024524
 10
437.4303628484
 20
286.4350927474
 10
437.6667816917
 20
286.5253878238
 10
437.8430058042
 20
286.6561186912
 10
437.952261118
 20
286.8222487571
  0
LINE
  5
C5
330
1F
100
AcDbEntity
  8
0
  6
Continuous
 62
     7
370
    15
100
AcDbLine
 10
435.2085132877
 20
286.8612361552
 30
0.0
 11
435.7227195779
 21
286.651535094
 31
0.0
  0
LINE
  5
C6
330
1F
100
AcDbEntity
  8
0
  6
Continuous
 62
     7
370
    15
100
AcDbLine
 10
435.6373627464
 20
287.7663028838
 30
0.0
 11
435.5861355344
 21
287.7871943118
 31
0.0
  0
LWPOLYLINE
  5
C7
330
1F
100
AcDbEntity
  8
0
  6
Continuous
 62
     7
370
    15
100
AcDbPolyline
 90
        9
 70
   128
 43
0.0
 10
436.1947466413
 20
287.80898577
 10
436.1674328128
 20
287.767447293
 10
436.1233790198
 20
287.7347660663
 10
436.0642720739
 20
287.7121937873
 10
435.9923888723
 20
287.7005947234
 10
435.9104891101
 20
287.70042187
 10
435.8217228929
 20
287.7116692664
 10
435.7294996062
 20
287.7339196803
 10
435.6373627464
 20
287.7663028838
  0
LINE
  5
C8
330
1F
100
AcDbEntity
  8
0
  6
Continuous
 62
     7
370
    15
100
AcDbLine
 10
436.232509164
 20
287.9015815856
 30
0.0
 11
436.1947466413
 21
287.80898577
 31
0.0
  0
LWPOLYLINE
  5
C9
330
1F
100
AcDbEntity
  8
0
  6
Continuous
 62
     7
370
    15
100
AcDbPolyline
 90
        9
 70
   128
 43
0.0
 10
435.8639349023
 20
288.3218777778
 10
435.9524448196
 20
288.2805956008
 10
436.033924369
 20
288.2320058944
 10
436.1052443067
 20
288.1779683234
 10
436.1636598388
 20
288.1205690505
 10
436.2069328109
 20
288.062007487
 10
436.2333942929
 20
288.0045366885
 10
436.242031006
 20
287.9503679874
 10
436.232509164
 20
287.9015815856
  0
LINE
  5
CA
330
1F
100
AcDbEntity
  8
0
  6
Continuous
 62
     7
370
    15
100
AcDbLine
 10
420.6427206079
 20
294.5293439033
 30
0.0
 11
435.8639349023
 21
288.3218777778
 31
0.0
  0
ARC
  5
CB
330
1F
100
AcDbEntity
  8
0
  6
Continuous
 62
     7
370
    15
100
AcDbCircle
 10
419.4396396954
 20
291.8903702839
 30
0.0
 40
2.900273339816629
100
AcDbArc
 50
65.4922458741
 51
99.8644862813
  0
LINE
  5
CC
330
1F
100
AcDbEntity
  8
0
  6
Continuous
 62
     7
370
    15
100
AcDbLine
 10
414.8102638105
 20
293.6957252624
 30
0.0
 11
418.9427693168
 21
294.7477651241
 31
0.0
  0
ARC
  5
CD
330
1F
100
AcDbEntity
  8
0
  6
Continuous
 62
     7
370
    15
100
AcDbCircle
 10
414.3134016113
 20
296.5531837624
 30
0.0
 40
2.90033465731408
100
AcDbArc
 50
245.4926205184
 51
279.864111637
  0
LINE
  5
CE
330
1F
100
AcDbEntity
  8
0
  6
Continuous
 62
     7
370
    15
100
AcDbLine
 10
408.2077071795
 20
295.9135127666
 30
0.0
 11
413.1103125194
 21
293.9141464832
 31
0.0
  0
ARC
  5
CF
330
1F
100
AcDbEntity
  8
0
  6
Continuous
 62
     7
370
    15
100
AcDbCircle
 10
419.2724063077
 20
294.2917807217
 30
0.0
 40
2.900293203693455
100
AcDbArc
 50
65.492572727
 51
99.8645546906
  0
LINE
  5
D0
330
1F
100
AcDbEntity
  8
0
  6
Continuous
 62
     7
370
    15
100
AcDbLine
 10
437.1427585164
 20
290.1335847976
 30
0.0
 11
420.4754804054
 21
296.9307792785
 31
0.0
  0
LINE
  5
D1
330
1F
100
AcDbEntity
  8
0
  6
Continuous
 62
     7
370
    15
100
AcDbLine
 10
438.1788362542
 20
287.377823651
 30
0.0
 11
438.6170555631
 21
288.4523761871
 31
0.0
  0
LWPOLYLINE
  5
D2
330
1F
100
AcDbEntity
  8
0
  6
Continuous
 62
     7
370
    15
100
AcDbPolyline
 90
        9
 70
   128
 43
0.0
 10
438.6170555631
 20
288.4523761871
 10
438.6551429311
 20
288.647533715
 10
438.620596079
 20
288.8642144801
 10
438.5147471706
 20
289.0940976741
 10
438.3416582624
 20
289.3283379676
 10
438.1079871932
 20
289.5579410197
 10
437.8227104226
 20
289.7740793826
 10
437.496792225
 20
289.9684501292
 10
437.1427585164
 20
290.1335847976
  0
LINE
  5
D3
330
1F
100
AcDbEntity
  8
0
  6
Continuous
 62
     7
370
    15
100
AcDbLine
 10
418.7755291144
 20
297.1491945388
 30
0.0
 11
414.643022118
 21
296.0971546771
 31
0.0
  0
ARC
  5
D4
330
1F
100
AcDbEntity
  8
0
  6
Continuous
 62
     7
370
    15
100
AcDbCircle
 10
414.1461599415
 20
298.9546092497
 30
0.0
 40
2.900330784071185
100
AcDbArc
 50
245.49260132
 51
279.8641244871
  0
LINE
  5
D5
330
1F
100
AcDbEntity
  8
0
  6
Continuous
 62
     7
370
    15
100
AcDbLine
 10
412.9430715719
 20
296.3155758979
 30
0.0
 11
407.7827633152
 21
298.420037091
 31
0.0
  0
LINE
  5
D6
330
1F
100
AcDbEntity
  8
0
  6
Continuous
 62
     7
370
    15
100
AcDbLine
 10
414.2291423658
 20
299.4691265227
 30
0.0
 11
409.0688341091
 21
301.5735877158
 31
0.0
  0
ARC
  5
D7
330
1F
100
AcDbEntity
  8
0
  6
Continuous
 62
     7
370
    15
100
AcDbCircle
 10
414.9843858983
 20
301.3210475436
 30
0.0
 40
2.000000000000032
100
AcDbArc
 50
247.8135433712
 51
303.7363480911
  0
LINE
  5
D8
330
1F
100
AcDbEntity
  8
0
  6
Continuous
 62
     7
370
    15
100
AcDbLine
 10
421.1847831289
 20
303.0568850639
 30
0.0
 11
416.0951298455
 21
299.6578407886
 31
0.0
  0
ARC
  5
D9
330
1F
100
AcDbEntity
  8
0
  6
Continuous
 62
     7
370
    15
100
AcDbCircle
 10
422.2955279314
 20
301.3936836413
 30
0.0
 40
2.000000000000007
100
AcDbArc
 50
67.8135433712
 51
123.7363480911
  0
LINE
  5
DA
330
1F
100
AcDbEntity
  8
0
  6
Continuous
 62
     7
370
    15
100
AcDbLine
 10
439.7180487195
 20
296.4484108092
 30
0.0
 11
423.0507720987
 21
303.2456052901
 31
0.0
  0
ARC
  5
DB
330
1F
100
AcDbEntity
  8
0
  6
Continuous
 62
     7
370
    15
100
AcDbCircle
 10
438.9628056201
 20
294.59648904
 30
0.0
 40
2.000000000000028
100
AcDbArc
 50
337.8135433712
 51
67.8135433712
  0
LINE
  5
DC
330
1F
100
AcDbEntity
  8
0
  6
Continuous
 62
     7
370
    15
100
AcDbLine
 10
440.3615792075
 20
292.7300942542
 30
0.0
 11
440.8147264997
 21
293.8412440421
 31
0.0
  0
ARC
  5
DD
330
1F
100
AcDbEntity
  8
0
  6
Continuous
 62
     7
370
    15
100
AcDbCircle
 10
438.5096593134
 20
293.4853371941
 30
0.0
 40
2.000000000000007
100
AcDbArc
 50
247.8135433712
 51
337.8135433712
  0
LINE
  5
DE
330
1F
100
AcDbEntity
  8
0
  6
Continuous
 62
     7
370
    15
100
AcDbLine
 10
437.2402091304
 20
291.8431175353
 30
0.0
 11
437.7544154206
 21
291.6334164741
 31
0.0
  0
LINE
  5
DF
330
1F
100
AcDbEntity
  8
0
  6
Continuous
 62
     7
370
    15
100
AcDbLine
 10
438.0466808358
 20
293.674148381
 30
0.0
 11
437.9954506437
 21
293.695039809
 31
0.0
  0
ARC
  5
E0
330
1F
100
AcDbEntity
  8
0
  6
Continuous
 62
     7
370
    15
100
AcDbCircle
 10
438.2354903387
 20
294.137128091
 30
0.0
 40
0.5000000000000143
100
AcDbArc
 50
247.8135433712
 51
337.8135433712
  0
LINE
  5
E1
330
1F
100
AcDbEntity
  8
0
  6
Continuous
 62
     7
370
    15
100
AcDbLine
 10
438.7739945928
 20
294.1335094573
 30
0.0
 11
438.6984695474
 21
293.948317826
 31
0.0
  0
ARC
  5
E2
330
1F
100
AcDbEntity
  8
0
  6
Continuous
 62
     7
370
    15
100
AcDbCircle
 10
438.3110147232
 20
294.3223200654
 30
0.0
 40
0.5000000000000357
100
AcDbArc
 50
337.8135433712
 51
67.8135433712
  0
LINE
  5
E3
330
1F
100
AcDbEntity
  8
0
  6
Continuous
 62
     7
370
    15
100
AcDbLine
 10
423.2786108533
 20
300.9927642944
 30
0.0
 11
438.4998251477
 21
294.7852981689
 31
0.0
  0
ARC
  5
E4
330
1F
100
AcDbEntity
  8
0
  6
Continuous
 62
     7
370
    15
100
AcDbCircle
 10
422.5233675941
 20
299.1408460017
 30
0.0
 40
2.000000000000032
100
AcDbArc
 50
67.8135433712
 51
123.7363480911
  0
LINE
  5
E5
330
1F
100
AcDbEntity
  8
0
  6
Continuous
 62
     7
370
    15
100
AcDbLine
 10
416.3229700903
 20
297.4050057532
 30
0.0
 11
421.4126233736
 21
300.8040500285
 31
0.0
  0
ARC
  5
E6
330
1F
100
AcDbEntity
  8
0
  6
Continuous
 62
     7
370
    15
100
AcDbCircle
 10
415.212225561
 20
299.068209904
 30
0.0
 40
2.000000000000028
100
AcDbArc
 50
247.8135433712
 51
303.7363480911
  0
LINE
  5
E7
330
1F
100
AcDbEntity
  8
0
  6
Continuous
 62
     7
370
    15
100
AcDbLine
 10
409.5543765256
 20
299.2156518104
 30
0.0
 11
414.4569818655
 21
297.2162914874
 31
0.0
  0
LINE
  5
E8
330
1F
100
AcDbEntity
  8
0
  6
Continuous
 62
     7
370
    15
100
AcDbLine
 10
410.6713221202
 20
277.2770178916
 30
0.0
 11
409.4102588276
 21
283.2659912708
 31
0.0
  0
ARC
  5
E9
330
1F
100
AcDbEntity
  8
0
  6
Continuous
 62
     7
370
    15
100
AcDbCircle
 10
407.4531740492
 20
282.8538994649
 30
0.0
 40
1.999999999999985
100
AcDbArc
 50
11.8907386514
 51
67.8135433712
  0
LINE
  5
EA
330
1F
100
AcDbEntity
  8
0
  6
Continuous
 62
     7
370
    15
100
AcDbLine
 10
408.2084179649
 20
284.7058189513
 30
0.0
 11
403.0481098944
 21
286.8102801444
 31
0.0
  0
LINE
  5
EB
330
1F
100
AcDbEntity
  8
0
  6
Continuous
 62
     7
370
    15
100
AcDbLine
 10
408.5853290538
 20
296.8394709232
 30
0.0
 11
407.3445427025
 21
297.345484555
 31
0.0
  0
LINE
  5
EC
330
1F
100
AcDbEntity
  8
0
  6
Continuous
 62
     7
370
    15
100
AcDbLine
 10
406.0131873729
 20
290.5323696735
 30
0.0
 11
404.772401138
 21
291.0383833053
 31
0.0
  0
LWPOLYLINE
  5
ED
330
1F
100
AcDbEntity
  8
0
  6
Continuous
 62
     7
370
    15
100
AcDbPolyline
 90
       10
 70
   128
 43
0.0
 10
407.3445427025
 20
297.345484555
 10
407.0717026273
 20
296.6764581802
 10
406.7891941199
 20
295.9837210777
 10
406.4997130798
 20
295.2738953235
 10
406.2060216235
 20
294.5537400844
 10
405.9109222869
 20
293.8301277759
 10
405.6172308771
 20
293.1099725368
 10
405.3277497905
 20
292.4001408221
 10
405.0452413151
 20
291.7074096801
 10
404.772401138
 20
291.0383833053
  0
LWPOLYLINE
  5
EE
330
1F
100
AcDbEntity
  8
0
  6
Continuous
 62
     7
370
    15
100
AcDbPolyline
 90
       10
 70
   128
 43
0.0
 10
408.5853290538
 20
296.8394709232
 10
408.3124887923
 20
296.1704445483
 10
408.0299802849
 20
295.4777134063
 10
407.740499338
 20
294.7678816917
 10
407.4468078816
 20
294.0477264526
 10
407.1517084519
 20
293.3241141441
 10
406.8580171818
 20
292.603958905
 10
406.5685360486
 20
291.8941271903
 10
406.2860275412
 20
291.2013960483
 10
406.0131873729
 20
290.5323696735
  0
LINE
  5
EF
330
1F
100
AcDbEntity
  8
0
  6
Continuous
 62
     7
370
    15
100
AcDbLine
 10
405.5749669464
 20
289.4578171375
 30
0.0
 11
404.3341806883
 21
289.9638307693
 31
0.0
  0
LINE
  5
F0
330
1F
100
AcDbEntity
  8
0
  6
Continuous
 62
     7
370
    15
100
AcDbLine
 10
404.288896106
 20
286.3042665126
 30
0.0
 11
403.0481098944
 21
286.8102801444
 31
0.0
  0
LWPOLYLINE
  5
F1
330
1F
100
AcDbEntity
  8
0
  6
Continuous
 62
     7
370
    15
100
AcDbPolyline
 90
       10
 70
   128
 43
0.0
 10
404.3341806883
 20
289.9638307693
 10
404.1003881747
 20
289.3905532958
 10
403.8852797615
 20
288.8630879523
 10
403.6909079904
 20
288.3864713313
 10
403.5191277767
 20
287.9652512672
 10
403.3715781549
 20
287.6034510734
 10
403.2496669123
 20
287.3045158984
 10
403.154557457
 20
287.0712948444
 10
403.087157456
 20
286.9060290458
 10
403.0481098944
 20
286.8102801444
  0
LWPOLYLINE
  5
F2
330
1F
100
AcDbEntity
  8
0
  6
Continuous
 62
     7
370
    15
100
AcDbPolyline
 90
       10
 70
   128
 43
0.0
 10
405.5749669464
 20
289.4578171375
 10
405.341174363
 20
288.884539664
 10
405.1260659497
 20
288.3570743205
 10
404.9316942602
 20
287.8804576995
 10
404.7599140115
 20
287.4592376353
 10
404.6123643199
 20
287.0974374416
 10
404.4904531704
 20
286.7985022666
 10
404.3953437617
 20
286.5652812125
 10
404.3279437142
 20
286.400015414
 10
404.288896106
 20
286.3042665126
  0
LINE
  5
F3
330
1F
100
AcDbEntity
  8
0
  6
Continuous
 62
     7
370
    15
100
AcDbLine
 10
409.0235494802
 20
297.9140234592
 30
0.0
 11
407.7827633152
 21
298.420037091
 31
0.0
  0
LINE
  5
F4
330
1F
100
AcDbEntity
  8
0
  6
Continuous
 62
     7
370
    15
100
AcDbLine
 10
410.3096202741
 20
301.067574084
 30
0.0
 11
409.0688341091
 21
301.5735877158
 31
0.0
  0
LWPOLYLINE
  5
F5
330
1F
100
AcDbEntity
  8
0
  6
Continuous
 62
     7
370
    15
100
AcDbPolyline
 90
       10
 70
   128
 43
0.0
 10
409.0688341091
 20
301.5735877158
 10
409.0297863612
 20
301.4778388145
 10
408.9623865465
 20
301.3125670554
 10
408.8672769049
 20
301.0793519618
 10
408.7453656623
 20
300.7804167869
 10
408.5978162268
 20
300.4186106326
 10
408.4260360131
 20
299.9973965289
 10
408.2316641489
 20
299.5207799079
 10
408.0165558288
 20
298.9933145644
 10
407.7827633152
 20
298.420037091
  0
LWPOLYLINE
  5
F6
330
1F
100
AcDbEntity
  8
0
  6
Continuous
 62
     7
370
    15
100
AcDbPolyline
 90
       10
 70
   128
 43
0.0
 10
410.3096202741
 20
301.067574084
 10
410.2705725262
 20
300.9718251826
 10
410.2031727115
 20
300.8065534236
 10
410.1080630699
 20
300.57333833
 10
409.9861521999
 20
300.2744031551
 10
409.8386023918
 20
299.9125970008
 10
409.6668221781
 20
299.4913828971
 10
409.4724503139
 20
299.0147662761
 10
409.2573419938
 20
298.4873009326
 10
409.0235494802
 20
297.9140234592
  0
CIRCLE
  5
F7
330
1F
100
AcDbEntity
  8
0
  6
Continuous
 62
     7
370
    15
100
AcDbCircle
 10
404.3155018106
 20
281.9735738669
 30
0.0
 40
0.6000000000000432
  0
LINE
  5
F8
330
1F
100
AcDbEntity
  8
0
  6
Continuous
 62
     7
370
    15
100
AcDbLine
 10
403.0882979537
 20
284.7110880019
 30
0.0
 11
348.3380635062
 21
260.1670098903
 31
0.0
  0
ARC
  5
F9
330
1F
100
AcDbEntity
  8
0
  6
Continuous
 62
     7
370
    15
100
AcDbCircle
 10
404.3155018106
 20
281.9735738669
 30
0.0
 40
3.000000000000014
100
AcDbArc
 50
294.1462985998
 51
114.1462985998
  0
LINE
  5
FA
330
1F
100
AcDbEntity
  8
0
  6
Continuous
 62
     7
370
    15
100
AcDbLine
 10
355.3704698363
 20
256.7442668082
 30
0.0
 11
405.5427056531
 21
279.2360616328
 31
0.0
  0
CIRCLE
  5
FB
330
1F
100
AcDbEntity
  8
0
  6
Continuous
 62
     7
370
    15
100
AcDbCircle
 10
405.0180096904
 20
214.7095566585
 30
0.0
 40
0.599999999999981
  0
CIRCLE
  5
FC
330
1F
100
AcDbEntity
  8
0
  6
Continuous
 62
     7
370
    15
100
AcDbCircle
 10
349.5652664603
 20
257.4294965959
 30
0.0
 40
0.6000000000000434
  0
LINE
  5
FD
330
1F
100
AcDbEntity
  8
0
  6
Continuous
 62
     7
370
    15
100
AcDbLine
 10
351.3961215297
 20
259.8060441615
 30
0.0
 11
406.8488643298
 21
217.0861025753
 31
0.0
  0
ARC
  5
FE
330
1F
100
AcDbEntity
  8
0
  6
Continuous
 62
     7
370
    15
100
AcDbCircle
 10
405.0180096904
 20
214.7095566585
 30
0.0
 40
3.000000000000012
100
AcDbArc
 50
232.3898972232
 51
52.3898972232
  0
LINE
  5
FF
330
1F
100
AcDbEntity
  8
0
  6
Continuous
 62
     7
370
    15
100
AcDbLine
 10
403.187155051
 20
212.3330106439
 30
0.0
 11
347.7344115058
 21
255.05294925
 31
0.0
  0
ARC
  5
100
330
1F
100
AcDbEntity
  8
0
  6
Continuous
 62
     7
370
    15
100
AcDbCircle
 10
349.5652664603
 20
257.4294965959
 30
0.0
 40
3.000000000000023
100
AcDbArc
 50
52.3898972232
 51
232.3898972232
  0
LINE
  5
101
330
1F
100
AcDbEntity
  8
0
  6
Continuous
 62
     7
370
    15
100
AcDbLine
 10
402.0180097575
 20
213.2337023916
 30
0.0
 11
402.0180097575
 21
209.7095565351
 31
0.0
  0
LINE
  5
102
330
1F
100
AcDbEntity
  8
0
  6
Continuous
 62
     7
370
    15
100
AcDbLine
 10
408.0180096233
 20
209.7095565351
 30
0.0
 11
408.0180096233
 21
214.7095566096
 31
0.0
  0
ARC
  5
103
330
1F
100
AcDbEntity
  8
0
  6
Continuous
 62
     7
370
    15
100
AcDbCircle
 10
355.0267409345
 20
207.4896028798
 30
0.0
 40
25.00107073980577
100
AcDbArc
 50
358.4160367488
 51
359.9998938954
  0
LWPOLYLINE
  5
104
330
1F
100
AcDbEntity
  8
0
  6
Continuous
 62
     7
370
    15
100
AcDbPolyline
 90
        7
 70
   128
 43
0.0
 10
380.0180409828
 20
208.1883837881
 10
380.0180111805
 20
208.1895205604
 10
380.0191451589
 20
208.1477356555
 10
380.0219286958
 20
208.031802945
 10
380.0251443664
 20
207.8547181042
 10
380.0273795406
 20
207.6364237296
 10
380.0278116742
 20
207.489556581
  0
LINE
  5
105
330
1F
100
AcDbEntity
  8
0
  6
Continuous
 62
     7
370
    15
100
AcDbLine
 10
380.0180096904
 20
209.7095565351
 30
0.0
 11
430.0180096904
 21
209.7095565351
 31
0.0
  0
LINE
  5
106
330
1F
100
AcDbEntity
  8
0
  6
Continuous
 62
     7
370
    15
100
AcDbLine
 10
380.0180096904
 20
205.6895566585
 30
0.0
 11
430.0180096904
 21
205.6895566585
 31
0.0
  0
LINE
  5
107
330
1F
100
AcDbEntity
  8
0
  6
Continuous
 62
     7
370
    15
100
AcDbLine
 10
718.8409063343
 20
268.8919139507
 30
0.0
 11
720.1809062932
 21
268.8919139507
 31
0.0
  0
LINE
  5
108
330
1F
100
AcDbEntity
  8
0
  6
Continuous
 62
     7
370
    15
100
AcDbLine
 10
720.1809062932
 20
274.8664212825
 30
0.0
 11
718.8409063343
 21
274.8664212825
 31
0.0
  0
ARC
  5
109
330
1F
100
AcDbEntity
  8
0
  6
Continuous
 62
     7
370
    15
100
AcDbCircle
 10
719.7312857308
 20
284.1979475654
 30
0.0
 40
12.87348383751866
100
AcDbArc
 50
276.9139169537
 51
319.8381965349
  0
ARC
  5
10A
330
1F
100
AcDbEntity
  8
0
  6
Continuous
 62
     7
370
    15
100
AcDbCircle
 10
721.2317088882
 20
283.1045420626
 30
0.0
 40
10.9990073667254
100
AcDbArc
 50
329.3947572574
 51
24.0665131144
  0
ARC
  5
10B
330
1F
100
AcDbEntity
  8
0
  6
Continuous
 62
     7
370
    15
100
AcDbCircle
 10
719.7198015635
 20
282.0460625196
 30
0.0
 40
12.86164081067647
100
AcDbArc
 50
34.9565550619
 51
87.9454396153
  0
ARC
  5
10C
330
1F
100
AcDbEntity
  8
0
  6
Continuous
 62
     7
370
    15
100
AcDbCircle
 10
719.2787628864
 20
282.0927450807
 30
0.0
 40
12.81508434120818
100
AcDbArc
 50
91.958021932
 51
145.1599535824
  0
ARC
  5
10D
330
1F
100
AcDbEntity
  8
0
  6
Continuous
 62
     7
370
    15
100
AcDbCircle
 10
717.7907448795
 20
283.1062206495
 30
0.0
 40
10.99973141620526
100
AcDbArc
 50
155.9422646728
 51
210.612124623
  0
ARC
  5
10E
330
1F
100
AcDbEntity
  8
0
  6
Continuous
 62
     7
370
    15
100
AcDbCircle
 10
719.3290376164
 20
284.2541064702
 30
0.0
 40
12.93951556035899
100
AcDbArc
 50
220.2415224376
 51
267.8380566124
  0
LWPOLYLINE
  5
10F
330
1F
100
AcDbEntity
  8
0
  6
Continuous
 62
     7
370
    15
100
AcDbPolyline
 90
        3
 70
   128
 43
0.0
 10
720.1809062932
 20
271.3260126712
 10
720.7883071464
 20
271.3628900649
 10
721.2809696172
 20
271.4180780055
  0
ARC
  5
110
330
1F
100
AcDbEntity
  8
0
  6
Continuous
 62
     7
370
    15
100
AcDbCircle
 10
719.2770390106
 20
282.0979525217
 30
0.0
 40
11.96866622002958
100
AcDbArc
 50
92.0882941042
 51
145.5632122722
  0
ARC
  5
111
330
1F
100
AcDbEntity
  8
0
  6
Continuous
 62
     7
370
    15
100
AcDbCircle
 10
719.7451624812
 20
282.0981272086
 30
0.0
 40
11.96821539863479
100
AcDbArc
 50
34.4371843564
 51
87.9134900561
  0
LINE
  5
112
330
1F
100
AcDbEntity
  8
0
  6
Continuous
 62
     7
370
    15
100
AcDbLine
 10
731.5109060455
 20
287.0075178744
 30
0.0
 11
731.5109060455
 21
287.7314103248
 31
0.0
  0
LINE
  5
113
330
1F
100
AcDbEntity
  8
0
  6
Continuous
 62
     7
370
    15
100
AcDbLine
 10
707.510906582
 20
287.7314103248
 30
0.0
 11
707.510906582
 21
287.0074940326
 31
0.0
  0
LWPOLYLINE
  5
114
330
1F
100
AcDbEntity
  8
0
  6
Continuous
 62
     7
370
    15
100
AcDbPolyline
 90
       16
 70
   128
 43
0.0
 10
730.2610316623
 20
294.186593354
 10
730.0448515762
 20
294.5917022826
 10
729.6004780878
 20
295.2922177913
 10
729.1028858472
 20
295.9608567359
 10
728.5546378542
 20
296.594096482
 10
727.9585660745
 20
297.1885812881
 10
727.3177654792
 20
297.7411580684
 10
726.6355776537
 20
298.2488823535
 10
725.9155721713
 20
298.7090302112
 10
725.1615302015
 20
299.1191340091
 10
724.3774221588
 20
299.4769824149
 10
723.5673838605
 20
299.7806561591
 10
722.7356945474
 20
300.0284982326
 10
721.8867521111
 20
300.2191734912
 10
721.0250486929
 20
300.3516328933
 10
720.1809062932
 20
300.4229677322
  0
ARC
  5
115
330
1F
100
AcDbEntity
  8
0
  6
Continuous
 62
     7
370
    15
100
AcDbCircle
 10
719.2777104936
 20
288.4257250287
 30
0.0
 40
11.99859794571083
100
AcDbArc
 50
92.0862909356
 51
151.2245718237
  0
ARC
  5
116
330
1F
100
AcDbEntity
  8
0
  6
Continuous
 62
     7
370
    15
100
AcDbCircle
 10
718.0797843335
 20
291.6907966949
 30
0.0
 40
3.642887039636145
100
AcDbArc
 50
156.2868174009
 51
180.5430656548
  0
ARC
  5
117
330
1F
100
AcDbEntity
  8
0
  6
Continuous
 62
     7
370
    15
100
AcDbCircle
 10
720.9133221784
 20
291.682576228
 30
0.0
 40
3.671205638067239
100
AcDbArc
 50
358.3801807077
 51
23.6623388101
  0
LINE
  5
118
330
1F
100
AcDbEntity
  8
0
  6
Continuous
 62
     7
370
    15
100
AcDbLine
 10
706.3936525334
 20
276.2971473338
 30
0.0
 11
707.0636534442
 21
275.2226007583
 31
0.0
  0
LINE
  5
119
330
1F
100
AcDbEntity
  8
0
  6
Continuous
 62
     7
370
    15
100
AcDbLine
 10
711.5250782419
 20
278.7705791595
 30
0.0
 11
710.8550780762
 21
279.8451316955
 31
0.0
  0
LINE
  5
11A
330
1F
100
AcDbEntity
  8
0
  6
Continuous
 62
     7
370
    15
100
AcDbLine
 10
710.8271398891
 20
286.51930815
 30
0.0
 11
711.4971393097
 21
287.593860686
 31
0.0
  0
LINE
  5
11B
330
1F
100
AcDbEntity
  8
0
  6
Continuous
 62
     7
370
    15
100
AcDbLine
 10
707.0636534442
 20
297.063000262
 30
0.0
 11
706.3936525334
 21
295.988447726
 31
0.0
  0
LINE
  5
11C
330
1F
100
AcDbEntity
  8
0
  6
Continuous
 62
     7
370
    15
100
AcDbLine
 10
718.8409063343
 20
291.4853346946
 30
0.0
 11
720.1809062932
 21
291.4853346946
 31
0.0
  0
LINE
  5
11D
330
1F
100
AcDbEntity
  8
0
  6
Continuous
 62
     7
370
    15
100
AcDbLine
 10
720.1809062932
 20
303.3936811092
 30
0.0
 11
718.8409063343
 21
303.3936811092
 31
0.0
  0
LINE
  5
11E
330
1F
100
AcDbEntity
  8
0
  6
Continuous
 62
     7
370
    15
100
AcDbLine
 10
727.5246733178
 20
287.593860686
 30
0.0
 11
728.1946727384
 21
286.51930815
 31
0.0
  0
LINE
  5
11F
330
1F
100
AcDbEntity
  8
0
  6
Continuous
 62
     7
370
    15
100
AcDbLine
 10
732.6281600941
 20
295.988447726
 30
0.0
 11
731.9581591834
 21
297.063000262
 31
0.0
  0
LINE
  5
120
330
1F
100
AcDbEntity
  8
0
  6
Continuous
 62
     7
370
    15
100
AcDbLine
 10
731.9581591834
 20
275.2226007583
 30
0.0
 11
732.6281600941
 21
276.2971473338
 31
0.0
  0
LINE
  5
121
330
1F
100
AcDbEntity
  8
0
  6
Continuous
 62
     7
370
    15
100
AcDbLine
 10
728.1667345513
 20
279.8451316955
 30
0.0
 11
727.4967343856
 21
278.7705791595
 31
0.0
  0
LINE
  5
122
330
1F
100
AcDbEntity
  8
0
  6
Continuous
 62
     7
370
    15
100
AcDbLine
 10
720.1809062932
 20
264.1655159595
 30
0.0
 11
718.8409063343
 21
264.1655159595
 31
0.0
  0
LINE
  5
123
330
1F
100
AcDbEntity
  8
0
  6
Continuous
 62
     7
370
    15
100
AcDbLine
 10
718.8409063343
 20
262.9655135276
 30
0.0
 11
720.1809062932
 21
262.9655135276
 31
0.0
  0
LINE
  5
124
330
1F
100
AcDbEntity
  8
0
  6
Continuous
 62
     7
370
    15
100
AcDbLine
 10
718.8409063343
 20
254.4294965865
 30
0.0
 11
720.1809062932
 21
254.4294965865
 31
0.0
  0
LINE
  5
125
330
1F
100
AcDbEntity
  8
0
  6
Continuous
 62
     7
370
    15
100
AcDbLine
 10
720.1809062932
 20
260.429496825
 30
0.0
 11
718.8409063343
 21
260.429496825
 31
0.0
  0
LINE
  5
126
330
1F
100
AcDbEntity
  8
0
  6
Continuous
 62
     7
370
    15
100
AcDbLine
 10
717.5009063754
 20
254.4294965865
 30
0.0
 11
718.8409063343
 21
254.4294965865
 31
0.0
  0
LINE
  5
127
330
1F
100
AcDbEntity
  8
0
  6
Continuous
 62
     7
370
    15
100
AcDbLine
 10
720.1809062932
 20
254.4294965865
 30
0.0
 11
721.5209062521
 21
254.4294965865
 31
0.0
  0
LINE
  5
128
330
1F
100
AcDbEntity
  8
0
  6
Continuous
 62
     7
370
    15
100
AcDbLine
 10
721.5209062521
 20
225.9895411732
 30
0.0
 11
717.5009063754
 21
225.9895411732
 31
0.0
  0
LINE
  5
129
330
1F
100
AcDbEntity
  8
0
  6
Continuous
 62
     7
370
    15
100
AcDbLine
 10
717.5009063754
 20
224.7895417216
 30
0.0
 11
721.5209062521
 21
224.7895417216
 31
0.0
  0
LINE
  5
12A
330
1F
100
AcDbEntity
  8
0
  6
Continuous
 62
     7
370
    15
100
AcDbLine
 10
721.5209062521
 20
236.669526756
 30
0.0
 11
717.5009063754
 21
236.669526756
 31
0.0
  0
LINE
  5
12B
330
1F
100
AcDbEntity
  8
0
  6
Continuous
 62
     7
370
    15
100
AcDbLine
 10
717.5009063754
 20
235.4695273044
 30
0.0
 11
721.5209062521
 21
235.4695273044
 31
0.0
  0
LINE
  5
12C
330
1F
100
AcDbEntity
  8
0
  6
Continuous
 62
     7
370
    15
100
AcDbLine
 10
721.5209062521
 20
247.3495108487
 30
0.0
 11
717.5009063754
 21
247.3495108487
 31
0.0
  0
LINE
  5
12D
330
1F
100
AcDbEntity
  8
0
  6
Continuous
 62
     7
370
    15
100
AcDbLine
 10
717.5009063754
 20
246.1495113971
 30
0.0
 11
721.5209062521
 21
246.1495113971
 31
0.0
  0
LINE
  5
12E
330
1F
100
AcDbEntity
  8
0
  6
Continuous
 62
     7
370
    15
100
AcDbLine
 10
721.5209062521
 20
211.7095564904
 30
0.0
 11
722.8609063972
 21
211.7095564904
 31
0.0
  0
LINE
  5
12F
330
1F
100
AcDbEntity
  8
0
  6
Continuous
 62
     7
370
    15
100
AcDbLine
 10
722.8609063972
 20
260.429496825
 30
0.0
 11
721.5209062521
 21
260.429496825
 31
0.0
  0
LINE
  5
130
330
1F
100
AcDbEntity
  8
0
  6
Continuous
 62
     7
370
    15
100
AcDbLine
 10
716.1609062303
 20
211.7095564904
 30
0.0
 11
717.5009063754
 21
211.7095564904
 31
0.0
  0
LINE
  5
131
330
1F
100
AcDbEntity
  8
0
  6
Continuous
 62
     7
370
    15
100
AcDbLine
 10
717.5009063754
 20
260.429496825
 30
0.0
 11
716.1609062303
 21
260.429496825
 31
0.0
  0
LINE
  5
132
330
1F
100
AcDbEntity
  8
0
  6
Continuous
 62
     7
370
    15
100
AcDbLine
 10
721.5209062521
 20
217.7095567288
 30
0.0
 11
717.5009063754
 21
217.7095567288
 31
0.0
  0
LINE
  5
133
330
1F
100
AcDbEntity
  8
0
  6
Continuous
 62
     7
370
    15
100
AcDbLine
 10
744.5109063138
 20
205.6895566585
 30
0.0
 11
744.5109063138
 21
209.7095565351
 31
0.0
  0
LINE
  5
134
330
1F
100
AcDbEntity
  8
0
  6
Continuous
 62
     7
370
    15
100
AcDbLine
 10
694.5109063138
 20
209.7095565351
 30
0.0
 11
694.5109063138
 21
205.6895566585
 31
0.0
  0
LINE
  5
135
330
1F
100
AcDbEntity
  8
0
  6
Continuous
 62
     7
370
    15
100
AcDbLine
 10
720.1809062932
 20
273.8549900653
 30
0.0
 11
720.1809062932
 21
271.2478232982
 31
0.0
  0
LINE
  5
136
330
1F
100
AcDbEntity
  8
0
  6
Continuous
 62
     7
370
    15
100
AcDbLine
 10
718.8409063343
 20
273.8549900653
 30
0.0
 11
718.8409063343
 21
271.2478232982
 31
0.0
  0
LINE
  5
137
330
1F
100
AcDbEntity
  8
0
  6
Continuous
 62
     7
370
    15
100
AcDbLine
 10
720.1809062932
 20
271.2478232982
 30
0.0
 11
720.1809062932
 21
270.1366735103
 31
0.0
  0
LINE
  5
138
330
1F
100
AcDbEntity
  8
0
  6
Continuous
 62
     7
370
    15
100
AcDbLine
 10
718.8409063343
 20
271.2478232982
 30
0.0
 11
718.8409063343
 21
270.1366735103
 31
0.0
  0
LINE
  5
139
330
1F
100
AcDbEntity
  8
0
  6
Continuous
 62
     7
370
    15
100
AcDbLine
 10
720.1809062932
 20
270.1366735103
 30
0.0
 11
720.1809062932
 21
268.8919139507
 31
0.0
  0
LINE
  5
13A
330
1F
100
AcDbEntity
  8
0
  6
Continuous
 62
     7
370
    15
100
AcDbLine
 10
718.8409063343
 20
270.1366735103
 30
0.0
 11
718.8409063343
 21
268.8919139507
 31
0.0
  0
LINE
  5
13B
330
1F
100
AcDbEntity
  8
0
  6
Continuous
 62
     7
370
    15
100
AcDbLine
 10
720.1809062932
 20
274.8368037345
 30
0.0
 11
720.1809062932
 21
273.8549900653
 31
0.0
  0
LINE
  5
13C
330
1F
100
AcDbEntity
  8
0
  6
Continuous
 62
     7
370
    15
100
AcDbLine
 10
718.8409063343
 20
274.8368037345
 30
0.0
 11
718.8409063343
 21
273.8549900653
 31
0.0
  0
LINE
  5
13D
330
1F
100
AcDbEntity
  8
0
  6
Continuous
 62
     7
370
    15
100
AcDbLine
 10
720.1809062932
 20
274.8664212825
 30
0.0
 11
720.1809062932
 21
274.8368037345
 31
0.0
  0
LINE
  5
13E
330
1F
100
AcDbEntity
  8
0
  6
Continuous
 62
     7
370
    15
100
AcDbLine
 10
718.8409063343
 20
274.8664212825
 30
0.0
 11
718.8409063343
 21
274.8368037345
 31
0.0
  0
ARC
  5
13F
330
1F
100
AcDbEntity
  8
0
  6
Continuous
 62
     7
370
    15
100
AcDbCircle
 10
719.3286851925
 20
294.0691070346
 30
0.0
 40
8.017492492179766
100
AcDbArc
 50
97.3375222498
 51
147.2950303095
  0
ARC
  5
140
330
1F
100
AcDbEntity
  8
0
  6
Continuous
 62
     7
370
    15
100
AcDbCircle
 10
719.6393690525
 20
293.9953147014
 30
0.0
 40
8.10240415941284
100
AcDbArc
 50
32.8323950609
 51
86.1676873712
  0
LINE
  5
141
330
1F
100
AcDbEntity
  8
0
  6
Continuous
 62
     7
370
    15
100
AcDbLine
 10
718.8409063343
 20
302.0796013477
 30
0.0
 11
718.3047378745
 21
302.0209444167
 31
0.0
  0
ARC
  5
142
330
1F
100
AcDbEntity
  8
0
  6
Continuous
 62
     7
370
    15
100
AcDbCircle
 10
719.3673757421
 20
293.4679590631
 30
0.0
 40
8.116831471080552
100
AcDbArc
 50
97.5226327311
 51
139.1830014776
  0
ARC
  5
143
330
1F
100
AcDbEntity
  8
0
  6
Continuous
 62
     7
370
    15
100
AcDbCircle
 10
719.6160585025
 20
293.4075103092
 30
0.0
 40
8.185589364146084
100
AcDbArc
 50
41.0800612881
 51
86.0431518844
  0
LINE
  5
144
330
1F
100
AcDbEntity
  8
0
  6
Continuous
 62
     7
370
    15
100
AcDbLine
 10
718.8409063343
 20
301.5735877158
 30
0.0
 11
718.3047378745
 21
301.5149307849
 31
0.0
  0
ARC
  5
145
330
1F
100
AcDbEntity
  8
0
  6
Continuous
 62
     7
370
    15
100
AcDbCircle
 10
719.4313349375
 20
294.2170077132
 30
0.0
 40
0.9253214993359843
100
AcDbArc
 50
198.9662177748
 51
230.3512448864
  0
ARC
  5
146
330
1F
100
AcDbEntity
  8
0
  6
Continuous
 62
     7
370
    15
100
AcDbCircle
 10
719.5920757414
 20
294.2159028721
 30
0.0
 40
0.9234512700738267
100
AcDbArc
 50
309.6161518092
 51
341.0663855295
  0
LINE
  5
147
330
1F
100
AcDbEntity
  8
0
  6
Continuous
 62
     7
370
    15
100
AcDbLine
 10
718.8029621572
 20
294.0439713599
 30
0.0
 11
718.8409063343
 21
294.0105510356
 31
0.0
  0
LINE
  5
148
330
1F
100
AcDbEntity
  8
0
  6
Continuous
 62
     7
370
    15
100
AcDbLine
 10
720.1809062932
 20
294.0105510356
 30
0.0
 11
720.219154454
 21
294.0442515018
 31
0.0
  0
ARC
  5
149
330
1F
100
AcDbEntity
  8
0
  6
Continuous
 62
     7
370
    15
100
AcDbCircle
 10
721.1263164595
 20
283.1120155217
 30
0.0
 40
10.26324636132702
100
AcDbArc
 50
335.4899344685
 51
23.3192458968
  0
ARC
  5
14A
330
1F
100
AcDbEntity
  8
0
  6
Continuous
 62
     7
370
    15
100
AcDbCircle
 10
717.8938094817
 20
283.112217171
 30
0.0
 40
10.26161764227007
100
AcDbArc
 50
156.678060039
 51
204.0305531805
  0
LINE
  5
14B
330
1F
100
AcDbEntity
  8
0
  6
Continuous
 62
     7
370
    15
100
AcDbLine
 10
714.4314778347
 20
291.6604233386
 30
0.0
 11
714.4309063752
 21
291.5898752811
 31
0.0
  0
ARC
  5
14C
330
1F
100
AcDbEntity
  8
0
  6
Continuous
 62
     7
370
    15
100
AcDbCircle
 10
719.7198553634
 20
293.8378595646
 30
0.0
 40
4.910838689856623
100
AcDbArc
 50
275.8398049943
 51
345.5080743149
  0
LWPOLYLINE
  5
14D
330
1F
100
AcDbEntity
  8
0
  6
Continuous
 62
     7
370
    15
100
AcDbPolyline
 90
       14
 70
   128
 43
0.0
 10
714.5412111033
 20
292.6354838016
 10
714.6403276671
 20
292.2737193706
 10
714.8452484358
 20
291.7496932151
 10
715.1156642784
 20
291.251785815
 10
715.4477798689
 20
290.786988795
 10
715.8369330067
 20
290.3618288638
 10
716.2776605536
 20
289.9822724464
 10
716.7637759198
 20
289.6536422374
 10
717.2884549324
 20
289.3805635574
 10
717.8443323199
 20
289.166857064
 10
718.4236046236
 20
289.0155268314
 10
719.0181402799
 20
288.9287007453
 10
719.6195933462
 20
288.9075947406
 10
720.2195206501
 20
288.9525068404
  0
ARC
  5
14E
330
1F
100
AcDbEntity
  8
0
  6
Continuous
 62
     7
370
    15
100
AcDbCircle
 10
719.6289476057
 20
293.6392958215
 30
0.0
 40
0.880555018786025
100
AcDbArc
 50
308.8166631536
 51
27.8139301007
  0
ARC
  5
14F
330
1F
100
AcDbEntity
  8
0
  6
Continuous
 62
     7
370
    15
100
AcDbCircle
 10
719.3954753709
 20
293.6398364324
 30
0.0
 40
0.8826141126422586
100
AcDbArc
 50
152.3211171486
 51
231.0733043526
  0
ARC
  5
150
330
1F
100
AcDbEntity
  8
0
  6
Continuous
 62
     7
370
    15
100
AcDbCircle
 10
719.6094451623
 20
293.6960926083
 30
0.0
 40
0.901759449935283
100
AcDbArc
 50
309.3249603759
 51
357.9137190246
  0
ARC
  5
151
330
1F
100
AcDbEntity
  8
0
  6
Continuous
 62
     7
370
    15
100
AcDbCircle
 10
719.4127071545
 20
293.6962610886
 30
0.0
 40
0.9021050609432179
100
AcDbArc
 50
182.0961892249
 51
230.6651313746
  0
LINE
  5
152
330
1F
100
AcDbEntity
  8
0
  6
Continuous
 62
     7
370
    15
100
AcDbLine
 10
708.0907807995
 20
277.9238236549
 30
0.0
 11
708.0907807995
 21
277.5441480281
 31
0.0
  0
LWPOLYLINE
  5
153
330
1F
100
AcDbEntity
  8
0
  6
Continuous
 62
     7
370
    15
100
AcDbPolyline
 90
        9
 70
   128
 43
0.0
 10
708.0907807995
 20
277.5441480281
 10
708.0991016079
 20
277.5117588641
 10
708.1237421681
 20
277.4895144107
 10
708.1637570013
 20
277.4782610538
 10
708.2176075626
 20
277.4784398677
 10
708.283224826
 20
277.4900389316
 10
708.3580867697
 20
277.5126112106
 10
708.4393174697
 20
277.5452924373
 10
708.5237936426
 20
277.5868249538
  0
LINE
  5
154
330
1F
100
AcDbEntity
  8
0
  6
Continuous
 62
     7
370
    15
100
AcDbLine
 10
708.5237936426
 20
277.5868249538
 30
0.0
 11
708.6969987799
 21
277.6794207694
 31
0.0
  0
ARC
  5
155
330
1F
100
AcDbEntity
  8
0
  6
Continuous
 62
     7
370
    15
100
AcDbCircle
 10
708.4070093934
 20
278.4113849949
 30
0.0
 40
0.7873153571807133
100
AcDbArc
 50
291.6124668179
 51
336.6807424469
  0
LINE
  5
156
330
1F
100
AcDbEntity
  8
0
  6
Continuous
 62
     7
370
    15
100
AcDbLine
 10
709.130011623
 20
278.0997229221
 30
0.0
 11
709.130011623
 21
278.892726958
 31
0.0
  0
ARC
  5
157
330
1F
100
AcDbEntity
  8
0
  6
Continuous
 62
     7
370
    15
100
AcDbCircle
 10
709.7084002638
 20
278.64341084
 30
0.0
 40
0.6298348565423555
100
AcDbArc
 50
111.6118089628
 51
156.681400302
  0
LINE
  5
158
330
1F
100
AcDbEntity
  8
0
  6
Continuous
 62
     7
370
    15
100
AcDbLine
 10
709.4764218975
 20
279.2289686801
 30
0.0
 11
710.515651976
 21
279.7845435741
 31
0.0
  0
LWPOLYLINE
  5
159
330
1F
100
AcDbEntity
  8
0
  6
Continuous
 62
     7
370
    15
100
AcDbPolyline
 90
        9
 70
   128
 43
0.0
 10
710.515651976
 20
279.7845435741
 10
710.5832332123
 20
279.8177731635
 10
710.6482179214
 20
279.8439157607
 10
710.7081071783
 20
279.8619759681
 10
710.760600989
 20
279.8712564113
 10
710.8036817361
 20
279.871393502
 10
710.8356939007
 20
279.8623932006
 10
710.8554059018
 20
279.8446012141
 10
710.8620622505
 20
279.8186910751
  0
LINE
  5
15A
330
1F
100
AcDbEntity
  8
0
  6
Continuous
 62
     7
370
    15
100
AcDbLine
 10
710.8620622505
 20
279.8186910751
 30
0.0
 11
710.8620622505
 21
278.8368714454
 31
0.0
  0
LWPOLYLINE
  5
15B
330
1F
100
AcDbEntity
  8
0
  6
Continuous
 62
     7
370
    15
100
AcDbPolyline
 90
        9
 70
   128
 43
0.0
 10
710.8620622505
 20
278.8368714454
 10
710.828781252
 20
278.671736777
 10
710.7302182663
 20
278.4773660304
 10
710.5701589335
 20
278.2612276675
 10
710.354756688
 20
278.0316246154
 10
710.0922876347
 20
277.7973843219
 10
709.7928391148
 20
277.5675070884
 10
709.4679178048
 20
277.3508263232
 10
709.130011623
 20
277.1556687953
  0
LINE
  5
15C
330
1F
100
AcDbEntity
  8
0
  6
Continuous
 62
     7
370
    15
100
AcDbLine
 10
709.130011623
 20
277.1556687953
 30
0.0
 11
708.0907807995
 21
276.6000939014
 31
0.0
  0
LWPOLYLINE
  5
15D
330
1F
100
AcDbEntity
  8
0
  6
Continuous
 62
     7
370
    15
100
AcDbPolyline
 90
        9
 70
   128
 43
0.0
 10
708.0907807995
 20
276.6000939014
 10
707.7528746177
 20
276.433957875
 10
707.4279540528
 20
276.3032329681
 10
707.1285055328
 20
276.2129378917
 10
706.8660357345
 20
276.1665475967
 10
706.650633489
 20
276.1658383014
 10
706.4905741561
 20
276.2108398082
 10
706.3920119155
 20
276.2998295428
 10
706.358730172
 20
276.4293742778
  0
LINE
  5
15E
330
1F
100
AcDbEntity
  8
0
  6
Continuous
 62
     7
370
    15
100
AcDbLine
 10
706.358730172
 20
276.4293742778
 30
0.0
 11
706.358730172
 21
283.2265687587
 31
0.0
  0
ARC
  5
15F
330
1F
100
AcDbEntity
  8
0
  6
Continuous
 62
     7
370
    15
100
AcDbCircle
 10
707.8212620527
 20
282.8606156971
 30
0.0
 40
1.507621021797765
100
AcDbArc
 50
131.0386964556
 51
165.9519549575
  0
LWPOLYLINE
  5
160
330
1F
100
AcDbEntity
  8
0
  6
Continuous
 62
     7
370
    15
100
AcDbPolyline
 90
        9
 70
   128
 43
0.0
 10
711.5320624162
 20
277.7623189094
 10
711.4987814177
 20
277.597184241
 10
711.400217687
 20
277.4028134944
 10
711.2401590992
 20
277.1866751315
 10
711.0247568537
 20
276.9570720794
 10
710.7622878004
 20
276.7228317859
 10
710.4628385354
 20
276.4929545524
 10
710.1379179705
 20
276.2762737872
 10
709.8000117887
 20
276.0811162593
  0
LINE
  5
161
330
1F
100
AcDbEntity
  8
0
  6
Continuous
 62
     7
370
    15
100
AcDbLine
 10
709.8000117887
 20
276.0811162593
 30
0.0
 11
708.7607809652
 21
275.5255413654
 31
0.0
  0
LWPOLYLINE
  5
162
330
1F
100
AcDbEntity
  8
0
  6
Continuous
 62
     7
370
    15
100
AcDbPolyline
 90
        8
 70
   128
 43
0.0
 10
708.7607809652
 20
275.5255413654
 10
708.4228747834
 20
275.359405339
 10
708.0979542185
 20
275.2286804321
 10
707.7985049535
 20
275.1383853557
 10
707.5360366453
 20
275.0919950607
 10
707.3206336547
 20
275.0912857654
 10
707.1605750669
 20
275.1362872722
 10
707.0636534442
 20
275.2226007583
  0
LINE
  5
163
330
1F
100
AcDbEntity
  8
0
  6
Continuous
 62
     7
370
    15
100
AcDbLine
 10
711.5320624162
 20
278.744138539
 30
0.0
 11
711.5320624162
 21
277.7623189094
 31
0.0
  0
LWPOLYLINE
  5
164
330
1F
100
AcDbEntity
  8
0
  6
Continuous
 62
     7
370
    15
100
AcDbPolyline
 90
        3
 70
   128
 43
0.0
 10
711.5250782419
 20
278.7705791595
 10
711.5254060675
 20
278.7700486781
 10
711.5320624162
 20
278.744138539
  0
LINE
  5
165
330
1F
100
AcDbEntity
  8
0
  6
Continuous
 62
     7
370
    15
100
AcDbLine
 10
709.7708822537
 20
295.762760699
 30
0.0
 11
709.5223480214
 21
295.8223176601
 31
0.0
  0
LWPOLYLINE
  5
166
330
1F
100
AcDbEntity
  8
0
  6
Continuous
 62
     7
370
    15
100
AcDbPolyline
 90
        9
 70
   128
 43
0.0
 10
709.5223480214
 20
295.8223176601
 10
709.3549640227
 20
295.8556545379
 10
709.2044965673
 20
295.8714736106
 10
709.0731830646
 20
295.869554341
 10
708.9629740764
 20
295.8499205711
 10
708.8755094756
 20
295.8128643634
 10
708.8120893885
 20
295.7589340808
 10
708.7736563135
 20
295.6889284255
 10
708.7607809652
 20
295.6038964393
  0
LINE
  5
167
330
1F
100
AcDbEntity
  8
0
  6
Continuous
 62
     7
370
    15
100
AcDbLine
 10
708.7607809652
 20
295.6038964393
 30
0.0
 11
708.7607809652
 21
289.3964303138
 31
0.0
  0
ARC
  5
168
330
1F
100
AcDbEntity
  8
0
  6
Continuous
 62
     7
370
    15
100
AcDbCircle
 10
709.4837566393
 20
289.708075408
 30
0.0
 40
0.7872842498486977
100
AcDbArc
 50
203.3188878787
 51
248.3887150348
  0
LINE
  5
169
330
1F
100
AcDbEntity
  8
0
  6
Continuous
 62
     7
370
    15
100
AcDbLine
 10
709.1937938083
 20
288.9761341216
 30
0.0
 11
709.3669989456
 21
288.883538306
 31
0.0
  0
LWPOLYLINE
  5
16A
330
1F
100
AcDbEntity
  8
0
  6
Continuous
 62
     7
370
    15
100
AcDbPolyline
 90
        9
 70
   128
 43
0.0
 10
709.3669989456
 20
288.883538306
 10
709.4514758636
 20
288.841999829
 10
709.5327058185
 20
288.8093186023
 10
709.6075677622
 20
288.7867463233
 10
709.6731850256
 20
288.7751472594
 10
709.7270355869
 20
288.774974406
 10
709.7670504201
 20
288.7862218024
 10
709.7916917254
 20
288.8084722163
 10
709.8000117887
 20
288.8408554198
  0
LINE
  5
16B
330
1F
100
AcDbEntity
  8
0
  6
Continuous
 62
     7
370
    15
100
AcDbLine
 10
709.8000117887
 20
288.8408554198
 30
0.0
 11
709.8000117887
 21
289.4190800788
 31
0.0
  0
ARC
  5
16C
330
1F
100
AcDbEntity
  8
0
  6
Continuous
 62
     7
370
    15
100
AcDbCircle
 10
709.7131774494
 20
288.8085305711
 30
0.0
 40
0.902041190314469
100
AcDbArc
 50
61.2954205232
 51
72.2749865041
  0
LINE
  5
16D
330
1F
100
AcDbEntity
  8
0
  6
Continuous
 62
     7
370
    15
100
AcDbLine
 10
710.1464220632
 20
289.5997179153
 30
0.0
 11
711.1856521417
 21
289.0441430213
 31
0.0
  0
ARC
  5
16E
330
1F
100
AcDbEntity
  8
0
  6
Continuous
 62
     7
370
    15
100
AcDbCircle
 10
710.9536737754
 20
288.4585851812
 30
0.0
 40
0.6298348565422763
100
AcDbArc
 50
23.318599698
 51
68.3881910372
  0
LINE
  5
16F
330
1F
100
AcDbEntity
  8
0
  6
Continuous
 62
     7
370
    15
100
AcDbLine
 10
711.5320624162
 20
288.7079012992
 30
0.0
 11
711.5320624162
 21
287.72608763
 31
0.0
  0
LWPOLYLINE
  5
170
330
1F
100
AcDbEntity
  8
0
  6
Continuous
 62
     7
370
    15
100
AcDbPolyline
 90
        9
 70
   128
 43
0.0
 10
711.5320624162
 20
287.72608763
 10
711.4987814177
 20
287.5965369346
 10
711.400217687
 20
287.5075531604
 10
711.2401590992
 20
287.4625456931
 10
711.0247568537
 20
287.4632549884
 10
710.7622878004
 20
287.5096452834
 10
710.4628385354
 20
287.5999403598
 10
710.1379179705
 20
287.7306712272
 10
709.8000117887
 20
287.8968012931
  0
LINE
  5
171
330
1F
100
AcDbEntity
  8
0
  6
Continuous
 62
     7
370
    15
100
AcDbLine
 10
709.8000117887
 20
287.8968012931
 30
0.0
 11
708.7607809652
 21
288.4523761871
 31
0.0
  0
LWPOLYLINE
  5
172
330
1F
100
AcDbEntity
  8
0
  6
Continuous
 62
     7
370
    15
100
AcDbPolyline
 90
        9
 70
   128
 43
0.0
 10
708.7607809652
 20
288.4523761871
 10
708.4228747834
 20
288.647533715
 10
708.0979542185
 20
288.8642144801
 10
707.7985049535
 20
289.0940976741
 10
707.5360366453
 20
289.3283379676
 10
707.3206336547
 20
289.5579410197
 10
707.1605750669
 20
289.7740793826
 10
707.0620113362
 20
289.9684501292
 10
707.0287303377
 20
290.1335847976
  0
LINE
  5
173
330
1F
100
AcDbEntity
  8
0
  6
Continuous
 62
     7
370
    15
100
AcDbLine
 10
707.0287303377
 20
290.1335847976
 30
0.0
 11
707.0287303377
 21
296.9307792785
 31
0.0
  0
LWPOLYLINE
  5
174
330
1F
100
AcDbEntity
  8
0
  6
Continuous
 62
     7
370
    15
100
AcDbPolyline
 90
        9
 70
   128
 43
0.0
 10
707.0287303377
 20
296.9307792785
 10
707.041604941
 20
297.0158112647
 10
707.080038761
 20
297.0858109595
 10
707.1434588481
 20
297.1397412421
 10
707.2309234489
 20
297.1767974498
 10
707.3411324371
 20
297.1964371803
 10
707.4724459399
 20
297.1983564498
 10
707.6229133953
 20
297.1825314166
 10
707.7902966488
 20
297.1491945388
  0
LINE
  5
175
330
1F
100
AcDbEntity
  8
0
  6
Continuous
 62
     7
370
    15
100
AcDbLine
 10
707.7902966488
 20
297.1491945388
 30
0.0
 11
710.4103007663
 21
296.5213549735
 31
0.0
  0
LWPOLYLINE
  5
176
330
1F
100
AcDbEntity
  8
0
  6
Continuous
 62
     7
370
    15
100
AcDbPolyline
 90
        9
 70
   128
 43
0.0
 10
708.0907807995
 20
287.377823651
 10
707.7528746177
 20
287.572981179
 10
707.4279540528
 20
287.7896619441
 10
707.1285055328
 20
288.0195451381
 10
706.8660357345
 20
288.2537854316
 10
706.650633489
 20
288.4833884837
 10
706.4905741561
 20
288.6995268466
 10
706.3920119155
 20
288.8938975932
 10
706.358730172
 20
289.0590322616
  0
LINE
  5
177
330
1F
100
AcDbEntity
  8
0
  6
Continuous
 62
     7
370
    15
100
AcDbLine
 10
709.130011623
 20
286.8222487571
 30
0.0
 11
708.0907807995
 21
287.377823651
 31
0.0
  0
LWPOLYLINE
  5
178
330
1F
100
AcDbEntity
  8
0
  6
Continuous
 62
     7
370
    15
100
AcDbPolyline
 90
        8
 70
   128
 43
0.0
 10
710.8271398891
 20
286.51930815
 10
710.7302182663
 20
286.4330006244
 10
710.5701589335
 20
286.3879931571
 10
710.354756688
 20
286.3887024524
 10
710.0922876347
 20
286.4350927474
 10
709.7928391148
 20
286.5253878238
 10
709.4679178048
 20
286.6561186912
 10
709.130011623
 20
286.8222487571
  0
LINE
  5
179
330
1F
100
AcDbEntity
  8
0
  6
Continuous
 62
     7
370
    15
100
AcDbLine
 10
706.358730172
 20
289.0590322616
 30
0.0
 11
706.358730172
 21
295.8562267425
 31
0.0
  0
LINE
  5
17A
330
1F
100
AcDbEntity
  8
0
  6
Continuous
 62
     7
370
    15
100
AcDbLine
 10
708.8523478557
 20
294.7477651241
 30
0.0
 11
708.7607809652
 21
294.7677624824
 31
0.0
  0
LWPOLYLINE
  5
17B
330
1F
100
AcDbEntity
  8
0
  6
Continuous
 62
     7
370
    15
100
AcDbPolyline
 90
        3
 70
   128
 43
0.0
 10
706.358730172
 20
295.8562267425
 10
706.3716047753
 20
295.9412587287
 10
706.3936525334
 20
295.988447726
  0
LINE
  5
17C
330
1F
100
AcDbEntity
  8
0
  6
Continuous
 62
     7
370
    15
100
AcDbLine
 10
709.0487585712
 20
294.7007012965
 30
0.0
 11
708.8523478557
 21
294.7477651241
 31
0.0
  0
LINE
  5
17D
330
1F
100
AcDbEntity
  8
0
  6
Continuous
 62
     7
370
    15
100
AcDbLine
 10
718.8409063343
 20
293.8412440421
 30
0.0
 11
718.8409063343
 21
296.4484108092
 31
0.0
  0
LINE
  5
17E
330
1F
100
AcDbEntity
  8
0
  6
Continuous
 62
     7
370
    15
100
AcDbLine
 10
720.1809062932
 20
293.8412440421
 30
0.0
 11
720.1809062932
 21
296.4484108092
 31
0.0
  0
LINE
  5
17F
330
1F
100
AcDbEntity
  8
0
  6
Continuous
 62
     7
370
    15
100
AcDbLine
 10
718.8409063343
 20
292.7300942542
 30
0.0
 11
718.8409063343
 21
293.8412440421
 31
0.0
  0
LINE
  5
180
330
1F
100
AcDbEntity
  8
0
  6
Continuous
 62
     7
370
    15
100
AcDbLine
 10
720.1809062932
 20
292.7300942542
 30
0.0
 11
720.1809062932
 21
293.8412440421
 31
0.0
  0
LINE
  5
181
330
1F
100
AcDbEntity
  8
0
  6
Continuous
 62
     7
370
    15
100
AcDbLine
 10
718.8409063343
 20
291.4853346946
 30
0.0
 11
718.8409063343
 21
292.7300942542
 31
0.0
  0
LINE
  5
182
330
1F
100
AcDbEntity
  8
0
  6
Continuous
 62
     7
370
    15
100
AcDbLine
 10
720.1809062932
 20
291.4853346946
 30
0.0
 11
720.1809062932
 21
292.7300942542
 31
0.0
  0
LINE
  5
183
330
1F
100
AcDbEntity
  8
0
  6
Continuous
 62
     7
370
    15
100
AcDbLine
 10
718.8409063343
 20
296.4484108092
 30
0.0
 11
718.8409063343
 21
303.2456052901
 31
0.0
  0
LINE
  5
184
330
1F
100
AcDbEntity
  8
0
  6
Continuous
 62
     7
370
    15
100
AcDbLine
 10
720.1809062932
 20
296.4484108092
 30
0.0
 11
720.1809062932
 21
303.2456052901
 31
0.0
  0
LINE
  5
185
330
1F
100
AcDbEntity
  8
0
  6
Continuous
 62
     7
370
    15
100
AcDbLine
 10
718.8409063343
 20
303.2456052901
 30
0.0
 11
718.8409063343
 21
303.3936811092
 31
0.0
  0
LINE
  5
186
330
1F
100
AcDbEntity
  8
0
  6
Continuous
 62
     7
370
    15
100
AcDbLine
 10
720.1809062932
 20
303.2456052901
 30
0.0
 11
720.1809062932
 21
303.3936811092
 31
0.0
  0
LINE
  5
187
330
1F
100
AcDbEntity
  8
0
  6
Continuous
 62
     7
370
    15
100
AcDbLine
 10
731.2315159787
 20
297.1491945388
 30
0.0
 11
728.6165678252
 21
296.5225649478
 31
0.0
  0
LWPOLYLINE
  5
188
330
1F
100
AcDbEntity
  8
0
  6
Continuous
 62
     7
370
    15
100
AcDbPolyline
 90
        9
 70
   128
 43
0.0
 10
731.9930822898
 20
296.9307792785
 10
731.9802076865
 20
297.0158112647
 10
731.9417738665
 20
297.0858109595
 10
731.8783537794
 20
297.1397412421
 10
731.7908891786
 20
297.1767974498
 10
731.6806801904
 20
297.1964371803
 10
731.5493666876
 20
297.1983564498
 10
731.3988992322
 20
297.1825314166
 10
731.2315159787
 20
297.1491945388
  0
LINE
  5
189
330
1F
100
AcDbEntity
  8
0
  6
Continuous
 62
     7
370
    15
100
AcDbLine
 10
731.9930822898
 20
290.1335847976
 30
0.0
 11
731.9930822898
 21
296.9307792785
 31
0.0
  0
LWPOLYLINE
  5
18A
330
1F
100
AcDbEntity
  8
0
  6
Continuous
 62
     7
370
    15
100
AcDbPolyline
 90
        9
 70
   128
 43
0.0
 10
730.2610316623
 20
288.4523761871
 10
730.5989378441
 20
288.647533715
 10
730.923858409
 20
288.8642144801
 10
731.223307674
 20
289.0940976741
 10
731.4857759822
 20
289.3283379676
 10
731.7011789728
 20
289.5579410197
 10
731.8612375606
 20
289.7740793826
 10
731.9598012913
 20
289.9684501292
 10
731.9930822898
 20
290.1335847976
  0
LINE
  5
18B
330
1F
100
AcDbEntity
  8
0
  6
Continuous
 62
     7
370
    15
100
AcDbLine
 10
729.2218008388
 20
287.8968012931
 30
0.0
 11
730.2610316623
 21
288.4523761871
 31
0.0
  0
LWPOLYLINE
  5
18C
330
1F
100
AcDbEntity
  8
0
  6
Continuous
 62
     7
370
    15
100
AcDbPolyline
 90
        9
 70
   128
 43
0.0
 10
727.4897502113
 20
287.72608763
 10
727.5230312098
 20
287.5965369346
 10
727.6215949405
 20
287.5075531604
 10
727.7816535283
 20
287.4625456931
 10
727.9970557738
 20
287.4632549884
 10
728.2595248271
 20
287.5096452834
 10
728.5589740921
 20
287.5999403598
 10
728.883894657
 20
287.7306712272
 10
729.2218008388
 20
287.8968012931
  0
LINE
  5
18D
330
1F
100
AcDbEntity
  8
0
  6
Continuous
 62
     7
370
    15
100
AcDbLine
 10
727.4897502113
 20
288.7079012992
 30
0.0
 11
727.4897502113
 21
287.72608763
 31
0.0
  0
ARC
  5
18E
330
1F
100
AcDbEntity
  8
0
  6
Continuous
 62
     7
370
    15
100
AcDbCircle
 10
728.0681388522
 20
288.4585851812
 30
0.0
 40
0.6298348565423182
100
AcDbArc
 50
111.6118089628
 51
156.681400302
  0
LINE
  5
18F
330
1F
100
AcDbEntity
  8
0
  6
Continuous
 62
     7
370
    15
100
AcDbLine
 10
728.8753905643
 20
289.5997179153
 30
0.0
 11
727.8361604858
 21
289.0441430213
 31
0.0
  0
ARC
  5
190
330
1F
100
AcDbEntity
  8
0
  6
Continuous
 62
     7
370
    15
100
AcDbCircle
 10
729.3088300435
 20
288.8081182215
 30
0.0
 40
0.9024964583290934
100
AcDbArc
 50
107.7567731092
 51
118.7028570475
  0
LINE
  5
191
330
1F
100
AcDbEntity
  8
0
  6
Continuous
 62
     7
370
    15
100
AcDbLine
 10
729.2218008388
 20
288.8408554198
 30
0.0
 11
729.2218008388
 21
289.4194973113
 31
0.0
  0
LWPOLYLINE
  5
192
330
1F
100
AcDbEntity
  8
0
  6
Continuous
 62
     7
370
    15
100
AcDbPolyline
 90
        9
 70
   128
 43
0.0
 10
729.6548136819
 20
288.883538306
 10
729.570336764
 20
288.841999829
 10
729.489106809
 20
288.8093186023
 10
729.4142448653
 20
288.7867463233
 10
729.348627602
 20
288.7751472594
 10
729.2947770406
 20
288.774974406
 10
729.2547622074
 20
288.7862218024
 10
729.2301209022
 20
288.8084722163
 10
729.2218008388
 20
288.8408554198
  0
LINE
  5
193
330
1F
100
AcDbEntity
  8
0
  6
Continuous
 62
     7
370
    15
100
AcDbLine
 10
729.8280188192
 20
288.9761341216
 30
0.0
 11
729.6548136819
 21
288.883538306
 31
0.0
  0
ARC
  5
194
330
1F
100
AcDbEntity
  8
0
  6
Continuous
 62
     7
370
    15
100
AcDbCircle
 10
729.5380559883
 20
289.708075408
 30
0.0
 40
0.7872842498486977
100
AcDbArc
 50
291.6112849652
 51
336.6811121213
  0
LINE
  5
195
330
1F
100
AcDbEntity
  8
0
  6
Continuous
 62
     7
370
    15
100
AcDbLine
 10
730.2610316623
 20
295.6038964393
 30
0.0
 11
730.2610316623
 21
289.3964303138
 31
0.0
  0
LWPOLYLINE
  5
196
330
1F
100
AcDbEntity
  8
0
  6
Continuous
 62
     7
370
    15
100
AcDbPolyline
 90
        9
 70
   128
 43
0.0
 10
729.4994646061
 20
295.8223176601
 10
729.6668486048
 20
295.8556545379
 10
729.8173160602
 20
295.8714736106
 10
729.948629563
 20
295.869554341
 10
730.0588385511
 20
295.8499205711
 10
730.1463031519
 20
295.8128643634
 10
730.209723239
 20
295.7589340808
 10
730.248156314
 20
295.6889284255
 10
730.2610316623
 20
295.6038964393
  0
LINE
  5
197
330
1F
100
AcDbEntity
  8
0
  6
Continuous
 62
     7
370
    15
100
AcDbLine
 10
729.2504006375
 20
295.7626355292
 30
0.0
 11
729.4994646061
 21
295.8223176601
 31
0.0
  0
LWPOLYLINE
  5
198
330
1F
100
AcDbEntity
  8
0
  6
Continuous
 62
     7
370
    15
100
AcDbPolyline
 90
        9
 70
   128
 43
0.0
 10
730.931031828
 20
287.377823651
 10
731.2689380098
 20
287.572981179
 10
731.5938585747
 20
287.7896619441
 10
731.8933070947
 20
288.0195451381
 10
732.155776893
 20
288.2537854316
 10
732.3711791385
 20
288.4833884837
 10
732.5312384714
 20
288.6995268466
 10
732.629800712
 20
288.8938975932
 10
732.6630824555
 20
289.0590322616
  0
LINE
  5
199
330
1F
100
AcDbEntity
  8
0
  6
Continuous
 62
     7
370
    15
100
AcDbLine
 10
729.8918010045
 20
286.8222487571
 30
0.0
 11
730.931031828
 21
287.377823651
 31
0.0
  0
LWPOLYLINE
  5
19A
330
1F
100
AcDbEntity
  8
0
  6
Continuous
 62
     7
370
    15
100
AcDbPolyline
 90
        8
 70
   128
 43
0.0
 10
728.1946727384
 20
286.51930815
 10
728.2915943612
 20
286.4330006244
 10
728.451653694
 20
286.3879931571
 10
728.6670559395
 20
286.3887024524
 10
728.9295249928
 20
286.4350927474
 10
729.2289735128
 20
286.5253878238
 10
729.5538948227
 20
286.6561186912
 10
729.8918010045
 20
286.8222487571
  0
LINE
  5
19B
330
1F
100
AcDbEntity
  8
0
  6
Continuous
 62
     7
370
    15
100
AcDbLine
 10
732.6630824555
 20
289.0590322616
 30
0.0
 11
732.6630824555
 21
295.8562267425
 31
0.0
  0
LINE
  5
19C
330
1F
100
AcDbEntity
  8
0
  6
Continuous
 62
     7
370
    15
100
AcDbLine
 10
730.1694647718
 20
294.7477651241
 30
0.0
 11
730.2610316623
 21
294.7677624824
 31
0.0
  0
LWPOLYLINE
  5
19D
330
1F
100
AcDbEntity
  8
0
  6
Continuous
 62
     7
370
    15
100
AcDbPolyline
 90
        3
 70
   128
 43
0.0
 10
732.6630824555
 20
295.8562267425
 10
732.6502078522
 20
295.9412587287
 10
732.6281600941
 20
295.988447726
  0
LINE
  5
19E
330
1F
100
AcDbEntity
  8
0
  6
Continuous
 62
     7
370
    15
100
AcDbLine
 10
729.9753577758
 20
294.7012496593
 30
0.0
 11
730.1694647718
 21
294.7477651241
 31
0.0
  0
ARC
  5
19F
330
1F
100
AcDbEntity
  8
0
  6
Continuous
 62
     7
370
    15
100
AcDbCircle
 10
731.2017037883
 20
282.861149034
 30
0.0
 40
1.50637285693944
100
AcDbArc
 50
14.0390130997
 51
48.9328144259
  0
LINE
  5
1A0
330
1F
100
AcDbEntity
  8
0
  6
Continuous
 62
     7
370
    15
100
AcDbLine
 10
732.6630824555
 20
276.4293742778
 30
0.0
 11
732.6630824555
 21
283.2265687587
 31
0.0
  0
LWPOLYLINE
  5
1A1
330
1F
100
AcDbEntity
  8
0
  6
Continuous
 62
     7
370
    15
100
AcDbPolyline
 90
        9
 70
   128
 43
0.0
 10
730.931031828
 20
276.6000939014
 10
731.2689380098
 20
276.433957875
 10
731.5938585747
 20
276.3032329681
 10
731.8933070947
 20
276.2129378917
 10
732.155776893
 20
276.1665475967
 10
732.3711791385
 20
276.1658383014
 10
732.5312384714
 20
276.2108398082
 10
732.629800712
 20
276.2998295428
 10
732.6630824555
 20
276.4293742778
  0
LINE
  5
1A2
330
1F
100
AcDbEntity
  8
0
  6
Continuous
 62
     7
370
    15
100
AcDbLine
 10
729.8918010045
 20
277.1556687953
 30
0.0
 11
730.931031828
 21
276.6000939014
 31
0.0
  0
LWPOLYLINE
  5
1A3
330
1F
100
AcDbEntity
  8
0
  6
Continuous
 62
     7
370
    15
100
AcDbPolyline
 90
        9
 70
   128
 43
0.0
 10
728.159750377
 20
278.8368714454
 10
728.1930313755
 20
278.671736777
 10
728.2915943612
 20
278.4773660304
 10
728.451653694
 20
278.2612276675
 10
728.6670559395
 20
278.0316246154
 10
728.9295249928
 20
277.7973843219
 10
729.2289735128
 20
277.5675070884
 10
729.5538948227
 20
277.3508263232
 10
729.8918010045
 20
277.1556687953
  0
LINE
  5
1A4
330
1F
100
AcDbEntity
  8
0
  6
Continuous
 62
     7
370
    15
100
AcDbLine
 10
728.159750377
 20
279.8186910751
 30
0.0
 11
728.159750377
 21
278.8368714454
 31
0.0
  0
LWPOLYLINE
  5
1A5
330
1F
100
AcDbEntity
  8
0
  6
Continuous
 62
     7
370
    15
100
AcDbPolyline
 90
        9
 70
   128
 43
0.0
 10
728.5061606515
 20
279.7845435741
 10
728.4385794152
 20
279.8177731635
 10
728.3735947062
 20
279.8439157607
 10
728.3137054492
 20
279.8619759681
 10
728.2612116386
 20
279.8712564113
 10
728.2181308914
 20
279.871393502
 10
728.1861187268
 20
279.8623932006
 10
728.1664067257
 20
279.8446012141
 10
728.159750377
 20
279.8186910751
  0
LINE
  5
1A6
330
1F
100
AcDbEntity
  8
0
  6
Continuous
 62
     7
370
    15
100
AcDbLine
 10
729.54539073
 20
279.2289686801
 30
0.0
 11
728.5061606515
 21
279.7845435741
 31
0.0
  0
ARC
  5
1A7
330
1F
100
AcDbEntity
  8
0
  6
Continuous
 62
     7
370
    15
100
AcDbCircle
 10
729.3134123637
 20
278.64341084
 30
0.0
 40
0.6298348565423555
100
AcDbArc
 50
23.318599698
 51
68.3881910372
  0
LINE
  5
1A8
330
1F
100
AcDbEntity
  8
0
  6
Continuous
 62
     7
370
    15
100
AcDbLine
 10
729.8918010045
 20
278.0997229221
 30
0.0
 11
729.8918010045
 21
278.892726958
 31
0.0
  0
ARC
  5
1A9
330
1F
100
AcDbEntity
  8
0
  6
Continuous
 62
     7
370
    15
100
AcDbCircle
 10
730.6148032341
 20
278.4113849949
 30
0.0
 40
0.7873153571806296
100
AcDbArc
 50
203.3192575531
 51
248.3875331821
  0
LINE
  5
1AA
330
1F
100
AcDbEntity
  8
0
  6
Continuous
 62
     7
370
    15
100
AcDbLine
 10
730.4980189849
 20
277.5868249538
 30
0.0
 11
730.3248138476
 21
277.6794207694
 31
0.0
  0
LWPOLYLINE
  5
1AB
330
1F
100
AcDbEntity
  8
0
  6
Continuous
 62
     7
370
    15
100
AcDbPolyline
 90
        9
 70
   128
 43
0.0
 10
730.931031828
 20
277.5441480281
 10
730.9227110196
 20
277.5117588641
 10
730.8980704595
 20
277.4895144107
 10
730.8580556263
 20
277.4782610538
 10
730.8042050649
 20
277.4784398677
 10
730.7385878016
 20
277.4900389316
 10
730.6637258578
 20
277.5126112106
 10
730.5824951578
 20
277.5452924373
 10
730.4980189849
 20
277.5868249538
  0
LINE
  5
1AC
330
1F
100
AcDbEntity
  8
0
  6
Continuous
 62
     7
370
    15
100
AcDbLine
 10
730.931031828
 20
277.9255164268
 30
0.0
 11
730.931031828
 21
277.5441480281
 31
0.0
  0
LWPOLYLINE
  5
1AD
330
1F
100
AcDbEntity
  8
0
  6
Continuous
 62
     7
370
    15
100
AcDbPolyline
 90
        9
 70
   128
 43
0.0
 10
727.4897502113
 20
277.7623189094
 10
727.5230312098
 20
277.597184241
 10
727.6215949405
 20
277.4028134944
 10
727.7816535283
 20
277.1866751315
 10
727.9970557738
 20
276.9570720794
 10
728.2595248271
 20
276.7228317859
 10
728.5589740921
 20
276.4929545524
 10
728.883894657
 20
276.2762737872
 10
729.2218008388
 20
276.0811162593
  0
LINE
  5
1AE
330
1F
100
AcDbEntity
  8
0
  6
Continuous
 62
     7
370
    15
100
AcDbLine
 10
729.2218008388
 20
276.0811162593
 30
0.0
 11
730.2610316623
 21
275.5255413654
 31
0.0
  0
LWPOLYLINE
  5
1AF
330
1F
100
AcDbEntity
  8
0
  6
Continuous
 62
     7
370
    15
100
AcDbPolyline
 90
        8
 70
   128
 43
0.0
 10
730.2610316623
 20
275.5255413654
 10
730.5989378441
 20
275.359405339
 10
730.923858409
 20
275.2286804321
 10
731.223307674
 20
275.1383853557
 10
731.4857759822
 20
275.0919950607
 10
731.7011789728
 20
275.0912857654
 10
731.8612375606
 20
275.1362872722
 10
731.9581591834
 20
275.2226007583
  0
LINE
  5
1B0
330
1F
100
AcDbEntity
  8
0
  6
Continuous
 62
     7
370
    15
100
AcDbLine
 10
727.4897502113
 20
278.744138539
 30
0.0
 11
727.4897502113
 21
277.7623189094
 31
0.0
  0
LWPOLYLINE
  5
1B1
330
1F
100
AcDbEntity
  8
0
  6
Continuous
 62
     7
370
    15
100
AcDbPolyline
 90
        3
 70
   128
 43
0.0
 10
727.4967343856
 20
278.7705791595
 10
727.49640656
 20
278.7700486781
 10
727.4897502113
 20
278.744138539
  0
ARC
  5
1B2
330
1F
100
AcDbEntity
  8
0
  6
Continuous
 62
     7
370
    15
100
AcDbCircle
 10
719.4438728079
 20
292.774640071
 30
0.0
 40
8.314825501007524
100
AcDbArc
 50
94.1585701604
 51
127.1789888959
  0
ARC
  5
1B3
330
1F
100
AcDbEntity
  8
0
  6
Continuous
 62
     7
370
    15
100
AcDbCircle
 10
719.5622970265
 20
292.7321571343
 30
0.0
 40
8.358340334727021
100
AcDbArc
 50
53.1925561912
 51
85.7556001951
  0
ARC
  5
1B4
330
1F
100
AcDbEntity
  8
0
  6
Continuous
 62
     7
370
    15
100
AcDbCircle
 10
719.609289298
 20
293.6961699144
 30
0.0
 40
0.9019180280457526
100
AcDbArc
 50
309.3295076573
 51
357.9091717432
  0
ARC
  5
1B5
330
1F
100
AcDbEntity
  8
0
  6
Continuous
 62
     7
370
    15
100
AcDbCircle
 10
719.4125233295
 20
293.6961699144
 30
0.0
 40
0.9019180280457526
100
AcDbArc
 50
182.0908282568
 51
230.6704923427
  0
ARC
  5
1B6
330
1F
100
AcDbEntity
  8
0
  6
Continuous
 62
     7
370
    15
100
AcDbCircle
 10
719.3992576213
 20
293.4199388967
 30
0.0
 40
8.17274404506245
100
AcDbArc
 50
93.9174248752
 51
138.7964819828
  0
ARC
  5
1B7
330
1F
100
AcDbEntity
  8
0
  6
Continuous
 62
     7
370
    15
100
AcDbCircle
 10
719.6142640169
 20
293.4019446322
 30
0.0
 40
8.191265723706618
100
AcDbArc
 50
41.5543412748
 51
86.0333162454
  0
ARC
  5
1B8
330
1F
100
AcDbEntity
  8
0
  6
Continuous
 62
     7
370
    15
100
AcDbCircle
 10
719.5912632157
 20
294.2164646261
 30
0.0
 40
0.9244021466036214
100
AcDbArc
 50
309.6327453731
 51
341.0497919656
  0
ARC
  5
1B9
330
1F
100
AcDbEntity
  8
0
  6
Continuous
 62
     7
370
    15
100
AcDbCircle
 10
719.4305494118
 20
294.2164646261
 30
0.0
 40
0.9244021466035645
100
AcDbArc
 50
198.9502080344
 51
230.3672546269
  0
LINE
  5
1BA
330
1F
100
AcDbEntity
  8
0
  6
Continuous
 62
     7
370
    15
100
AcDbLine
 10
720.1809062932
 20
254.6919835212
 30
0.0
 11
720.1809062932
 21
254.4294965865
 31
0.0
  0
LINE
  5
1BB
330
1F
100
AcDbEntity
  8
0
  6
Continuous
 62
     7
370
    15
100
AcDbLine
 10
718.8409063343
 20
254.6919835212
 30
0.0
 11
718.8409063343
 21
254.4294965865
 31
0.0
  0
LINE
  5
1BC
330
1F
100
AcDbEntity
  8
0
  6
Continuous
 62
     7
370
    15
100
AcDbLine
 10
717.5009063754
 20
256.7442668082
 30
0.0
 11
717.5009063754
 21
271.4580548408
 31
0.0
  0
LINE
  5
1BD
330
1F
100
AcDbEntity
  8
0
  6
Continuous
 62
     7
370
    15
100
AcDbLine
 10
718.8409063343
 20
254.6919835212
 30
0.0
 11
718.8409063343
 21
268.8919139507
 31
0.0
  0
LINE
  5
1BE
330
1F
100
AcDbEntity
  8
0
  6
Continuous
 62
     7
370
    15
100
AcDbLine
 10
721.5209062521
 20
271.453656018
 30
0.0
 11
721.5209062521
 21
256.7442668082
 31
0.0
  0
LINE
  5
1BF
330
1F
100
AcDbEntity
  8
0
  6
Continuous
 62
     7
370
    15
100
AcDbLine
 10
720.1809062932
 20
268.8919139507
 30
0.0
 11
720.1809062932
 21
254.6919835212
 31
0.0
  0
LINE
  5
1C0
330
1F
100
AcDbEntity
  8
0
  6
Continuous
 62
     7
370
    15
100
AcDbLine
 10
721.5209062521
 20
214.7095566096
 30
0.0
 11
721.5209062521
 21
217.0861025753
 31
0.0
  0
LINE
  5
1C1
330
1F
100
AcDbEntity
  8
0
  6
Continuous
 62
     7
370
    15
100
AcDbLine
 10
722.8609063972
 20
211.7095564904
 30
0.0
 11
722.8609063972
 21
217.0861025753
 31
0.0
  0
LINE
  5
1C2
330
1F
100
AcDbEntity
  8
0
  6
Continuous
 62
     7
370
    15
100
AcDbLine
 10
721.5209062521
 20
217.0861025753
 30
0.0
 11
721.5209062521
 21
256.7442668082
 31
0.0
  0
LINE
  5
1C3
330
1F
100
AcDbEntity
  8
0
  6
Continuous
 62
     7
370
    15
100
AcDbLine
 10
722.8609063972
 20
217.0861025753
 30
0.0
 11
722.8609063972
 21
259.8060441615
 31
0.0
  0
LINE
  5
1C4
330
1F
100
AcDbEntity
  8
0
  6
Continuous
 62
     7
370
    15
100
AcDbLine
 10
722.8609063972
 20
259.8060441615
 30
0.0
 11
722.8609063972
 21
260.429496825
 31
0.0
  0
LINE
  5
1C5
330
1F
100
AcDbEntity
  8
0
  6
Continuous
 62
     7
370
    15
100
AcDbLine
 10
716.1609062303
 20
217.0861025753
 30
0.0
 11
716.1609062303
 21
211.7095564904
 31
0.0
  0
LINE
  5
1C6
330
1F
100
AcDbEntity
  8
0
  6
Continuous
 62
     7
370
    15
100
AcDbLine
 10
717.5009063754
 20
217.0861025753
 30
0.0
 11
717.5009063754
 21
214.7095566096
 31
0.0
  0
LINE
  5
1C7
330
1F
100
AcDbEntity
  8
0
  6
Continuous
 62
     7
370
    15
100
AcDbLine
 10
716.1609062303
 20
259.8060441615
 30
0.0
 11
716.1609062303
 21
217.0861025753
 31
0.0
  0
LINE
  5
1C8
330
1F
100
AcDbEntity
  8
0
  6
Continuous
 62
     7
370
    15
100
AcDbLine
 10
717.5009063754
 20
256.7442668082
 30
0.0
 11
717.5009063754
 21
217.0861025753
 31
0.0
  0
LINE
  5
1C9
330
1F
100
AcDbEntity
  8
0
  6
Continuous
 62
     7
370
    15
100
AcDbLine
 10
716.1609062303
 20
260.429496825
 30
0.0
 11
716.1609062303
 21
259.8060441615
 31
0.0
  0
LINE
  5
1CA
330
1F
100
AcDbEntity
  8
0
  6
Continuous
 62
     7
370
    15
100
AcDbLine
 10
717.5009063754
 20
209.7095565351
 30
0.0
 11
717.5009063754
 21
214.7095566096
 31
0.0
  0
LINE
  5
1CB
330
1F
100
AcDbEntity
  8
0
  6
Continuous
 62
     7
370
    15
100
AcDbLine
 10
721.5209062521
 20
209.7095565351
 30
0.0
 11
721.5209062521
 21
214.7095566096
 31
0.0
  0
LINE
  5
1CC
330
1F
100
AcDbEntity
  8
0
  6
Continuous
 62
     7
370
    15
100
AcDbLine
 10
694.5109063138
 20
209.7095565351
 30
0.0
 11
744.5109063138
 21
209.7095565351
 31
0.0
  0
LINE
  5
1CD
330
1F
100
AcDbEntity
  8
0
  6
Continuous
 62
     7
370
    15
100
AcDbLine
 10
694.5109063138
 20
205.6895566585
 30
0.0
 11
744.5109063138
 21
205.6895566585
 31
0.0
  0
LINE
  5
1CE
330
1F
100
AcDbEntity
  8
0
  6
Continuous
 62
     7
370
    15
100
AcDbLine
 10
401.3155017773
 20
574.4864930416
 30
0.0
 11
401.3155017773
 21
573.1464930827
 31
0.0
  0
LINE
  5
1CF
330
1F
100
AcDbEntity
  8
0
  6
Continuous
 62
     7
370
    15
100
AcDbLine
 10
404.8176857436
 20
565.816493241
 30
0.0
 11
406.0584720018
 21
565.816493241
 31
0.0
  0
LINE
  5
1D0
330
1F
100
AcDbEntity
  8
0
  6
Continuous
 62
     7
370
    15
100
AcDbLine
 10
406.0584720018
 20
581.8164928833
 30
0.0
 11
404.8176857436
 21
581.8164928833
 31
0.0
  0
LINE
  5
1D1
330
1F
100
AcDbEntity
  8
0
  6
Continuous
 62
     7
370
    15
100
AcDbLine
 10
414.4724716226
 20
582.8293717483
 30
0.0
 11
413.7908433357
 21
581.4654587785
 31
0.0
  0
LINE
  5
1D2
330
1F
100
AcDbEntity
  8
0
  6
Continuous
 62
     7
370
    15
100
AcDbLine
 10
413.7908433357
 20
566.1675273458
 30
0.0
 11
414.4724716226
 21
564.803614376
 31
0.0
  0
LWPOLYLINE
  5
1D3
330
1F
100
AcDbEntity
  8
0
  6
Continuous
 62
     7
370
    15
100
AcDbPolyline
 90
       12
 70
   128
 43
0.0
 10
417.9518480579
 20
585.7976078073
 10
417.9170583168
 20
585.7961042801
 10
417.4864028374
 20
585.7156253437
 10
417.0706611851
 20
585.5773969571
 10
416.6696977595
 20
585.3833875636
 10
416.2821930627
 20
585.1333386282
 10
415.9063850323
 20
584.8246297816
 10
415.5412998775
 20
584.4531497935
 10
415.1881721595
 20
584.0157120506
 10
414.8509857038
 20
583.5133171657
 10
414.5349648575
 20
582.9522720555
 10
414.4733746329
 20
582.8229679743
  0
LWPOLYLINE
  5
1D4
330
1F
100
AcDbEntity
  8
0
  6
Continuous
 62
     7
370
    15
100
AcDbPolyline
 90
       11
 70
   128
 43
0.0
 10
414.5224828998
 20
564.7140479664
 10
414.7584576884
 20
564.2741232196
 10
415.1012566665
 20
563.7382595817
 10
415.4784534851
 20
563.2517083565
 10
415.8435974995
 20
562.8669305722
 10
416.2211444954
 20
562.5451347808
 10
416.6085717062
 20
562.2847794572
 10
417.0051377991
 20
562.0830765943
 10
417.410274295
 20
561.9381143729
 10
417.8631667772
 20
561.8435754458
 10
417.9489602128
 20
561.838445721
  0
LWPOLYLINE
  5
1D5
330
1F
100
AcDbEntity
  8
0
  6
Continuous
 62
     7
370
    15
100
AcDbPolyline
 90
       16
 70
   128
 43
0.0
 10
435.9781254808
 20
563.0663677136
 10
436.1379523555
 20
563.3226095716
 10
436.4246894399
 20
563.8609706441
 10
436.6936345378
 20
564.4476941804
 10
436.94402769
 20
565.0796338002
 10
437.1751596013
 20
565.7536379079
 10
437.3863358775
 20
566.4664610306
 10
437.576868085
 20
567.2147124092
 10
437.746091632
 20
567.9948392341
 10
437.8933836499
 20
568.8031251559
 10
438.0181749145
 20
569.635699598
 10
438.1199707071
 20
570.4885545204
 10
438.1983508149
 20
571.3575660268
 10
438.2529963533
 20
572.2385163436
 10
438.2836778442
 20
573.1271171028
 10
438.2838208953
 20
573.1464930827
  0
LWPOLYLINE
  5
1D6
330
1F
100
AcDbEntity
  8
0
  6
Continuous
 62
     7
370
    15
100
AcDbPolyline
 90
       16
 70
   128
 43
0.0
 10
438.2810641805
 20
574.4864930416
 10
438.2727314511
 20
574.9099158699
 10
438.2311631719
 20
575.7953825424
 10
438.165744094
 20
576.6711057181
 10
438.0767573396
 20
577.5328218023
 10
437.9645933191
 20
578.3763482253
 10
437.8297139684
 20
579.1976059804
 10
437.672676591
 20
579.9926451425
 10
437.4941010753
 20
580.7576677779
 10
437.2946549932
 20
581.4890458266
 10
437.0750446597
 20
582.1833438257
 10
436.8359704295
 20
582.8373244981
 10
436.5781088153
 20
583.4479569475
 10
436.3020648042
 20
584.012394307
 10
436.008336095
 20
584.5279297809
 10
435.982402114
 20
584.5666184107
  0
LINE
  5
1D7
330
1F
100
AcDbEntity
  8
0
  6
Continuous
 62
     7
370
    15
100
AcDbLine
 10
413.1523017565
 20
561.9716181437
 30
0.0
 11
413.5905225555
 21
561.3016187231
 31
0.0
  0
LINE
  5
1D8
330
1F
100
AcDbEntity
  8
0
  6
Continuous
 62
     7
370
    15
100
AcDbLine
 10
438.0006898919
 20
561.3016187231
 30
0.0
 11
438.4389092008
 21
561.9716181437
 31
0.0
  0
LINE
  5
1D9
330
1F
100
AcDbEntity
  8
0
  6
Continuous
 62
     7
370
    15
100
AcDbLine
 10
440.9628052989
 20
573.1464930827
 30
0.0
 11
440.9628052989
 21
574.4864930416
 31
0.0
  0
LINE
  5
1DA
330
1F
100
AcDbEntity
  8
0
  6
Continuous
 62
     7
370
    15
100
AcDbLine
 10
438.4389092008
 20
585.6613679806
 30
0.0
 11
438.0006898919
 21
586.3313674013
 31
0.0
  0
LINE
  5
1DB
330
1F
100
AcDbEntity
  8
0
  6
Continuous
 62
     7
370
    15
100
AcDbLine
 10
413.5905225555
 20
586.3313674013
 30
0.0
 11
413.1523017565
 21
585.6613679806
 31
0.0
  0
LINE
  5
1DC
330
1F
100
AcDbEntity
  8
0
  6
Continuous
 62
     7
370
    15
100
AcDbLine
 10
407.2992582599
 20
581.8164928833
 30
0.0
 11
406.0584720018
 21
581.8164928833
 31
0.0
  0
LINE
  5
1DD
330
1F
100
AcDbEntity
  8
0
  6
Continuous
 62
     7
370
    15
100
AcDbLine
 10
406.0584720018
 20
565.816493241
 30
0.0
 11
407.2992582599
 21
565.816493241
 31
0.0
  0
LINE
  5
1DE
330
1F
100
AcDbEntity
  8
0
  6
Continuous
 62
     7
370
    15
100
AcDbLine
 10
376.3403852264
 20
574.4864930416
 30
0.0
 11
376.3403852264
 21
573.1464930827
 31
0.0
  0
LINE
  5
1DF
330
1F
100
AcDbEntity
  8
0
  6
Continuous
 62
     7
370
    15
100
AcDbLine
 10
377.540384678
 20
573.1464930827
 30
0.0
 11
377.540384678
 21
574.4864930416
 31
0.0
  0
LINE
  5
1E0
330
1F
100
AcDbEntity
  8
0
  6
Continuous
 62
     7
370
    15
100
AcDbLine
 10
362.6528252641
 20
574.4864930416
 30
0.0
 11
362.6528252641
 21
573.1464930827
 31
0.0
  0
LINE
  5
1E1
330
1F
100
AcDbEntity
  8
0
  6
Continuous
 62
     7
370
    15
100
AcDbLine
 10
363.8528247157
 20
573.1464930827
 30
0.0
 11
363.8528247157
 21
574.4864930416
 31
0.0
  0
LINE
  5
1E2
330
1F
100
AcDbEntity
  8
0
  6
Continuous
 62
     7
370
    15
100
AcDbLine
 10
390.0279436985
 20
574.4864930416
 30
0.0
 11
390.0279436985
 21
573.1464930827
 31
0.0
  0
LINE
  5
1E3
330
1F
100
AcDbEntity
  8
0
  6
Continuous
 62
     7
370
    15
100
AcDbLine
 10
391.2279431502
 20
573.1464930827
 30
0.0
 11
391.2279431502
 21
574.4864930416
 31
0.0
  0
LINE
  5
1E4
330
1F
100
AcDbEntity
  8
0
  6
Continuous
 62
     7
370
    15
100
AcDbLine
 10
352.565266637
 20
573.1464930827
 30
0.0
 11
352.565266637
 21
574.4864930416
 31
0.0
  0
LINE
  5
1E5
330
1F
100
AcDbEntity
  8
0
  6
Continuous
 62
     7
370
    15
100
AcDbLine
 10
346.5652663985
 20
574.4864930416
 30
0.0
 11
346.5652663985
 21
573.1464930827
 31
0.0
  0
LINE
  5
1E6
330
1F
100
AcDbEntity
  8
0
  6
Continuous
 62
     7
370
    15
100
AcDbLine
 10
346.5652663985
 20
573.1464930827
 30
0.0
 11
346.5652663985
 21
571.8064931238
 31
0.0
  0
LINE
  5
1E7
330
1F
100
AcDbEntity
  8
0
  6
Continuous
 62
     7
370
    15
100
AcDbLine
 10
346.5652663985
 20
575.8264930005
 30
0.0
 11
346.5652663985
 21
574.4864930416
 31
0.0
  0
LINE
  5
1E8
330
1F
100
AcDbEntity
  8
0
  6
Continuous
 62
     7
370
    15
100
AcDbLine
 10
391.7548243681
 20
573.1464930827
 30
0.0
 11
391.7548243681
 21
574.4864930416
 31
0.0
  0
LINE
  5
1E9
330
1F
100
AcDbEntity
  8
0
  6
Continuous
 62
     7
370
    15
100
AcDbLine
 10
377.8916378299
 20
573.1464930827
 30
0.0
 11
377.8916378299
 21
574.4864930416
 31
0.0
  0
LINE
  5
1EA
330
1F
100
AcDbEntity
  8
0
  6
Continuous
 62
     7
370
    15
100
AcDbLine
 10
364.0284527818
 20
573.1464930827
 30
0.0
 11
364.0284527818
 21
574.4864930416
 31
0.0
  0
LINE
  5
1EB
330
1F
100
AcDbEntity
  8
0
  6
Continuous
 62
     7
370
    15
100
AcDbLine
 10
346.5652663985
 20
577.1664931456
 30
0.0
 11
346.5652663985
 21
575.8264930005
 31
0.0
  0
LINE
  5
1EC
330
1F
100
AcDbEntity
  8
0
  6
Continuous
 62
     7
370
    15
100
AcDbLine
 10
346.5652663985
 20
571.8064931238
 30
0.0
 11
346.5652663985
 21
570.4664929787
 31
0.0
  0
LWPOLYLINE
  5
1ED
330
1F
100
AcDbEntity
  8
0
  6
Continuous
 62
     7
370
    15
100
AcDbPolyline
 90
       68
 70
   128
 43
0.0
 10
407.8041274825
 20
572.6103246229
 10
407.7483535538
 20
571.8750561605
 10
407.6668248305
 20
571.1568490619
 10
407.5602578724
 20
570.4620151798
 10
407.4295888448
 20
569.7966604511
 10
407.2759666274
 20
569.1666322777
 10
407.1007407064
 20
568.5774671862
 10
406.9054513032
 20
568.034342585
 10
406.691814659
 20
567.542032061
 10
406.4617079476
 20
567.1048617939
 10
406.217153536
 20
566.726673303
 10
405.9603005441
 20
566.4107902924
 10
405.6934062185
 20
566.1599888483
 10
405.4188160485
 20
565.9764735977
 10
405.1389431374
 20
565.8618561009
 10
404.8562469802
 20
565.8171451668
 10
404.573211938
 20
565.8427319507
 10
404.2923253754
 20
565.9383921901
 10
404.0160557049
 20
566.1032862047
 10
403.7468307445
 20
566.3359641115
 10
403.4870165194
 20
566.634380726
 10
403.2388961667
 20
566.995914189
 10
403.0046504716
 20
567.4173868278
 10
402.7863376567
 20
567.895095704
 10
402.585876433
 20
568.4248416702
 10
402.4050284902
 20
569.0019696037
 10
402.2453830371
 20
569.6214078943
 10
402.108343018
 20
570.2777127752
 10
401.9951128194
 20
570.9651163796
 10
401.9066874663
 20
571.6775781492
 10
401.8438440541
 20
572.4088367092
 10
401.8071350435
 20
573.1524657941
 10
401.7968826721
 20
573.9019304182
 10
401.8131770918
 20
574.6506442333
 10
401.8558756242
 20
575.3920274804
 10
401.9246023873
 20
576.1195647547
 10
402.0187538842
 20
576.8268627132
 10
402.1375023553
 20
577.5077055226
 10
402.2798043469
 20
578.1561094353
 10
402.444409279
 20
578.7663768063
 10
402.6298708076
 20
579.3331447075
 10
402.8345589319
 20
579.8514316807
 10
403.0566747094
 20
580.3166835586
 10
403.294266274
 20
580.7248114625
 10
403.5452458801
 20
581.0722290555
 10
403.80740769
 20
581.3558830897
 10
404.0784477981
 20
581.5732806007
 10
404.3559844399
 20
581.7225105146
 10
404.6375784584
 20
581.8022630195
 10
404.9207552886
 20
581.8118355254
 10
405.2030263378
 20
581.751145331
 10
405.4819110109
 20
581.6207244078
 10
405.754958445
 20
581.4217201451
 10
406.0197690295
 20
581.1558804492
 10
406.2740158083
 20
580.8255425672
 10
406.515464166
 20
580.4336085001
 10
406.7419924567
 20
579.9835230241
 10
406.9516098851
 20
579.4792412797
 10
407.1424742023
 20
578.9251956175
 10
407.3129082823
 20
578.3262538741
 10
407.4614141861
 20
577.6876806299
 10
407.5866871307
 20
577.0150872896
 10
407.687625734
 20
576.3143843988
 10
407.7633433769
 20
575.5917298625
 10
407.81317435
 20
574.8534746485
 10
407.8366809318
 20
574.1061063268
 10
407.8336563686
 20
573.3561928867
 10
407.8041274825
 20
572.6103246229
  0
LWPOLYLINE
  5
1EE
330
1F
100
AcDbEntity
  8
0
  6
Continuous
 62
     7
370
    15
100
AcDbPolyline
 90
       24
 70
   128
 43
0.0
 10
405.1909909493
 20
573.6657220073
 10
405.1617870483
 20
573.4046003798
 10
405.1070627259
 20
573.1740268896
 10
405.0308766365
 20
572.9911022837
 10
404.9388791519
 20
572.8693930449
 10
404.8378933014
 20
572.8179259243
 10
404.7354087493
 20
572.8405179473
 10
404.6390263157
 20
572.9354935715
 10
404.5558942275
 20
573.0958088784
 10
404.4921780264
 20
573.3095740917
 10
404.4526032431
 20
573.5609351209
 10
404.4401049407
 20
573.8312497417
 10
404.4556100646
 20
574.100469916
 10
404.4979687108
 20
574.3486288486
 10
404.5640392954
 20
574.5573216601
 10
404.6489217112
 20
574.7110706771
 10
404.7463205436
 20
574.7984728793
 10
404.849012222
 20
574.8130461218
 10
404.9493805473
 20
574.7537096979
 10
405.0399816767
 20
574.6248641069
 10
405.1140961322
 20
574.4360653701
 10
405.1662271869
 20
574.2013157828
 10
405.1925085162
 20
573.9380256523
 10
405.1909909493
 20
573.6657220073
  0
LWPOLYLINE
  5
1EF
330
1F
100
AcDbEntity
  8
0
  6
Continuous
 62
     7
370
    15
100
AcDbPolyline
 90
       17
 70
   128
 43
0.0
 10
409.0449136475
 20
572.6103246229
 10
408.9891397188
 20
571.8750561605
 10
408.9076109955
 20
571.1568490619
 10
408.8010438511
 20
570.4620151798
 10
408.6703751961
 20
569.7966604511
 10
408.5167527924
 20
569.1666322777
 10
408.3415270576
 20
568.5774671862
 10
408.1462376544
 20
568.034342585
 10
407.932600824
 20
567.542032061
 10
407.7024941126
 20
567.1048617939
 10
407.4579397941
 20
566.726673303
 10
407.2010868022
 20
566.4107902924
 10
406.9341924766
 20
566.1599888483
 10
406.65960226
 20
565.9764735977
 10
406.3797293956
 20
565.8618561009
 10
406.0970332267
 20
565.8171451668
 10
406.0584720018
 20
565.816493241
  0
LWPOLYLINE
  5
1F0
330
1F
100
AcDbEntity
  8
0
  6
Continuous
 62
     7
370
    15
100
AcDbPolyline
 90
       20
 70
   128
 43
0.0
 10
406.0584720018
 20
581.8164928833
 10
406.1615414711
 20
581.8118355254
 10
406.4438125843
 20
581.751145331
 10
406.7226973156
 20
581.6207244078
 10
406.9957447032
 20
581.4217201451
 10
407.2605552877
 20
581.1558804492
 10
407.5148020664
 20
580.8255425672
 10
407.7562504241
 20
580.4336085001
 10
407.9827786217
 20
579.9835230241
 10
408.1923962364
 20
579.4792412797
 10
408.3832603673
 20
578.9251956175
 10
408.5536946336
 20
578.3262538741
 10
408.7022003511
 20
577.6876806299
 10
408.8274732957
 20
577.0150872896
 10
408.928411899
 20
576.3143843988
 10
409.0041295419
 20
575.5917298625
 10
409.053960515
 20
574.8534746485
 10
409.0774670968
 20
574.1061063268
 10
409.0744425336
 20
573.3561928867
 10
409.0449136475
 20
572.6103246229
  0
LWPOLYLINE
  5
1F1
330
1F
100
AcDbEntity
  8
0
  6
Continuous
 62
     7
370
    15
100
AcDbPolyline
 90
       15
 70
   128
 43
0.0
 10
435.0056280175
 20
584.5666184107
 10
435.3039850274
 20
584.1101883928
 10
435.5943699161
 20
583.5844471137
 10
435.8687032739
 20
583.0013840476
 10
436.1253787557
 20
582.3644205014
 10
436.3628883639
 20
581.6772944311
 10
436.5798403302
 20
580.944037346
 10
436.7749561349
 20
580.1689534465
 10
436.9470973293
 20
579.3565909395
 10
437.0952476541
 20
578.5117170791
 10
437.218542842
 20
577.6392894814
 10
437.3162557164
 20
576.7444281856
 10
437.387817053
 20
575.8323845471
 10
437.4328006784
 20
574.9085109698
 10
437.4443788806
 20
574.4864930416
  0
LWPOLYLINE
  5
1F2
330
1F
100
AcDbEntity
  8
0
  6
Continuous
 62
     7
370
    15
100
AcDbPolyline
 90
       16
 70
   128
 43
0.0
 10
437.4443788806
 20
573.1464930827
 10
437.4421526471
 20
573.0469977966
 10
437.4064613858
 20
572.1202823351
 10
437.3440881053
 20
571.2035209889
 10
437.2553963939
 20
570.3020936827
 10
437.1409107724
 20
569.4212901423
 10
437.0012958327
 20
568.5662793944
 10
436.8373770991
 20
567.7420786599
 10
436.6501142064
 20
566.9535256008
 10
436.4406068603
 20
566.2052466551
 10
436.2100829164
 20
565.5016339401
 10
435.9598954002
 20
564.8468158225
 10
435.6915165464
 20
564.2446353117
 10
435.4065139571
 20
563.6986269633
 10
435.1065684835
 20
563.2119937817
 10
435.0056280175
 20
563.0663677136
  0
LINE
  5
1F3
330
1F
100
AcDbEntity
  8
0
  6
Continuous
 62
     7
370
    15
100
AcDbLine
 10
413.2131007293
 20
566.4560011605
 30
0.0
 11
414.8795028011
 21
563.1579346041
 31
0.0
  0
ARC
  5
1F4
330
1F
100
AcDbEntity
  8
0
  6
Continuous
 62
     7
370
    15
100
AcDbCircle
 10
416.1745068271
 20
563.8747069466
 30
0.0
 40
1.480134459548205
100
AcDbArc
 50
208.964108467
 51
272.8220879088
  0
LINE
  5
1F5
330
1F
100
AcDbEntity
  8
0
  6
Continuous
 62
     7
370
    15
100
AcDbLine
 10
416.2473809699
 20
562.3963675479
 30
0.0
 11
416.4425206164
 21
562.3963675479
 31
0.0
  0
LINE
  5
1F6
330
1F
100
AcDbEntity
  8
0
  6
Continuous
 62
     7
370
    15
100
AcDbLine
 10
420.0372596065
 20
560.6643169204
 30
0.0
 11
414.886675475
 21
560.6643169204
 31
0.0
  0
ARC
  5
1F7
330
1F
100
AcDbEntity
  8
0
  6
Continuous
 62
     7
370
    15
100
AcDbCircle
 10
414.8138020413
 20
562.142657027
 30
0.0
 40
1.480135131726571
100
AcDbArc
 50
208.9641583517
 51
272.8220591436
  0
LINE
  5
1F8
330
1F
100
AcDbEntity
  8
0
  6
Continuous
 62
     7
370
    15
100
AcDbLine
 10
413.5187980512
 20
561.4258832315
 30
0.0
 11
411.300586609
 21
565.8160633425
 31
0.0
  0
ARC
  5
1F9
330
1F
100
AcDbEntity
  8
0
  6
Continuous
 62
     7
370
    15
100
AcDbCircle
 10
410.0055861561
 20
565.0992959003
 30
0.0
 40
1.480128960310553
100
AcDbArc
 50
28.9640094847
 51
92.8222080106
  0
LINE
  5
1FA
330
1F
100
AcDbEntity
  8
0
  6
Continuous
 62
     7
370
    15
100
AcDbLine
 10
413.0805772523
 20
562.0958833972
 30
0.0
 11
411.0087224076
 21
566.196402816
 31
0.0
  0
ARC
  5
1FB
330
1F
100
AcDbEntity
  8
0
  6
Continuous
 62
     7
370
    15
100
AcDbCircle
 10
415.7492157331
 20
564.6260067517
 30
0.0
 40
1.55597190725755
100
AcDbArc
 50
229.2309152725
 51
265.7122677726
  0
LINE
  5
1FC
330
1F
100
AcDbEntity
  8
0
  6
Continuous
 62
     7
370
    15
100
AcDbLine
 10
413.1523017565
 20
561.9716181437
 30
0.0
 11
413.0805772523
 21
562.0958833972
 31
0.0
  0
LINE
  5
1FD
330
1F
100
AcDbEntity
  8
0
  6
Continuous
 62
     7
370
    15
100
AcDbLine
 10
409.7055499235
 20
568.9796808193
 30
0.0
 11
413.5485325733
 21
568.9796808193
 31
0.0
  0
ARC
  5
1FE
330
1F
100
AcDbEntity
  8
0
  6
Continuous
 62
     7
370
    15
100
AcDbCircle
 10
413.499929667
 20
566.5931115073
 30
0.0
 40
2.387064164100957
100
AcDbArc
 50
42.9025635564
 51
88.8333225832
  0
LINE
  5
1FF
330
1F
100
AcDbEntity
  8
0
  6
Continuous
 62
     7
370
    15
100
AcDbLine
 10
415.2484838644
 20
568.2181141356
 30
0.0
 11
419.3809901158
 21
563.8279347698
 31
0.0
  0
ARC
  5
200
330
1F
100
AcDbEntity
  8
0
  6
Continuous
 62
     7
370
    15
100
AcDbCircle
 10
421.1295438092
 20
565.4529351057
 30
0.0
 40
2.387062234348027
100
AcDbArc
 50
222.9025314858
 51
268.8333337396
  0
LINE
  5
201
330
1F
100
AcDbEntity
  8
0
  6
Continuous
 62
     7
370
    15
100
AcDbLine
 10
421.0809414068
 20
563.0663677136
 30
0.0
 11
436.3021542112
 21
563.0663677136
 31
0.0
  0
ARC
  5
202
330
1F
100
AcDbEntity
  8
0
  6
Continuous
 62
     7
370
    15
100
AcDbCircle
 10
436.3280060938
 20
563.417734283
 30
0.0
 40
0.3523163151360733
100
AcDbArc
 50
265.7920308844
 51
13.3996165551
  0
LINE
  5
203
330
1F
100
AcDbEntity
  8
0
  6
Continuous
 62
     7
370
    15
100
AcDbLine
 10
436.6707314531
 20
563.4993805567
 30
0.0
 11
436.6329689304
 21
563.672585694
 31
0.0
  0
ARC
  5
204
330
1F
100
AcDbEntity
  8
0
  6
Continuous
 62
     7
370
    15
100
AcDbCircle
 10
436.1115547803
 20
563.546333048
 30
0.0
 40
0.5364815435207247
100
AcDbArc
 50
13.6113445377
 51
48.4114974549
  0
ARC
  5
205
330
1F
100
AcDbEntity
  8
0
  6
Continuous
 62
     7
370
    15
100
AcDbCircle
 10
436.1821281812
 20
563.5345108045
 30
0.0
 40
2.281002850111488
100
AcDbArc
 50
14.4992276085
 51
65.4969433908
  0
LINE
  5
206
330
1F
100
AcDbEntity
  8
0
  6
Continuous
 62
     7
370
    15
100
AcDbLine
 10
438.3904834071
 20
564.1055985371
 30
0.0
 11
438.6170555631
 21
563.0663677136
 31
0.0
  0
ARC
  5
207
330
1F
100
AcDbEntity
  8
0
  6
Continuous
 62
     7
370
    15
100
AcDbCircle
 10
437.2461584615
 20
562.7397802445
 30
0.0
 40
1.40926159321433
100
AcDbArc
 50
265.792329144
 51
13.3997512992
  0
LINE
  5
208
330
1F
100
AcDbEntity
  8
0
  6
Continuous
 62
     7
370
    15
100
AcDbLine
 10
437.1427585164
 20
561.3343170861
 30
0.0
 11
420.4754804054
 21
561.3343170861
 31
0.0
  0
ARC
  5
209
330
1F
100
AcDbEntity
  8
0
  6
Continuous
 62
     7
370
    15
100
AcDbCircle
 10
420.5240838158
 20
563.720888318
 30
0.0
 40
2.387066093859926
100
AcDbArc
 50
222.9025956271
 51
268.8333114268
  0
LINE
  5
20A
330
1F
100
AcDbEntity
  8
0
  6
Continuous
 62
     7
370
    15
100
AcDbLine
 10
418.7755291144
 20
562.0958833972
 30
0.0
 11
414.643022118
 21
566.4860635082
 31
0.0
  0
ARC
  5
20B
330
1F
100
AcDbEntity
  8
0
  6
Continuous
 62
     7
370
    15
100
AcDbCircle
 10
412.8944678759
 20
564.8610596603
 30
0.0
 40
2.387065027031741
100
AcDbArc
 50
42.9025842692
 51
88.8333040458
  0
LINE
  5
20C
330
1F
100
AcDbEntity
  8
0
  6
Continuous
 62
     7
370
    15
100
AcDbLine
 10
412.9430715719
 20
567.2476298193
 30
0.0
 11
407.7827633152
 21
567.2476298193
 31
0.0
  0
LINE
  5
20D
330
1F
100
AcDbEntity
  8
0
  6
Continuous
 62
     7
370
    15
100
AcDbLine
 10
418.3373083154
 20
561.4258832315
 30
0.0
 11
414.2048020641
 21
565.8160633425
 31
0.0
  0
LINE
  5
20E
330
1F
100
AcDbEntity
  8
0
  6
Continuous
 62
     7
370
    15
100
AcDbLine
 10
412.504850773
 20
566.5776296536
 30
0.0
 11
407.3445427025
 21
566.5776296536
 31
0.0
  0
ARC
  5
20F
330
1F
100
AcDbEntity
  8
0
  6
Continuous
 62
     7
370
    15
100
AcDbCircle
 10
420.08586728
 20
563.0508976686
 30
0.0
 40
2.387075694983289
100
AcDbArc
 50
222.9026932833
 51
268.8332137706
  0
LINE
  5
210
330
1F
100
AcDbEntity
  8
0
  6
Continuous
 62
     7
370
    15
100
AcDbLine
 10
436.7045362273
 20
560.6643169204
 30
0.0
 11
420.0372596065
 21
560.6643169204
 31
0.0
  0
ARC
  5
211
330
1F
100
AcDbEntity
  8
0
  6
Continuous
 62
     7
370
    15
100
AcDbCircle
 10
412.4562490187
 20
564.1910621183
 30
0.0
 40
2.387062364334467
100
AcDbArc
 50
42.9025576926
 51
88.8333493613
  0
ARC
  5
212
330
1F
100
AcDbEntity
  8
0
  6
Continuous
 62
     7
370
    15
100
AcDbCircle
 10
436.7682041603
 20
562.1715471313
 30
0.0
 40
1.508574331691449
100
AcDbArc
 50
267.5811681479
 51
324.7843159059
  0
ARC
  5
213
330
1F
100
AcDbEntity
  8
0
  6
Continuous
 62
     7
370
    15
100
AcDbCircle
 10
435.6802541652
 20
562.8766697084
 30
0.0
 40
0.5306066715603374
100
AcDbArc
 50
20.9474492451
 51
41.0367834976
  0
LINE
  5
214
330
1F
100
AcDbEntity
  8
0
  6
Continuous
 62
     7
370
    15
100
AcDbLine
 10
421.1847831289
 20
573.1464930827
 30
0.0
 11
416.0951298455
 21
573.1464930827
 31
0.0
  0
LINE
  5
215
330
1F
100
AcDbEntity
  8
0
  6
Continuous
 62
     7
370
    15
100
AcDbLine
 10
421.1847831289
 20
574.4864930416
 30
0.0
 11
416.0951298455
 21
574.4864930416
 31
0.0
  0
LINE
  5
216
330
1F
100
AcDbEntity
  8
0
  6
Continuous
 62
     7
370
    15
100
AcDbLine
 10
423.0507720987
 20
573.1464930827
 30
0.0
 11
421.1847831289
 21
573.1464930827
 31
0.0
  0
LINE
  5
217
330
1F
100
AcDbEntity
  8
0
  6
Continuous
 62
     7
370
    15
100
AcDbLine
 10
423.0507720987
 20
574.4864930416
 30
0.0
 11
421.1847831289
 21
574.4864930416
 31
0.0
  0
LINE
  5
218
330
1F
100
AcDbEntity
  8
0
  6
Continuous
 62
     7
370
    15
100
AcDbLine
 10
439.7180487195
 20
573.1464930827
 30
0.0
 11
423.0507720987
 21
573.1464930827
 31
0.0
  0
LINE
  5
219
330
1F
100
AcDbEntity
  8
0
  6
Continuous
 62
     7
370
    15
100
AcDbLine
 10
439.7180487195
 20
574.4864930416
 30
0.0
 11
423.0507720987
 21
574.4864930416
 31
0.0
  0
LINE
  5
21A
330
1F
100
AcDbEntity
  8
0
  6
Continuous
 62
     7
370
    15
100
AcDbLine
 10
414.2291423658
 20
573.1464930827
 30
0.0
 11
409.0688341091
 21
573.1464930827
 31
0.0
  0
LINE
  5
21B
330
1F
100
AcDbEntity
  8
0
  6
Continuous
 62
     7
370
    15
100
AcDbLine
 10
414.2291423658
 20
574.4864930416
 30
0.0
 11
409.0688341091
 21
574.4864930416
 31
0.0
  0
LINE
  5
21C
330
1F
100
AcDbEntity
  8
0
  6
Continuous
 62
     7
370
    15
100
AcDbLine
 10
416.0951298455
 20
573.1464930827
 30
0.0
 11
414.2291423658
 21
573.1464930827
 31
0.0
  0
LINE
  5
21D
330
1F
100
AcDbEntity
  8
0
  6
Continuous
 62
     7
370
    15
100
AcDbLine
 10
416.0951298455
 20
574.4864930416
 30
0.0
 11
414.2291423658
 21
574.4864930416
 31
0.0
  0
LINE
  5
21E
330
1F
100
AcDbEntity
  8
0
  6
Continuous
 62
     7
370
    15
100
AcDbLine
 10
440.9628052989
 20
573.1464930827
 30
0.0
 11
439.7180487195
 21
573.1464930827
 31
0.0
  0
LINE
  5
21F
330
1F
100
AcDbEntity
  8
0
  6
Continuous
 62
     7
370
    15
100
AcDbLine
 10
440.9628052989
 20
574.4864930416
 30
0.0
 11
439.7180487195
 21
574.4864930416
 31
0.0
  0
LINE
  5
220
330
1F
100
AcDbEntity
  8
0
  6
Continuous
 62
     7
370
    15
100
AcDbLine
 10
412.9430715719
 20
580.385356305
 30
0.0
 11
407.7827633152
 21
580.385356305
 31
0.0
  0
ARC
  5
221
330
1F
100
AcDbEntity
  8
0
  6
Continuous
 62
     7
370
    15
100
AcDbCircle
 10
412.8944678759
 20
582.7719264641
 30
0.0
 40
2.387065027031741
100
AcDbArc
 50
271.1666959542
 51
317.0974157308
  0
LINE
  5
222
330
1F
100
AcDbEntity
  8
0
  6
Continuous
 62
     7
370
    15
100
AcDbLine
 10
418.7755291144
 20
585.5371027271
 30
0.0
 11
414.643022118
 21
581.1469226161
 31
0.0
  0
ARC
  5
223
330
1F
100
AcDbEntity
  8
0
  6
Continuous
 62
     7
370
    15
100
AcDbCircle
 10
420.5240838158
 20
583.9120978063
 30
0.0
 40
2.387066093859835
100
AcDbArc
 50
91.1666885732
 51
137.0974043729
  0
LINE
  5
224
330
1F
100
AcDbEntity
  8
0
  6
Continuous
 62
     7
370
    15
100
AcDbLine
 10
437.1427585164
 20
586.2986690382
 30
0.0
 11
420.4754804054
 21
586.2986690382
 31
0.0
  0
ARC
  5
225
330
1F
100
AcDbEntity
  8
0
  6
Continuous
 62
     7
370
    15
100
AcDbCircle
 10
437.2461584615
 20
584.8932058798
 30
0.0
 40
1.40926159321433
100
AcDbArc
 50
346.6002487008
 51
94.207670856
  0
LINE
  5
226
330
1F
100
AcDbEntity
  8
0
  6
Continuous
 62
     7
370
    15
100
AcDbLine
 10
438.3904834071
 20
583.5273875872
 30
0.0
 11
438.6170555631
 21
584.5666184107
 31
0.0
  0
ARC
  5
227
330
1F
100
AcDbEntity
  8
0
  6
Continuous
 62
     7
370
    15
100
AcDbCircle
 10
436.1821684402
 20
584.0984555516
 30
0.0
 40
2.280958924055613
100
AcDbArc
 50
294.5148715259
 51
345.5009999465
  0
ARC
  5
228
330
1F
100
AcDbEntity
  8
0
  6
Continuous
 62
     7
370
    15
100
AcDbCircle
 10
436.111187668
 20
584.0868093801
 30
0.0
 40
0.5368751329023589
100
AcDbArc
 50
311.3438209502
 51
346.3816631491
  0
LINE
  5
229
330
1F
100
AcDbEntity
  8
0
  6
Continuous
 62
     7
370
    15
100
AcDbLine
 10
436.6707314531
 20
584.1336055676
 30
0.0
 11
436.6329689304
 21
583.9604004303
 31
0.0
  0
ARC
  5
22A
330
1F
100
AcDbEntity
  8
0
  6
Continuous
 62
     7
370
    15
100
AcDbCircle
 10
436.3280060938
 20
584.2152518413
 30
0.0
 40
0.3523163151360798
100
AcDbArc
 50
346.6003834449
 51
94.2079691156
  0
LINE
  5
22B
330
1F
100
AcDbEntity
  8
0
  6
Continuous
 62
     7
370
    15
100
AcDbLine
 10
421.0809414068
 20
584.5666184107
 30
0.0
 11
436.3021542112
 21
584.5666184107
 31
0.0
  0
ARC
  5
22C
330
1F
100
AcDbEntity
  8
0
  6
Continuous
 62
     7
370
    15
100
AcDbCircle
 10
421.1295438092
 20
582.1800510186
 30
0.0
 40
2.387062234348027
100
AcDbArc
 50
91.1666662604
 51
137.0974685142
  0
LINE
  5
22D
330
1F
100
AcDbEntity
  8
0
  6
Continuous
 62
     7
370
    15
100
AcDbLine
 10
415.2484838644
 20
579.4148719887
 30
0.0
 11
419.3809901158
 21
583.8050513545
 31
0.0
  0
ARC
  5
22E
330
1F
100
AcDbEntity
  8
0
  6
Continuous
 62
     7
370
    15
100
AcDbCircle
 10
413.499929667
 20
581.039874617
 30
0.0
 40
2.387064164100957
100
AcDbArc
 50
271.1666774168
 51
317.0974364436
  0
LINE
  5
22F
330
1F
100
AcDbEntity
  8
0
  6
Continuous
 62
     7
370
    15
100
AcDbLine
 10
409.7055499235
 20
578.653305305
 30
0.0
 11
413.5485325733
 21
578.653305305
 31
0.0
  0
LINE
  5
230
330
1F
100
AcDbEntity
  8
0
  6
Continuous
 62
     7
370
    15
100
AcDbLine
 10
418.3373083154
 20
586.2071028928
 30
0.0
 11
414.2048020641
 21
581.8169227818
 31
0.0
  0
LINE
  5
231
330
1F
100
AcDbEntity
  8
0
  6
Continuous
 62
     7
370
    15
100
AcDbLine
 10
412.504850773
 20
581.0553564707
 30
0.0
 11
407.3445427025
 21
581.0553564707
 31
0.0
  0
ARC
  5
232
330
1F
100
AcDbEntity
  8
0
  6
Continuous
 62
     7
370
    15
100
AcDbCircle
 10
420.08586728
 20
584.5820884557
 30
0.0
 40
2.387075694983289
100
AcDbArc
 50
91.1667862294
 51
137.0973067167
  0
LINE
  5
233
330
1F
100
AcDbEntity
  8
0
  6
Continuous
 62
     7
370
    15
100
AcDbLine
 10
436.7045362273
 20
586.9686692039
 30
0.0
 11
420.0372596065
 21
586.9686692039
 31
0.0
  0
ARC
  5
234
330
1F
100
AcDbEntity
  8
0
  6
Continuous
 62
     7
370
    15
100
AcDbCircle
 10
412.4562490187
 20
583.4419240061
 30
0.0
 40
2.387062364334467
100
AcDbArc
 50
271.1666506387
 51
317.0974423074
  0
ARC
  5
235
330
1F
100
AcDbEntity
  8
0
  6
Continuous
 62
     7
370
    15
100
AcDbCircle
 10
436.7682041603
 20
585.461438993
 30
0.0
 40
1.508574331691449
100
AcDbArc
 50
35.2156840941
 51
92.4188318521
  0
ARC
  5
236
330
1F
100
AcDbEntity
  8
0
  6
Continuous
 62
     7
370
    15
100
AcDbCircle
 10
435.6802537524
 20
584.7563160241
 30
0.0
 40
0.5306069169789889
100
AcDbArc
 50
318.9470813335
 51
339.0526062074
  0
ARC
  5
237
330
1F
100
AcDbEntity
  8
0
  6
Continuous
 62
     7
370
    15
100
AcDbCircle
 10
410.0055861561
 20
582.5336902241
 30
0.0
 40
1.480128960310553
100
AcDbArc
 50
267.1777919894
 51
331.0359905153
  0
LINE
  5
238
330
1F
100
AcDbEntity
  8
0
  6
Continuous
 62
     7
370
    15
100
AcDbLine
 10
413.5187980512
 20
586.2071028928
 30
0.0
 11
411.300586609
 21
581.8169227818
 31
0.0
  0
ARC
  5
239
330
1F
100
AcDbEntity
  8
0
  6
Continuous
 62
     7
370
    15
100
AcDbCircle
 10
414.8138020413
 20
585.4903290973
 30
0.0
 40
1.480135131726571
100
AcDbArc
 50
87.1779408564
 51
151.0358416483
  0
LINE
  5
23A
330
1F
100
AcDbEntity
  8
0
  6
Continuous
 62
     7
370
    15
100
AcDbLine
 10
420.0372596065
 20
586.9686692039
 30
0.0
 11
414.886675475
 21
586.9686692039
 31
0.0
  0
LINE
  5
23B
330
1F
100
AcDbEntity
  8
0
  6
Continuous
 62
     7
370
    15
100
AcDbLine
 10
416.2473809699
 20
585.2366185764
 30
0.0
 11
416.4422479252
 21
585.2366185764
 31
0.0
  0
ARC
  5
23C
330
1F
100
AcDbEntity
  8
0
  6
Continuous
 62
     7
370
    15
100
AcDbCircle
 10
416.1745068271
 20
583.7582791778
 30
0.0
 40
1.480134459548205
100
AcDbArc
 50
87.1779120912
 51
151.035891533
  0
LINE
  5
23D
330
1F
100
AcDbEntity
  8
0
  6
Continuous
 62
     7
370
    15
100
AcDbLine
 10
413.2131007293
 20
581.1769849638
 30
0.0
 11
414.8795028011
 21
584.4750515202
 31
0.0
  0
LINE
  5
23E
330
1F
100
AcDbEntity
  8
0
  6
Continuous
 62
     7
370
    15
100
AcDbLine
 10
413.0805772523
 20
585.5371027271
 30
0.0
 11
411.0087224076
 21
581.4365833084
 31
0.0
  0
ARC
  5
23F
330
1F
100
AcDbEntity
  8
0
  6
Continuous
 62
     7
370
    15
100
AcDbCircle
 10
415.748987229
 20
583.0073574024
 30
0.0
 40
1.555536393112227
100
AcDbArc
 50
94.3704348668
 51
130.7718030734
  0
LINE
  5
240
330
1F
100
AcDbEntity
  8
0
  6
Continuous
 62
     7
370
    15
100
AcDbLine
 10
413.1523017565
 20
585.6613679806
 30
0.0
 11
413.0805772523
 21
585.5371027271
 31
0.0
  0
LINE
  5
241
330
1F
100
AcDbEntity
  8
0
  6
Continuous
 62
     7
370
    15
100
AcDbLine
 10
409.0235494802
 20
580.385356305
 30
0.0
 11
407.7827633152
 21
580.385356305
 31
0.0
  0
LWPOLYLINE
  5
242
330
1F
100
AcDbEntity
  8
0
  6
Continuous
 62
     7
370
    15
100
AcDbPolyline
 90
       10
 70
   128
 43
0.0
 10
409.0235494802
 20
580.385356305
 10
409.2573419938
 20
579.9085075984
 10
409.4724503139
 20
579.3735283444
 10
409.6668221781
 20
578.7855240534
 10
409.8386023918
 20
578.1501046399
 10
409.9861521999
 20
577.4733337591
 10
410.1080630699
 20
576.7616690154
 10
410.2031727115
 20
576.0219012404
 10
410.2705725262
 20
575.2610893937
 10
410.3096202741
 20
574.4864930416
  0
LINE
  5
243
330
1F
100
AcDbEntity
  8
0
  6
Continuous
 62
     7
370
    15
100
AcDbLine
 10
410.3096202741
 20
574.4864930416
 30
0.0
 11
409.0688341091
 21
574.4864930416
 31
0.0
  0
LWPOLYLINE
  5
244
330
1F
100
AcDbEntity
  8
0
  6
Continuous
 62
     7
370
    15
100
AcDbPolyline
 90
       10
 70
   128
 43
0.0
 10
407.7827633152
 20
580.385356305
 10
408.0165558288
 20
579.9085075984
 10
408.2316641489
 20
579.3735283444
 10
408.4260360131
 20
578.7855240534
 10
408.5978162268
 20
578.1501046399
 10
408.7453656623
 20
577.4733337591
 10
408.8672769049
 20
576.7616690154
 10
408.9623865465
 20
576.0219012404
 10
409.0297863612
 20
575.2610893937
 10
409.0688341091
 20
574.4864930416
  0
LWPOLYLINE
  5
245
330
1F
100
AcDbEntity
  8
0
  6
Continuous
 62
     7
370
    15
100
AcDbPolyline
 90
       10
 70
   128
 43
0.0
 10
409.0688341091
 20
573.1464930827
 10
409.0297863612
 20
572.3718967306
 10
408.9623865465
 20
571.6110848839
 10
408.8672769049
 20
570.8713171089
 10
408.7453656623
 20
570.1596523652
 10
408.5978162268
 20
569.4828814844
 10
408.4260360131
 20
568.847462071
 10
408.2316641489
 20
568.2594577799
 10
408.0165558288
 20
567.7244785259
 10
407.7827633152
 20
567.2476298193
  0
ARC
  5
246
330
1F
100
AcDbEntity
  8
0
  6
Continuous
 62
     7
370
    15
100
AcDbCircle
 10
405.9370957045
 20
567.4886662201
 30
0.0
 40
1.67657230019843
100
AcDbArc
 50
274.1515887438
 51
327.0851290419
  0
ARC
  5
247
330
1F
100
AcDbEntity
  8
0
  6
Continuous
 62
     7
370
    15
100
AcDbCircle
 10
405.9110711035
 20
580.1003468708
 30
0.0
 40
1.722464560193398
100
AcDbArc
 50
33.6724058067
 51
85.0908764075
  0
LINE
  5
248
330
1F
100
AcDbEntity
  8
0
  6
Continuous
 62
     7
370
    15
100
AcDbLine
 10
410.3096202741
 20
573.1464930827
 30
0.0
 11
409.0688341091
 21
573.1464930827
 31
0.0
  0
LWPOLYLINE
  5
249
330
1F
100
AcDbEntity
  8
0
  6
Continuous
 62
     7
370
    15
100
AcDbPolyline
 90
       10
 70
   128
 43
0.0
 10
410.3096202741
 20
573.1464930827
 10
410.2705725262
 20
572.3718967306
 10
410.2031727115
 20
571.6110848839
 10
410.1080630699
 20
570.8713171089
 10
409.9861521999
 20
570.1596523652
 10
409.8386023918
 20
569.4828814844
 10
409.6668221781
 20
568.847462071
 10
409.4724503139
 20
568.2594577799
 10
409.2573419938
 20
567.7244785259
 10
409.0235494802
 20
567.2476298193
  0
LINE
  5
24A
330
1F
100
AcDbEntity
  8
0
  6
Continuous
 62
     7
370
    15
100
AcDbLine
 10
409.0235494802
 20
567.2476298193
 30
0.0
 11
407.7827633152
 21
567.2476298193
 31
0.0
  0
LINE
  5
24B
330
1F
100
AcDbEntity
  8
0
  6
Continuous
 62
     7
370
    15
100
AcDbLine
 10
408.5853290538
 20
581.0553564707
 30
0.0
 11
407.3445427025
 21
581.0553564707
 31
0.0
  0
ARC
  5
24C
330
1F
100
AcDbEntity
  8
0
  6
Continuous
 62
     7
370
    15
100
AcDbCircle
 10
407.1518569331
 20
580.1003459714
 30
0.0
 40
1.722465493015234
100
AcDbArc
 50
33.6724210854
 51
85.090864766
  0
LINE
  5
24D
330
1F
100
AcDbEntity
  8
0
  6
Continuous
 62
     7
370
    15
100
AcDbLine
 10
408.5853290538
 20
566.5776296536
 30
0.0
 11
407.3445427025
 21
566.5776296536
 31
0.0
  0
ARC
  5
24E
330
1F
100
AcDbEntity
  8
0
  6
Continuous
 62
     7
370
    15
100
AcDbCircle
 10
407.1778816447
 20
567.4886669296
 30
0.0
 40
1.67657303080439
100
AcDbArc
 50
274.1515978259
 51
327.0851163227
  0
LINE
  5
24F
330
1F
100
AcDbEntity
  8
0
  6
Continuous
 62
     7
370
    15
100
AcDbLine
 10
346.5652663985
 20
573.1464930827
 30
0.0
 11
348.3380635062
 21
573.1464930827
 31
0.0
  0
LINE
  5
250
330
1F
100
AcDbEntity
  8
0
  6
Continuous
 62
     7
370
    15
100
AcDbLine
 10
346.5652663985
 20
574.4864930416
 30
0.0
 11
348.3380635062
 21
574.4864930416
 31
0.0
  0
LINE
  5
251
330
1F
100
AcDbEntity
  8
0
  6
Continuous
 62
     7
370
    15
100
AcDbLine
 10
401.8936165402
 20
571.8064931238
 30
0.0
 11
348.3380635062
 21
571.8064931238
 31
0.0
  0
LINE
  5
252
330
1F
100
AcDbEntity
  8
0
  6
Continuous
 62
     7
370
    15
100
AcDbLine
 10
401.8073235432
 20
573.1464930827
 30
0.0
 11
348.3380635062
 21
573.1464930827
 31
0.0
  0
LINE
  5
253
330
1F
100
AcDbEntity
  8
0
  6
Continuous
 62
     7
370
    15
100
AcDbLine
 10
348.3380635062
 20
571.8064931238
 30
0.0
 11
346.5652663985
 21
571.8064931238
 31
0.0
  0
LINE
  5
254
330
1F
100
AcDbEntity
  8
0
  6
Continuous
 62
     7
370
    15
100
AcDbLine
 10
348.3380635062
 20
574.4864930416
 30
0.0
 11
401.8073235432
 21
574.4864930416
 31
0.0
  0
LINE
  5
255
330
1F
100
AcDbEntity
  8
0
  6
Continuous
 62
     7
370
    15
100
AcDbLine
 10
348.3380635062
 20
575.8264930005
 30
0.0
 11
401.8936165402
 21
575.8264930005
 31
0.0
  0
LINE
  5
256
330
1F
100
AcDbEntity
  8
0
  6
Continuous
 62
     7
370
    15
100
AcDbLine
 10
346.5652663985
 20
575.8264930005
 30
0.0
 11
348.3380635062
 21
575.8264930005
 31
0.0
  0
LINE
  5
257
330
1F
100
AcDbEntity
  8
0
  6
Continuous
 62
     7
370
    15
100
AcDbLine
 10
351.3961215297
 20
577.1664931456
 30
0.0
 11
346.5652663985
 21
577.1664931456
 31
0.0
  0
LINE
  5
258
330
1F
100
AcDbEntity
  8
0
  6
Continuous
 62
     7
370
    15
100
AcDbLine
 10
402.0743333528
 20
577.1664931456
 30
0.0
 11
351.3961215297
 21
577.1664931456
 31
0.0
  0
LINE
  5
259
330
1F
100
AcDbEntity
  8
0
  6
Continuous
 62
     7
370
    15
100
AcDbLine
 10
346.5652663985
 20
570.4664929787
 30
0.0
 11
351.3961215297
 21
570.4664929787
 31
0.0
  0
LINE
  5
25A
330
1F
100
AcDbEntity
  8
0
  6
Continuous
 62
     7
370
    15
100
AcDbLine
 10
351.3961215297
 20
570.4664929787
 30
0.0
 11
402.0743333528
 21
570.4664929787
 31
0.0
  0
LINE
  5
25B
330
1F
100
AcDbEntity
  8
0
  6
Continuous
 62
     7
370
    15
100
AcDbLine
 10
380.0180096904
 20
573.8164930622
 30
0.0
 11
380.0269891301
 21
573.1464930827
 31
0.0
  0
ARC
  5
25C
330
1F
100
AcDbEntity
  8
0
  6
Continuous
 62
     7
370
    15
100
AcDbCircle
 10
405.0180096904
 20
573.8164930622
 30
0.0
 40
25.0
100
AcDbArc
 50
187.7007987199
 51
328.2585489482
  0
ARC
  5
25D
330
1F
100
AcDbEntity
  8
0
  6
Continuous
 62
     7
370
    15
100
AcDbCircle
 10
405.0180096904
 20
573.8164930622
 30
0.0
 40
25.00000000000001
100
AcDbArc
 50
31.7414510518
 51
172.2992012801
  0
LINE
  5
25E
330
1F
100
AcDbEntity
  8
0
  6
Continuous
 62
     7
370
    15
100
AcDbLine
 10
380.0269891301
 20
574.4864930416
 30
0.0
 11
380.0180096904
 21
573.8164930622
 31
0.0
  0
ARC
  5
25F
330
1F
100
AcDbEntity
  8
0
  6
Continuous
 62
     7
370
    15
100
AcDbCircle
 10
396.1860016126
 20
573.8164930622
 30
0.0
 40
0.6999999999999886
100
AcDbArc
 50
180.0
 51
253.1650193268
  0
ARC
  5
260
330
1F
100
AcDbEntity
  8
0
  6
Continuous
 62
     7
370
    15
100
AcDbCircle
 10
396.1860016126
 20
573.8164930622
 30
0.0
 40
0.6999999999999833
100
AcDbArc
 50
286.8349806732
 51
73.1650193267
  0
ARC
  5
261
330
1F
100
AcDbEntity
  8
0
  6
Continuous
 62
     7
370
    15
100
AcDbCircle
 10
396.1860016126
 20
573.8164930622
 30
0.0
 40
0.6999999999999886
100
AcDbArc
 50
106.8349806733
 51
180.0
  0
LINE
  5
262
330
1F
100
AcDbEntity
  8
0
  6
Continuous
 62
     7
370
    15
100
AcDbLine
 10
736.5599770826
 20
577.5200563005
 30
0.0
 11
735.6124540249
 21
576.9730628824
 31
0.0
  0
LINE
  5
263
330
1F
100
AcDbEntity
  8
0
  6
Continuous
 62
     7
370
    15
100
AcDbLine
 10
737.7670609801
 20
571.4246789782
 30
0.0
 11
738.7145840378
 21
571.9716723963
 31
0.0
  0
LINE
  5
264
330
1F
100
AcDbEntity
  8
0
  6
Continuous
 62
     7
370
    15
100
AcDbLine
 10
714.14391966
 20
597.3387367363
 30
0.0
 11
715.0212879713
 21
596.4190620095
 31
0.0
  0
LINE
  5
265
330
1F
100
AcDbEntity
  8
0
  6
Continuous
 62
     7
370
    15
100
AcDbLine
 10
726.5981370368
 20
607.463362831
 30
0.0
 11
725.7207685938
 21
608.3830376339
 31
0.0
  0
ARC
  5
266
330
1F
100
AcDbEntity
  8
0
  6
Continuous
 62
     7
370
    15
100
AcDbCircle
 10
717.3525497369
 20
605.581049138
 30
0.0
 40
37.16791229703247
100
AcDbArc
 50
305.3343680795
 51
318.391777128
  0
ARC
  5
267
330
1F
100
AcDbEntity
  8
0
  6
Continuous
 62
     7
370
    15
100
AcDbCircle
 10
731.009750729
 20
595.130528278
 30
0.0
 40
19.97499880192615
100
AcDbArc
 50
320.5467519102
 51
334.863276712
  0
LWPOLYLINE
  5
268
330
1F
100
AcDbEntity
  8
0
  6
Continuous
 62
     7
370
    15
100
AcDbPolyline
 90
       15
 70
   128
 43
0.0
 10
749.7218848269
 20
589.4033498723
 10
749.6614662659
 20
589.7684220489
 10
749.5403546625
 20
590.1148709073
 10
749.3676616386
 20
590.4117075002
 10
749.1499831759
 20
590.6573042079
 10
748.8919180225
 20
590.8534826298
 10
748.5967183345
 20
591.0017222936
 10
748.262973773
 20
591.1039085863
 10
747.8874490407
 20
591.1597314687
 10
747.4688850002
 20
591.1671447354
 10
747.0098776343
 20
591.1244462316
 10
746.5154595398
 20
591.0317467951
 10
745.9909030243
 20
590.8907121283
 10
745.4398493119
 20
590.7034317535
 10
744.9169130792
 20
590.4927892805
  0
ARC
  5
269
330
1F
100
AcDbEntity
  8
0
  6
Continuous
 62
     7
370
    15
100
AcDbCircle
 10
761.6016036424
 20
559.1309888099
 30
0.0
 40
35.62932438389498
100
AcDbArc
 50
121.8362747993
 51
140.4937468354
  0
LWPOLYLINE
  5
26A
330
1F
100
AcDbEntity
  8
0
  6
Continuous
 62
     7
370
    15
100
AcDbPolyline
 90
       15
 70
   128
 43
0.0
 10
732.8695001136
 20
580.1965855218
 10
732.5881767487
 20
579.8044714948
 10
732.1670886389
 20
579.1774585451
 10
731.7840117181
 20
578.5632114808
 10
731.4408784193
 20
577.9643670219
 10
731.1394768225
 20
577.383356891
 10
730.8814791041
 20
576.8223609703
 10
730.6685052834
 20
576.2832711052
 10
730.5022354391
 20
575.7676609979
 10
730.3845904141
 20
575.2768126862
 10
730.3179667833
 20
574.8119763501
 10
730.3053906905
 20
574.3755275427
 10
730.3496785989
 20
573.9724319736
 10
730.4513504953
 20
573.6099189945
 10
730.4858424224
 20
573.5400802946
  0
ARC
  5
26B
330
1F
100
AcDbEntity
  8
0
  6
Continuous
 62
     7
370
    15
100
AcDbCircle
 10
729.9945506222
 20
585.4729249522
 30
0.0
 40
13.38010243516236
100
AcDbArc
 50
287.0568499393
 51
301.0668472337
  0
LWPOLYLINE
  5
26C
330
1F
100
AcDbEntity
  8
0
  6
Continuous
 62
     7
370
    15
100
AcDbPolyline
 90
       16
 70
   128
 43
0.0
 10
731.4280863239
 20
573.6080610458
 10
731.3263754418
 20
573.7289009438
 10
731.2331271199
 20
573.9174257313
 10
731.1730678608
 20
574.1390700791
 10
731.1442104405
 20
574.4251938924
 10
731.1558282193
 20
574.7503582339
 10
731.2089527413
 20
575.1154713392
 10
731.3050417607
 20
575.5195112436
 10
731.4451189191
 20
575.9602900189
 10
731.6297063105
 20
576.4353081367
 10
731.8587096314
 20
576.9415665304
 10
732.131490357
 20
577.4757835345
 10
732.4469505619
 20
578.0345509543
 10
732.8036187942
 20
578.6143836581
 10
733.1997053935
 20
579.2117661208
 10
733.4759042285
 20
579.6013557094
  0
ARC
  5
26D
330
1F
100
AcDbEntity
  8
0
  6
Continuous
 62
     7
370
    15
100
AcDbCircle
 10
761.3499723299
 20
559.4137234421
 30
0.0
 40
34.41519833791226
100
AcDbArc
 50
121.4727789372
 51
140.7393547841
  0
LWPOLYLINE
  5
26E
330
1F
100
AcDbEntity
  8
0
  6
Continuous
 62
     7
370
    15
100
AcDbPolyline
 90
       12
 70
   128
 43
0.0
 10
745.4590705139
 20
589.8069841192
 10
745.5931049995
 20
589.8630015367
 10
746.0922311604
 20
590.0418437465
 10
746.5557927568
 20
590.1771966698
 10
746.9802963418
 20
590.2693164305
 10
747.3624136315
 20
590.319243127
 10
747.6992765329
 20
590.3290295163
 10
747.988883861
 20
590.3018321942
 10
748.2307698929
 20
590.2417573233
 10
748.4285524089
 20
590.152077876
 10
748.5906091488
 20
590.0302777498
 10
748.6163671953
 20
589.9979839616
  0
LINE
  5
26F
330
1F
100
AcDbEntity
  8
0
  6
Continuous
 62
     7
370
    15
100
AcDbLine
 10
747.6764893125
 20
591.1634666621
 30
0.0
 11
738.1281112993
 21
601.1722632863
 31
0.0
  0
LINE
  5
270
330
1F
100
AcDbEntity
  8
0
  6
Continuous
 62
     7
370
    15
100
AcDbLine
 10
720.7628373718
 20
584.6058116357
 30
0.0
 11
730.311756972
 21
574.596449278
 31
0.0
  0
LWPOLYLINE
  5
271
330
1F
100
AcDbEntity
  8
0
  6
Continuous
 62
     7
370
    15
100
AcDbPolyline
 90
       10
 70
   128
 43
0.0
 10
720.260394254
 20
588.3157814478
 10
720.1201132102
 20
587.8132583184
 10
720.0170889269
 20
587.2312133217
 10
719.9848713491
 20
586.7427078156
 10
720.0070068739
 20
586.2932987273
 10
720.0795684688
 20
585.878388582
 10
720.2004377278
 20
585.493896231
 10
720.3685815263
 20
585.1389038057
 10
720.6066311413
 20
584.7850314305
 10
720.7661991098
 20
584.6138569197
  0
LWPOLYLINE
  5
272
330
1F
100
AcDbEntity
  8
0
  6
Continuous
 62
     7
370
    15
100
AcDbPolyline
 90
       11
 70
   128
 43
0.0
 10
738.1262563111
 20
601.1677489151
 10
738.0824551988
 20
601.2189551387
 10
737.7727295995
 20
601.4837461117
 10
737.4321314336
 20
601.6959013177
 10
737.065580819
 20
601.857088121
 10
736.6740228986
 20
601.9696707633
 10
736.2546148675
 20
602.0350078613
 10
735.8010505036
 20
602.0523439441
 10
735.3056880563
 20
602.0182078459
 10
734.7647748757
 20
601.9277325849
 10
734.3339010579
 20
601.8170554506
  0
LINE
  5
273
330
1F
100
AcDbEntity
  8
0
  6
Continuous
 62
     7
370
    15
100
AcDbLine
 10
734.4685586584
 20
601.8578195358
 30
0.0
 11
734.1525703008
 21
601.7761825455
 31
0.0
  0
LINE
  5
274
330
1F
100
AcDbEntity
  8
0
  6
Continuous
 62
     7
370
    15
100
AcDbLine
 10
721.448429093
 20
592.1683780256
 30
0.0
 11
720.2502547759
 21
588.2935752642
 31
0.0
  0
LINE
  5
275
330
1F
100
AcDbEntity
  8
0
  6
Continuous
 62
     7
370
    15
100
AcDbLine
 10
718.0555553018
 20
597.2948732
 30
0.0
 11
720.8008372338
 21
594.4172152228
 31
0.0
  0
LWPOLYLINE
  5
276
330
1F
100
AcDbEntity
  8
0
  6
Continuous
 62
     7
370
    15
100
AcDbPolyline
 90
        9
 70
   128
 43
0.0
 10
718.2762070271
 20
599.2797423222
 10
718.2367332108
 20
599.2092152869
 10
718.0662918822
 20
598.8471962754
 10
717.9410091897
 20
598.5065331785
 10
717.8637982705
 20
598.1890323738
 10
717.8389063418
 20
597.8958645676
 10
717.8660122313
 20
597.6579431026
 10
717.9389077083
 20
597.4582224289
 10
718.0302210946
 20
597.3343313786
  0
LWPOLYLINE
  5
277
330
1F
100
AcDbEntity
  8
0
  6
Continuous
 62
     7
370
    15
100
AcDbPolyline
 90
        3
 70
   128
 43
0.0
 10
723.0659994288
 20
604.0722333677
 10
722.9857822849
 20
604.0278925542
 10
722.8170319793
 20
603.9226649756
  0
LINE
  5
278
330
1F
100
AcDbEntity
  8
0
  6
Continuous
 62
     7
370
    15
100
AcDbLine
 10
733.9545385916
 20
574.0500971046
 30
0.0
 11
733.7906453028
 21
574.4751337245
 31
0.0
  0
LINE
  5
279
330
1F
100
AcDbEntity
  8
0
  6
Continuous
 62
     7
370
    15
100
AcDbLine
 10
717.377889098
 20
584.6044793602
 30
0.0
 11
717.5417829136
 21
584.1794436527
 31
0.0
  0
LINE
  5
27A
330
1F
100
AcDbEntity
  8
0
  6
Continuous
 62
     7
370
    15
100
AcDbLine
 10
736.2691555302
 20
578.7842664481
 30
0.0
 11
737.0527845089
 21
579.75629603
 31
0.0
  0
LINE
  5
27B
330
1F
100
AcDbEntity
  8
0
  6
Continuous
 62
     7
370
    15
100
AcDbLine
 10
744.2823252351
 20
586.1119471003
 30
0.0
 11
745.2298482928
 21
586.6589405184
 31
0.0
  0
LINE
  5
27C
330
1F
100
AcDbEntity
  8
0
  6
Continuous
 62
     7
370
    15
100
AcDbLine
 10
752.1540577554
 20
590.0194977301
 30
0.0
 11
751.9901655203
 21
590.4445325253
 31
0.0
  0
LINE
  5
27D
330
1F
100
AcDbEntity
  8
0
  6
Continuous
 62
     7
370
    15
100
AcDbLine
 10
745.9600473165
 20
589.5329584296
 30
0.0
 11
746.1239411321
 21
589.1079221138
 31
0.0
  0
LINE
  5
27E
330
1F
100
AcDbEntity
  8
0
  6
Continuous
 62
     7
370
    15
100
AcDbLine
 10
743.8254279774
 20
584.1820436812
 30
0.0
 11
743.0417974182
 21
583.2100144034
 31
0.0
  0
LINE
  5
27F
330
1F
100
AcDbEntity
  8
0
  6
Continuous
 62
     7
370
    15
100
AcDbLine
 10
747.9534093854
 20
580.0664032103
 30
0.0
 11
748.7370388909
 21
581.0384330963
 31
0.0
  0
LINE
  5
280
330
1F
100
AcDbEntity
  8
0
  6
Continuous
 62
     7
370
    15
100
AcDbLine
 10
727.475505348
 20
606.5436881042
 30
0.0
 11
726.5981370368
 21
607.463362831
 31
0.0
  0
LINE
  5
281
330
1F
100
AcDbEntity
  8
0
  6
Continuous
 62
     7
370
    15
100
AcDbLine
 10
715.0212879713
 20
596.4190620095
 30
0.0
 11
715.8986563484
 21
595.4993872446
 31
0.0
  0
LINE
  5
282
330
1F
100
AcDbEntity
  8
0
  6
Continuous
 62
     7
370
    15
100
AcDbLine
 10
679.8368675536
 20
597.8555812159
 30
0.0
 11
678.8893444958
 21
597.3085877978
 31
0.0
  0
LINE
  5
283
330
1F
100
AcDbEntity
  8
0
  6
Continuous
 62
     7
370
    15
100
AcDbLine
 10
678.8893444958
 20
597.3085877978
 30
0.0
 11
677.9418214381
 21
596.7615943796
 31
0.0
  0
LINE
  5
284
330
1F
100
AcDbEntity
  8
0
  6
Continuous
 62
     7
370
    15
100
AcDbLine
 10
680.7843906113
 20
598.402574634
 30
0.0
 11
679.8368675536
 21
597.8555812159
 31
0.0
  0
LINE
  5
285
330
1F
100
AcDbEntity
  8
0
  6
Continuous
 62
     7
370
    15
100
AcDbLine
 10
711.3925509987
 20
553.1851000361
 30
0.0
 11
710.0237468488
 21
552.3949062202
 31
0.0
  0
LINE
  5
286
330
1F
100
AcDbEntity
  8
0
  6
Continuous
 62
     7
370
    15
100
AcDbLine
 10
710.7015724822
 20
551.4006037394
 30
0.0
 11
711.9925019042
 21
552.1458414319
 31
0.0
  0
LINE
  5
287
330
1F
100
AcDbEntity
  8
0
  6
Continuous
 62
     7
370
    15
100
AcDbLine
 10
701.5897988423
 20
567.5647512826
 30
0.0
 11
700.2209946925
 21
566.7745574667
 31
0.0
  0
LINE
  5
288
330
1F
100
AcDbEntity
  8
0
  6
Continuous
 62
     7
370
    15
100
AcDbLine
 10
700.8988192722
 20
565.7802555942
 30
0.0
 11
702.1897486942
 21
566.5254932867
 31
0.0
  0
LINE
  5
289
330
1F
100
AcDbEntity
  8
0
  6
Continuous
 62
     7
370
    15
100
AcDbLine
 10
691.7870445786
 20
581.9444061791
 30
0.0
 11
690.4182404288
 21
581.1542123632
 31
0.0
  0
LINE
  5
28A
330
1F
100
AcDbEntity
  8
0
  6
Continuous
 62
     7
370
    15
100
AcDbLine
 10
691.0960671158
 20
580.1599092741
 30
0.0
 11
692.3869965378
 21
580.9051469666
 31
0.0
  0
LINE
  5
28B
330
1F
100
AcDbEntity
  8
0
  6
Continuous
 62
     7
370
    15
100
AcDbLine
 10
723.6165994308
 20
536.0464231868
 30
0.0
 11
723.9426803781
 21
536.2346657108
 31
0.0
  0
LINE
  5
28C
330
1F
100
AcDbEntity
  8
0
  6
Continuous
 62
     7
370
    15
100
AcDbLine
 10
681.7319138007
 20
598.9495681282
 30
0.0
 11
680.7843906113
 21
598.402574634
 31
0.0
  0
LINE
  5
28D
330
1F
100
AcDbEntity
  8
0
  6
Continuous
 62
     7
370
    15
100
AcDbLine
 10
719.2050648261
 20
533.4996984681
 30
0.0
 11
720.1525880156
 21
534.0466919623
 31
0.0
  0
LINE
  5
28E
330
1F
100
AcDbEntity
  8
0
  6
Continuous
 62
     7
370
    15
100
AcDbLine
 10
677.9418214381
 20
596.7615943796
 30
0.0
 11
676.9942982487
 21
596.2146008855
 31
0.0
  0
LINE
  5
28F
330
1F
100
AcDbEntity
  8
0
  6
Continuous
 62
     7
370
    15
100
AcDbLine
 10
719.9954010806
 20
540.8839649334
 30
0.0
 11
718.4708474873
 21
540.0038588776
 31
0.0
  0
LINE
  5
290
330
1F
100
AcDbEntity
  8
0
  6
Continuous
 62
     7
370
    15
100
AcDbLine
 10
745.0739941202
 20
530.1001303646
 30
0.0
 11
745.0739941202
 21
533.3826243276
 31
0.0
  0
LINE
  5
291
330
1F
100
AcDbEntity
  8
0
  6
Continuous
 62
     7
370
    15
100
AcDbLine
 10
695.0739949759
 20
533.3826243276
 30
0.0
 11
695.0739949759
 21
530.1001303646
 31
0.0
  0
LWPOLYLINE
  5
292
330
1F
100
AcDbEntity
  8
0
  6
Continuous
 62
     7
370
    15
100
AcDbPolyline
 90
       13
 70
   128
 43
0.0
 10
714.5261097189
 20
536.8239469641
 10
714.5177723314
 20
536.7765690374
 10
714.4698509201
 20
536.7092844599
 10
714.3619523702
 20
536.6285270549
 10
714.2070628501
 20
536.5615685847
 10
714.0173051929
 20
536.5183037339
 10
713.8082916942
 20
536.5051738603
 10
713.5999858345
 20
536.5247587695
 10
713.4136338072
 20
536.5743344711
 10
713.268126653
 20
536.6451714307
 10
713.175744877
 20
536.7223244782
 10
713.1353255554
 20
536.788021629
 10
713.1316352037
 20
536.823903768
  0
LINE
  5
293
330
1F
100
AcDbEntity
  8
0
  6
Continuous
 62
     7
370
    15
100
AcDbLine
 10
736.2777420287
 20
573.6697718483
 30
0.0
 11
736.4397650511
 21
573.4999385772
 31
0.0
  0
LWPOLYLINE
  5
294
330
1F
100
AcDbEntity
  8
0
  6
Continuous
 62
     7
370
    15
100
AcDbPolyline
 90
        9
 70
   128
 43
0.0
 10
736.4397650511
 20
573.4999385772
 10
736.5061979673
 20
573.4387762177
 10
736.5752092171
 20
573.3915244874
 10
736.6441456562
 20
573.3600118983
 10
736.7103594089
 20
573.3454360833
 10
736.7713037518
 20
573.3483668464
 10
736.8246395349
 20
573.3686895944
 10
736.8683142067
 20
573.4056229873
 10
736.9006513762
 20
573.4577451063
  0
LINE
  5
295
330
1F
100
AcDbEntity
  8
0
  6
Continuous
 62
     7
370
    15
100
AcDbLine
 10
736.9006513762
 20
573.4577451063
 30
0.0
 11
736.9540545943
 21
573.5781326097
 31
0.0
  0
ARC
  5
296
330
1F
100
AcDbEntity
  8
0
  6
Continuous
 62
     7
370
    15
100
AcDbCircle
 10
736.3068093788
 20
573.7345668785
 30
0.0
 40
0.6658814079133453
100
AcDbArc
 50
346.4126141372
 51
47.0883971854
  0
LINE
  5
297
330
1F
100
AcDbEntity
  8
0
  6
Continuous
 62
     7
370
    15
100
AcDbLine
 10
736.7601875205
 20
574.2222617729
 30
0.0
 11
735.3852077008
 21
575.6635457535
 31
0.0
  0
ARC
  5
298
330
1F
100
AcDbEntity
  8
0
  6
Continuous
 62
     7
370
    15
100
AcDbCircle
 10
735.7479132958
 20
576.0537023454
 30
0.0
 40
0.5327077199529426
100
AcDbArc
 50
166.412581373
 51
227.0882039629
  0
LINE
  5
299
330
1F
100
AcDbEntity
  8
0
  6
Continuous
 62
     7
370
    15
100
AcDbLine
 10
735.230114674
 20
576.1788506658
 30
0.0
 11
735.5505371434
 21
576.9011738615
 31
0.0
  0
LWPOLYLINE
  5
29A
330
1F
100
AcDbEntity
  8
0
  6
Continuous
 62
     7
370
    15
100
AcDbPolyline
 90
        9
 70
   128
 43
0.0
 10
735.5505371434
 20
576.9011738615
 10
735.5764068791
 20
576.9428715567
 10
735.6113466165
 20
576.9724172976
 10
735.6540150322
 20
576.9886726975
 10
735.7027705066
 20
576.9910182813
 10
735.7557406658
 20
576.9793620095
 10
735.8108908708
 20
576.9541484098
 10
735.8660990276
 20
576.9163494589
 10
735.9192462036
 20
576.8674171379
  0
LINE
  5
29B
330
1F
100
AcDbEntity
  8
0
  6
Continuous
 62
     7
370
    15
100
AcDbLine
 10
735.9192462036
 20
576.8674171379
 30
0.0
 11
737.6216016691
 21
575.0829773155
 31
0.0
  0
LWPOLYLINE
  5
29C
330
1F
100
AcDbEntity
  8
0
  6
Continuous
 62
     7
370
    15
100
AcDbPolyline
 90
        9
 70
   128
 43
0.0
 10
737.6216016691
 20
575.0829773155
 10
737.8668120338
 20
574.7920533059
 10
738.0820770625
 20
574.4660478541
 10
738.2591233291
 20
574.117480445
 10
738.3911462247
 20
573.7597601385
 10
738.4730733762
 20
573.4066198099
 10
738.5017564139
 20
573.0716404229
 10
738.4760931979
 20
572.767693773
 10
738.3970699643
 20
572.5064509289
  0
LINE
  5
29D
330
1F
100
AcDbEntity
  8
0
  6
Continuous
 62
     7
370
    15
100
AcDbLine
 10
738.3970699643
 20
572.5064509289
 30
0.0
 11
738.0766464411
 21
571.7841283415
 31
0.0
  0
LWPOLYLINE
  5
29E
330
1F
100
AcDbEntity
  8
0
  6
Continuous
 62
     7
370
    15
100
AcDbPolyline
 90
        9
 70
   128
 43
0.0
 10
738.0766464411
 20
571.7841283415
 10
737.9472998704
 20
571.5756386489
 10
737.772599076
 20
571.427911161
 10
737.5592601582
 20
571.3466226028
 10
737.3154785717
 20
571.3349019836
 10
737.050626722
 20
571.3931888179
 10
736.7748809656
 20
571.5192489079
 10
736.4988370203
 20
571.7082406202
 10
736.2331032477
 20
571.9529010087
  0
LINE
  5
29F
330
1F
100
AcDbEntity
  8
0
  6
Continuous
 62
     7
370
    15
100
AcDbLine
 10
736.2331032477
 20
571.9529010087
 30
0.0
 11
735.1221808096
 21
573.1173921487
 31
0.0
  0
LWPOLYLINE
  5
2A0
330
1F
100
AcDbEntity
  8
0
  6
Continuous
 62
     7
370
    15
100
AcDbPolyline
 90
        9
 70
   128
 43
0.0
 10
738.5691247268
 20
575.6299707336
 10
738.8143350915
 20
575.339046724
 10
739.0296001202
 20
575.0130412723
 10
739.2066463868
 20
574.6644738632
 10
739.3386692824
 20
574.3067535566
 10
739.4205964339
 20
573.9536132281
 10
739.4492794716
 20
573.618633841
 10
739.4236162556
 20
573.3146871911
 10
739.344593022
 20
573.053444347
  0
LINE
  5
2A1
330
1F
100
AcDbEntity
  8
0
  6
Continuous
 62
     7
370
    15
100
AcDbLine
 10
736.8667692613
 20
577.4144105561
 30
0.0
 11
738.5691247268
 21
575.6299707336
 31
0.0
  0
ARC
  5
2A2
330
1F
100
AcDbEntity
  8
0
  6
Continuous
 62
     7
370
    15
100
AcDbCircle
 10
736.6419633982
 20
577.259861516
 30
0.0
 40
0.2728059417311387
100
AcDbArc
 50
34.5076592399
 51
107.4894270225
  0
LINE
  5
2A3
330
1F
100
AcDbEntity
  8
0
  6
Continuous
 62
     7
370
    15
100
AcDbLine
 10
739.344593022
 20
573.053444347
 30
0.0
 11
739.0241694988
 21
572.3311217596
 31
0.0
  0
ARC
  5
2A4
330
1F
100
AcDbEntity
  8
0
  6
Continuous
 62
     7
370
    15
100
AcDbCircle
 10
738.339302959
 20
572.6079374461
 30
0.0
 40
0.7386941868601581
100
AcDbArc
 50
300.5329024086
 51
337.9919710996
  0
LWPOLYLINE
  5
2A5
330
1F
100
AcDbEntity
  8
0
  6
Continuous
 62
     7
370
    15
100
AcDbPolyline
 90
       24
 70
   128
 43
0.0
 10
722.0685557607
 20
606.2092977759
 10
721.5092043217
 20
605.8202528967
 10
720.9437056989
 20
605.3971202792
 10
720.3770295986
 20
604.9436197747
 10
719.814156066
 20
604.4637303145
 10
719.2600314289
 20
603.9616723838
 10
718.7195254922
 20
603.4418559334
 10
718.1973879423
 20
602.9088564272
 10
717.6982077808
 20
602.3673530947
 10
717.2263717044
 20
601.822102773
 10
716.786026041
 20
601.2778973983
 10
716.3810405298
 20
600.7395237783
 10
716.0149743405
 20
600.2117150758
 10
715.6910448581
 20
599.699100694
 10
715.4120980485
 20
599.2061862766
 10
715.1805862658
 20
598.7373148094
 10
714.9985428318
 20
598.2965961249
 10
714.8675680427
 20
597.8879022046
 10
714.7888135611
 20
597.5148323868
 10
714.7629708978
 20
597.1806658702
 10
714.790266903
 20
596.8883278125
 10
714.8704621482
 20
596.6404006041
 10
715.0028515239
 20
596.43905295
 10
715.0212879713
 20
596.4190620095
  0
LWPOLYLINE
  5
2A6
330
1F
100
AcDbEntity
  8
0
  6
Continuous
 62
     7
370
    15
100
AcDbPolyline
 90
       13
 70
   128
 43
0.0
 10
726.5981370368
 20
607.463362831
 10
726.5311514699
 20
607.5260060939
 10
726.3227924657
 20
607.6542871245
 10
726.065984342
 20
607.7323658215
 10
725.7629837992
 20
607.7595504898
 10
725.4164537278
 20
607.7356038725
 10
725.0294397645
 20
607.6607353985
 10
724.6053423698
 20
607.5356075742
 10
724.1478889054
 20
607.3613098275
 10
723.6610994564
 20
607.1393825808
 10
723.1492519114
 20
606.871776713
 10
722.6168443435
 20
606.5608342758
 10
722.0685557607
 20
606.2092977759
  0
LWPOLYLINE
  5
2A7
330
1F
100
AcDbEntity
  8
0
  6
Continuous
 62
     7
370
    15
100
AcDbPolyline
 90
       24
 70
   128
 43
0.0
 10
721.1911874494
 20
607.1289725028
 10
720.6318360104
 20
606.7399276235
 10
720.0663373877
 20
606.316795006
 10
719.4996614191
 20
605.8632944255
 10
718.936787623
 20
605.3834051173
 10
718.3826631176
 20
604.8813471106
 10
717.8421570492
 20
604.3615307363
 10
717.3200194993
 20
603.8285312301
 10
716.8208394696
 20
603.2870278216
 10
716.3490033931
 20
602.7417774998
 10
715.9086576638
 20
602.1975721631
 10
715.5036721526
 20
601.6591985432
 10
715.1376059633
 20
601.1313849737
 10
714.8136765139
 20
600.6187754399
 10
714.5347296714
 20
600.1258610415
 10
714.3032178969
 20
599.6569895695
 10
714.1211744876
 20
599.2162708707
 10
713.9901996985
 20
598.8075769504
 10
713.9114452169
 20
598.4345071326
 10
713.8856025474
 20
598.1003406196
 10
713.9128985588
 20
597.8080025583
 10
713.9930937382
 20
597.560075388
 10
714.1254831797
 20
597.3587276959
 10
714.14391966
 20
597.3387367363
  0
LWPOLYLINE
  5
2A8
330
1F
100
AcDbEntity
  8
0
  6
Continuous
 62
     7
370
    15
100
AcDbPolyline
 90
       13
 70
   128
 43
0.0
 10
725.7207685938
 20
608.3830376339
 10
725.6537831586
 20
608.4456759538
 10
725.4454240227
 20
608.5739619274
 10
725.1886160307
 20
608.6520405483
 10
724.8856153562
 20
608.6792252926
 10
724.5390854166
 20
608.6552785993
 10
724.1520714533
 20
608.5804101253
 10
723.7279740585
 20
608.455282301
 10
723.2705205941
 20
608.2809845543
 10
722.7837311451
 20
608.0590573077
 10
722.2718836001
 20
607.7914514398
 10
721.7394760322
 20
607.4805090026
 10
721.1911874494
 20
607.1289725028
  0
LINE
  5
2A9
330
1F
100
AcDbEntity
  8
0
  6
Continuous
 62
     7
370
    15
100
AcDbLine
 10
734.4685586584
 20
601.8578195358
 30
0.0
 11
734.3541639456
 21
601.8271615672
 31
0.0
  0
LINE
  5
2AA
330
1F
100
AcDbEntity
  8
0
  6
Continuous
 62
     7
370
    15
100
AcDbLine
 10
718.032445658
 20
597.3207726081
 30
0.0
 11
718.0555553018
 21
597.2948732
 31
0.0
  0
ARC
  5
2AB
330
1F
100
AcDbEntity
  8
0
  6
Continuous
 62
     7
370
    15
100
AcDbCircle
 10
730.6071746726
 20
591.6547642361
 30
0.0
 40
14.52189559518249
100
AcDbArc
 50
122.7141966323
 51
140.1967890525
  0
LINE
  5
2AC
330
1F
100
AcDbEntity
  8
0
  6
Continuous
 62
     7
370
    15
100
AcDbLine
 10
717.1508060929
 20
597.3255468661
 30
0.0
 11
720.6174715742
 21
593.6917241805
 31
0.0
  0
LINE
  5
2AD
330
1F
100
AcDbEntity
  8
0
  6
Continuous
 62
     7
370
    15
100
AcDbLine
 10
720.6174715742
 20
593.6917241805
 30
0.0
 11
720.7404278924
 21
593.548564359
 31
0.0
  0
ARC
  5
2AE
330
1F
100
AcDbEntity
  8
0
  6
Continuous
 62
     7
370
    15
100
AcDbCircle
 10
719.2774886357
 20
592.4610476919
 30
0.0
 40
1.833158587671941
100
AcDbArc
 50
344.7620306847
 51
3.0150833808
  0
LINE
  5
2AF
330
1F
100
AcDbEntity
  8
0
  6
Continuous
 62
     7
370
    15
100
AcDbLine
 10
721.04619801
 20
591.9792411365
 30
0.0
 11
719.5103842359
 21
586.3078532137
 31
0.0
  0
ARC
  5
2B0
330
1F
100
AcDbEntity
  8
0
  6
Continuous
 62
     7
370
    15
100
AcDbCircle
 10
721.2336980598
 20
585.8293829027
 30
0.0
 40
1.788503389517913
100
AcDbArc
 50
164.4829258285
 51
223.6277122679
  0
LINE
  5
2B1
330
1F
100
AcDbEntity
  8
0
  6
Continuous
 62
     7
370
    15
100
AcDbLine
 10
719.9391109351
 20
584.5953697135
 30
0.0
 11
730.7021353075
 21
573.3133585687
 31
0.0
  0
ARC
  5
2B2
330
1F
100
AcDbEntity
  8
0
  6
Continuous
 62
     7
370
    15
100
AcDbCircle
 10
731.0607144028
 20
573.6758033751
 30
0.0
 40
0.5098482179571953
100
AcDbArc
 50
225.3071837249
 51
312.0880870203
  0
LINE
  5
2B3
330
1F
100
AcDbEntity
  8
0
  6
Continuous
 62
     7
370
    15
100
AcDbLine
 10
731.402451557
 20
573.2974372524
 30
0.0
 11
731.55162822
 21
573.4283337395
 31
0.0
  0
ARC
  5
2B4
330
1F
100
AcDbEntity
  8
0
  6
Continuous
 62
     7
370
    15
100
AcDbCircle
 10
731.2573211714
 20
573.7850876316
 30
0.0
 40
0.4624824086948789
100
AcDbArc
 50
309.521206183
 51
42.7023868131
  0
LINE
  5
2B5
330
1F
100
AcDbEntity
  8
0
  6
Continuous
 62
     7
370
    15
100
AcDbLine
 10
731.5971931779
 20
574.0987387078
 30
0.0
 11
731.1493196922
 21
574.5682101217
 31
0.0
  0
LINE
  5
2B6
330
1F
100
AcDbEntity
  8
0
  6
Continuous
 62
     7
370
    15
100
AcDbLine
 10
731.7837493539
 20
576.7758482225
 30
0.0
 11
733.4163328191
 21
575.0645437824
 31
0.0
  0
ARC
  5
2B7
330
1F
100
AcDbEntity
  8
0
  6
Continuous
 62
     7
370
    15
100
AcDbCircle
 10
732.0568583268
 20
573.8099410784
 30
0.0
 40
1.849918603646221
100
AcDbArc
 50
309.5209658053
 51
42.7026346505
  0
LINE
  5
2B8
330
1F
100
AcDbEntity
  8
0
  6
Continuous
 62
     7
370
    15
100
AcDbLine
 10
733.2340735143
 20
572.3829290803
 30
0.0
 11
732.3390156438
 21
571.5975489412
 31
0.0
  0
ARC
  5
2B9
330
1F
100
AcDbEntity
  8
0
  6
Continuous
 62
     7
370
    15
100
AcDbCircle
 10
730.9720612218
 20
573.1110004126
 30
0.0
 40
2.039387101131442
100
AcDbArc
 50
225.3071070125
 51
312.0884532271
  0
LINE
  5
2BA
330
1F
100
AcDbEntity
  8
0
  6
Continuous
 62
     7
370
    15
100
AcDbLine
 10
729.5377469578
 20
571.6612272095
 30
0.0
 11
717.7522021085
 21
584.0150641312
 31
0.0
  0
ARC
  5
2BB
330
1F
100
AcDbEntity
  8
0
  6
Continuous
 62
     7
370
    15
100
AcDbCircle
 10
719.0467905495
 20
585.24907748
 30
0.0
 40
1.788504452467353
100
AcDbArc
 50
164.4829608128
 51
223.6276868727
  0
LINE
  5
2BC
330
1F
100
AcDbEntity
  8
0
  6
Continuous
 62
     7
370
    15
100
AcDbLine
 10
717.3234754092
 20
585.7275470232
 30
0.0
 11
718.8592891834
 21
591.3989355542
 31
0.0
  0
ARC
  5
2BD
330
1F
100
AcDbEntity
  8
0
  6
Continuous
 62
     7
370
    15
100
AcDbCircle
 10
717.1359812702
 20
591.8774069067
 30
0.0
 40
1.788497972778231
100
AcDbArc
 50
344.4828430225
 51
43.6278046629
  0
LINE
  5
2BE
330
1F
100
AcDbEntity
  8
0
  6
Continuous
 62
     7
370
    15
100
AcDbLine
 10
718.4305624841
 20
593.1114184461
 30
0.0
 11
714.7816736709
 21
596.9362555719
 31
0.0
  0
ARC
  5
2BF
330
1F
100
AcDbEntity
  8
0
  6
Continuous
 62
     7
370
    15
100
AcDbCircle
 10
731.1359550646
 20
572.6859652936
 30
0.0
 40
2.039387971037744
100
AcDbArc
 50
225.3071301165
 51
312.0884301232
  0
LINE
  5
2C0
330
1F
100
AcDbEntity
  8
0
  6
Continuous
 62
     7
370
    15
100
AcDbLine
 10
733.3979673299
 20
571.9578927645
 30
0.0
 11
732.5029094595
 21
571.1725126254
 31
0.0
  0
ARC
  5
2C1
330
1F
100
AcDbEntity
  8
0
  6
Continuous
 62
     7
370
    15
100
AcDbCircle
 10
732.1797771676
 20
573.402089616
 30
0.0
 40
1.889362807205312
100
AcDbArc
 50
310.1478659241
 51
20.0583370391
  0
LINE
  5
2C2
330
1F
100
AcDbEntity
  8
0
  6
Continuous
 62
     7
370
    15
100
AcDbLine
 10
729.7016407734
 20
571.2361908937
 30
0.0
 11
717.9160948704
 21
583.5900284237
 31
0.0
  0
LINE
  5
2C3
330
1F
100
AcDbEntity
  8
0
  6
Continuous
 62
     7
370
    15
100
AcDbLine
 10
731.7152017195
 20
573.7218007103
 30
0.0
 11
731.156037373
 21
574.3079264229
 31
0.0
  0
ARC
  5
2C4
330
1F
100
AcDbEntity
  8
0
  6
Continuous
 62
     7
370
    15
100
AcDbCircle
 10
721.4250618613
 20
585.4033962609
 30
0.0
 40
1.815238340304283
100
AcDbArc
 50
164.6859786571
 51
193.5674315943
  0
ARC
  5
2C5
330
1F
100
AcDbEntity
  8
0
  6
Continuous
 62
     7
370
    15
100
AcDbCircle
 10
719.2029423211
 20
584.8208114579
 30
0.0
 40
1.780674939070172
100
AcDbArc
 50
201.1113993581
 51
223.7243069873
  0
LINE
  5
2C6
330
1F
100
AcDbEntity
  8
0
  6
Continuous
 62
     7
370
    15
100
AcDbLine
 10
721.2100912988
 20
591.5542051248
 30
0.0
 11
720.8688056125
 21
590.2939201855
 31
0.0
  0
LINE
  5
2C7
330
1F
100
AcDbEntity
  8
0
  6
Continuous
 62
     7
370
    15
100
AcDbLine
 10
720.0098986745
 20
587.1221831201
 30
0.0
 11
719.6742775247
 21
585.882817202
 31
0.0
  0
ARC
  5
2C8
330
1F
100
AcDbEntity
  8
0
  6
Continuous
 62
     7
370
    15
100
AcDbCircle
 10
719.457034448
 20
592.033950084
 30
0.0
 40
1.817515762810781
100
AcDbArc
 50
344.6950475013
 51
11.5539293175
  0
ARC
  5
2C9
330
1F
100
AcDbEntity
  8
0
  6
Continuous
 62
     7
370
    15
100
AcDbCircle
 10
717.3021948542
 20
591.4516072097
 30
0.0
 40
1.787346589840335
100
AcDbArc
 50
28.4903938999
 51
43.6968543989
  0
LINE
  5
2CA
330
1F
100
AcDbEntity
  8
0
  6
Continuous
 62
     7
370
    15
100
AcDbLine
 10
714.9455666798
 20
596.5112197218
 30
0.0
 11
714.7816736709
 21
596.9362555719
 31
0.0
  0
LINE
  5
2CB
330
1F
100
AcDbEntity
  8
0
  6
Continuous
 62
     7
370
    15
100
AcDbLine
 10
718.5944555095
 20
592.6863825865
 30
0.0
 11
714.9455666798
 21
596.5112197218
 31
0.0
  0
LINE
  5
2CC
330
1F
100
AcDbEntity
  8
0
  6
Continuous
 62
     7
370
    15
100
AcDbLine
 10
719.2191771715
 20
601.1937515539
 30
0.0
 11
722.6858423894
 21
597.5599241534
 31
0.0
  0
ARC
  5
2CD
330
1F
100
AcDbEntity
  8
0
  6
Continuous
 62
     7
370
    15
100
AcDbCircle
 10
721.4263027191
 20
596.075906469
 30
0.0
 40
1.946470823990328
100
AcDbArc
 50
8.891865291
 51
49.6775244789
  0
LINE
  5
2CE
330
1F
100
AcDbEntity
  8
0
  6
Continuous
 62
     7
370
    15
100
AcDbLine
 10
723.3493805087
 20
596.3767726914
 30
0.0
 11
723.1671781021
 21
593.756811338
 31
0.0
  0
ARC
  5
2CF
330
1F
100
AcDbEntity
  8
0
  6
Continuous
 62
     7
370
    15
100
AcDbCircle
 10
725.090274999
 20
594.0576878051
 30
0.0
 40
1.946491285226968
100
AcDbArc
 50
188.8920762875
 51
229.6772877905
  0
LINE
  5
2D0
330
1F
100
AcDbEntity
  8
0
  6
Continuous
 62
     7
370
    15
100
AcDbLine
 10
723.8307159579
 20
592.573659724
 30
0.0
 11
734.5937387498
 21
581.2916494916
 31
0.0
  0
ARC
  5
2D1
330
1F
100
AcDbEntity
  8
0
  6
Continuous
 62
     7
370
    15
100
AcDbCircle
 10
735.2866690641
 20
581.8657188436
 30
0.0
 40
0.8998377861835444
100
AcDbArc
 50
219.640600261
 51
261.9429423825
  0
LINE
  5
2D2
330
1F
100
AcDbEntity
  8
0
  6
Continuous
 62
     7
370
    15
100
AcDbLine
 10
735.1605485346
 20
580.9747633713
 30
0.0
 11
735.2563209258
 21
580.9852729633
 31
0.0
  0
LWPOLYLINE
  5
2D3
330
1F
100
AcDbEntity
  8
0
  6
Continuous
 62
     7
370
    15
100
AcDbPolyline
 90
        9
 70
   128
 43
0.0
 10
735.2563209258
 20
580.9852729633
 10
735.2967413341
 20
580.9969885377
 10
735.323026743
 20
581.0214455329
 10
735.3341672087
 20
581.05770099
 10
735.3297365212
 20
581.1043581285
 10
735.3099048485
 20
581.1596296027
 10
735.2754303069
 20
581.2213837246
 10
735.2276426296
 20
581.287256696
 10
735.1683752044
 20
581.3547058268
  0
LINE
  5
2D4
330
1F
100
AcDbEntity
  8
0
  6
Continuous
 62
     7
370
    15
100
AcDbLine
 10
735.1683752044
 20
581.3547058268
 30
0.0
 11
734.9930274558
 21
581.5385096802
 31
0.0
  0
LINE
  5
2D5
330
1F
100
AcDbEntity
  8
0
  6
Continuous
 62
     7
370
    15
100
AcDbLine
 10
735.4977733721
 20
582.1184225889
 30
0.0
 11
736.4534784502
 21
581.1166383004
 31
0.0
  0
LWPOLYLINE
  5
2D6
330
1F
100
AcDbEntity
  8
0
  6
Continuous
 62
     7
370
    15
100
AcDbPolyline
 90
        9
 70
   128
 43
0.0
 10
736.4534784502
 20
581.1166383004
 10
736.6905476242
 20
580.8468268722
 10
736.8817014946
 20
580.5833489792
 10
737.0195938657
 20
580.3363218445
 10
737.0989268787
 20
580.1152468989
 10
737.1166496285
 20
579.9286134782
 10
737.0720824972
 20
579.7835983414
 10
736.9669382274
 20
579.6857761401
 10
736.8052576481
 20
579.6388949828
  0
LINE
  5
2D7
330
1F
100
AcDbEntity
  8
0
  6
Continuous
 62
     7
370
    15
100
AcDbLine
 10
736.8052576481
 20
579.6388949828
 30
0.0
 11
736.2306211935
 21
579.5758386476
 31
0.0
  0
LWPOLYLINE
  5
2D8
330
1F
100
AcDbEntity
  8
0
  6
Continuous
 62
     7
370
    15
100
AcDbPolyline
 90
        9
 70
   128
 43
0.0
 10
736.2306211935
 20
579.5758386476
 10
736.0186172771
 20
579.5817106418
 10
735.7644354289
 20
579.6401076024
 10
735.4778463421
 20
579.7487881615
 10
735.1698608808
 20
579.9035698873
 10
734.8523175679
 20
580.0985072537
 10
734.5374179161
 20
580.3261076181
 10
734.2372638661
 20
580.5776262809
 10
733.9633910103
 20
580.8433980342
  0
LINE
  5
2D9
330
1F
100
AcDbEntity
  8
0
  6
Continuous
 62
     7
370
    15
100
AcDbLine
 10
733.9633910103
 20
580.8433980342
 30
0.0
 11
722.1778456341
 21
593.1972352601
 31
0.0
  0
ARC
  5
2DA
330
1F
100
AcDbEntity
  8
0
  6
Continuous
 62
     7
370
    15
100
AcDbCircle
 10
723.4373834379
 20
594.6812536022
 30
0.0
 40
1.946470117685027
100
AcDbArc
 50
188.8920376757
 51
229.6775788942
  0
LINE
  5
2DB
330
1F
100
AcDbEntity
  8
0
  6
Continuous
 62
     7
370
    15
100
AcDbLine
 10
721.5143072514
 20
594.380381703
 30
0.0
 11
721.696509658
 21
597.0003436647
 31
0.0
  0
ARC
  5
2DC
330
1F
100
AcDbEntity
  8
0
  6
Continuous
 62
     7
370
    15
100
AcDbCircle
 10
719.773429647
 20
596.6994759047
 30
0.0
 40
1.946473256353953
100
AcDbArc
 50
8.8918999002
 51
49.6774893121
  0
LINE
  5
2DD
330
1F
100
AcDbEntity
  8
0
  6
Continuous
 62
     7
370
    15
100
AcDbLine
 10
721.0329718021
 20
598.1834946704
 30
0.0
 11
717.3840828408
 21
602.0083318818
 31
0.0
  0
LWPOLYLINE
  5
2DE
330
1F
100
AcDbEntity
  8
0
  6
Continuous
 62
     7
370
    15
100
AcDbPolyline
 90
        9
 70
   128
 43
0.0
 10
735.446991688
 20
578.6038087615
 10
735.2349856643
 20
578.6096819723
 10
734.9808059234
 20
578.6680777164
 10
734.6942152561
 20
578.7767597961
 10
734.3862308485
 20
578.9315396972
 10
734.0686880624
 20
579.1264773677
 10
733.7537878838
 20
579.3540774279
 10
733.4536348874
 20
579.605596699
 10
733.1797593974
 20
579.8713693648
  0
LINE
  5
2DF
330
1F
100
AcDbEntity
  8
0
  6
Continuous
 62
     7
370
    15
100
AcDbLine
 10
733.1797593974
 20
579.8713693648
 30
0.0
 11
721.3942150749
 21
592.2252059824
 31
0.0
  0
LINE
  5
2E0
330
1F
100
AcDbEntity
  8
0
  6
Continuous
 62
     7
370
    15
100
AcDbLine
 10
736.0216260353
 20
578.6668663133
 30
0.0
 11
735.446991688
 21
578.6038087615
 31
0.0
  0
LWPOLYLINE
  5
2E1
330
1F
100
AcDbEntity
  8
0
  6
Continuous
 62
     7
370
    15
100
AcDbPolyline
 90
        3
 70
   128
 43
0.0
 10
736.2691555302
 20
578.7842664481
 10
736.1833066145
 20
578.7137474706
 10
736.0216260353
 20
578.6668663133
  0
ARC
  5
2E2
330
1F
100
AcDbEntity
  8
0
  6
Continuous
 62
     7
370
    15
100
AcDbCircle
 10
722.653763535
 20
593.7092303007
 30
0.0
 40
1.946481569585941
100
AcDbArc
 50
188.8921629911
 51
229.6774535789
  0
LINE
  5
2E3
330
1F
100
AcDbEntity
  8
0
  6
Continuous
 62
     7
370
    15
100
AcDbLine
 10
720.7306766922
 20
593.4083524253
 30
0.0
 11
720.9128796257
 21
596.0283140828
 31
0.0
  0
ARC
  5
2E4
330
1F
100
AcDbEntity
  8
0
  6
Continuous
 62
     7
370
    15
100
AcDbCircle
 10
718.9898037607
 20
595.7274484686
 30
0.0
 40
1.946468828445417
100
AcDbArc
 50
8.8918563594
 51
49.6775591025
  0
LINE
  5
2E5
330
1F
100
AcDbEntity
  8
0
  6
Continuous
 62
     7
370
    15
100
AcDbLine
 10
716.6004524133
 20
601.036302528
 30
0.0
 11
717.3840828408
 21
602.0083318818
 31
0.0
  0
LINE
  5
2E6
330
1F
100
AcDbEntity
  8
0
  6
Continuous
 62
     7
370
    15
100
AcDbLine
 10
720.249341243
 20
597.2114653927
 30
0.0
 11
716.6004524133
 21
601.036302528
 31
0.0
  0
LINE
  5
2E7
330
1F
100
AcDbEntity
  8
0
  6
Continuous
 62
     7
370
    15
100
AcDbLine
 10
726.1134873964
 20
602.6414580531
 30
0.0
 11
722.4645984351
 21
606.4662952645
 31
0.0
  0
ARC
  5
2E8
330
1F
100
AcDbEntity
  8
0
  6
Continuous
 62
     7
370
    15
100
AcDbCircle
 10
727.3605725547
 20
603.6131274372
 30
0.0
 40
1.580937311832535
100
AcDbArc
 50
217.9240242564
 51
272.6236251687
  0
LINE
  5
2E9
330
1F
100
AcDbEntity
  8
0
  6
Continuous
 62
     7
370
    15
100
AcDbLine
 10
731.0318681475
 20
602.7316885542
 30
0.0
 11
727.4329397969
 21
602.0338472955
 31
0.0
  0
ARC
  5
2EA
330
1F
100
AcDbEntity
  8
0
  6
Continuous
 62
     7
370
    15
100
AcDbCircle
 10
731.1042451553
 20
601.1524206459
 30
0.0
 40
1.580925538265829
100
AcDbArc
 50
37.9239903255
 51
92.6239990148
  0
LINE
  5
2EB
330
1F
100
AcDbEntity
  8
0
  6
Continuous
 62
     7
370
    15
100
AcDbLine
 10
744.1368659242
 20
589.7702454376
 30
0.0
 11
732.3513216016
 21
602.1240820552
 31
0.0
  0
LWPOLYLINE
  5
2EC
330
1F
100
AcDbEntity
  8
0
  6
Continuous
 62
     7
370
    15
100
AcDbPolyline
 90
        9
 70
   128
 43
0.0
 10
744.9123342193
 20
587.193719051
 10
744.9913574529
 20
587.4549618951
 10
745.017020669
 20
587.758908545
 10
744.9883376312
 20
588.093887932
 10
744.9064104797
 20
588.4470282606
 10
744.7743875841
 20
588.8047485671
 10
744.5973413176
 20
589.1533159763
 10
744.3820762888
 20
589.479321428
 10
744.1368659242
 20
589.7702454376
  0
LINE
  5
2ED
330
1F
100
AcDbEntity
  8
0
  6
Continuous
 62
     7
370
    15
100
AcDbLine
 10
744.5919106961
 20
586.4713964636
 30
0.0
 11
744.9123342193
 21
587.193719051
 31
0.0
  0
LWPOLYLINE
  5
2EE
330
1F
100
AcDbEntity
  8
0
  6
Continuous
 62
     7
370
    15
100
AcDbPolyline
 90
        9
 70
   128
 43
0.0
 10
742.7483675028
 20
586.6401691309
 10
743.0141012753
 20
586.3955136093
 10
743.2901441669
 20
586.2065176383
 10
743.5658920307
 20
586.0804563317
 10
743.8307428267
 20
586.0221701058
 10
744.0745244132
 20
586.0338907249
 10
744.287863331
 20
586.1151792831
 10
744.4625641254
 20
586.262906771
 10
744.5919106961
 20
586.4713964636
  0
LINE
  5
2EF
330
1F
100
AcDbEntity
  8
0
  6
Continuous
 62
     7
370
    15
100
AcDbLine
 10
741.7340825199
 20
587.703361689
 30
0.0
 11
742.7483675028
 21
586.6401691309
 31
0.0
  0
LINE
  5
2F0
330
1F
100
AcDbEntity
  8
0
  6
Continuous
 62
     7
370
    15
100
AcDbLine
 10
742.9550303598
 20
588.1872060911
 30
0.0
 11
742.7626953239
 21
588.3888129161
 31
0.0
  0
LWPOLYLINE
  5
2F1
330
1F
100
AcDbEntity
  8
0
  6
Continuous
 62
     7
370
    15
100
AcDbPolyline
 90
        9
 70
   128
 43
0.0
 10
743.4159145776
 20
588.1450138367
 10
743.3835774081
 20
588.0928917177
 10
743.3399027363
 20
588.0559583248
 10
743.2865680069
 20
588.0356349685
 10
743.2256236639
 20
588.0327042055
 10
743.1594109649
 20
588.0472794122
 10
743.0904734721
 20
588.0787926095
 10
743.0214622224
 20
588.1260443398
 10
742.9550303598
 20
588.1872060911
  0
LINE
  5
2F2
330
1F
100
AcDbEntity
  8
0
  6
Continuous
 62
     7
370
    15
100
AcDbLine
 10
743.4693188493
 20
588.2654007318
 30
0.0
 11
743.4159145776
 21
588.1450138367
 31
0.0
  0
ARC
  5
2F3
330
1F
100
AcDbEntity
  8
0
  6
Continuous
 62
     7
370
    15
100
AcDbCircle
 10
742.8220705324
 20
588.4218340671
 30
0.0
 40
0.6658842032740767
100
AcDbArc
 50
346.4127549026
 51
47.0882564201
  0
LINE
  5
2F4
330
1F
100
AcDbEntity
  8
0
  6
Continuous
 62
     7
370
    15
100
AcDbLine
 10
732.5124279301
 20
600.1915407357
 30
0.0
 11
743.2754517756
 21
588.909529895
 31
0.0
  0
ARC
  5
2F5
330
1F
100
AcDbEntity
  8
0
  6
Continuous
 62
     7
370
    15
100
AcDbCircle
 10
731.2653577612
 20
599.2199039016
 30
0.0
 40
1.580905482209479
100
AcDbArc
 50
37.9234275768
 51
92.6242218484
  0
LINE
  5
2F6
330
1F
100
AcDbEntity
  8
0
  6
Continuous
 62
     7
370
    15
100
AcDbLine
 10
727.594047179
 20
600.1013102347
 30
0.0
 11
731.1929755296
 21
600.7991514934
 31
0.0
  0
ARC
  5
2F7
330
1F
100
AcDbEntity
  8
0
  6
Continuous
 62
     7
370
    15
100
AcDbCircle
 10
727.5216656777
 20
601.6805600071
 30
0.0
 40
1.580907627121204
100
AcDbArc
 50
217.9234532236
 51
272.624191793
  0
LINE
  5
2F8
330
1F
100
AcDbEntity
  8
0
  6
Continuous
 62
     7
370
    15
100
AcDbLine
 10
722.8079287704
 20
604.3427439821
 30
0.0
 11
726.2745942517
 21
600.7089212965
 31
0.0
  0
LWPOLYLINE
  5
2F9
330
1F
100
AcDbEntity
  8
0
  6
Continuous
 62
     7
370
    15
100
AcDbPolyline
 90
        9
 70
   128
 43
0.0
 10
745.859857277
 20
587.7407124691
 10
745.9388805106
 20
588.0019553132
 10
745.9645437267
 20
588.3059019631
 10
745.9358606889
 20
588.6408813502
 10
745.8539335374
 20
588.9940216787
 10
745.7219106418
 20
589.3517419853
 10
745.5448643753
 20
589.7003093944
 10
745.3295993465
 20
590.0263148461
 10
745.0843889819
 20
590.3172388557
  0
LINE
  5
2FA
330
1F
100
AcDbEntity
  8
0
  6
Continuous
 62
     7
370
    15
100
AcDbLine
 10
745.0843889819
 20
590.3172388557
 30
0.0
 11
733.2988446593
 21
602.6710754734
 31
0.0
  0
LINE
  5
2FB
330
1F
100
AcDbEntity
  8
0
  6
Continuous
 62
     7
370
    15
100
AcDbLine
 10
745.5394337538
 20
587.0183898817
 30
0.0
 11
745.859857277
 21
587.7407124691
 31
0.0
  0
ARC
  5
2FC
330
1F
100
AcDbEntity
  8
0
  6
Continuous
 62
     7
370
    15
100
AcDbCircle
 10
744.854567214
 20
587.2952055683
 30
0.0
 40
0.738694186875461
100
AcDbArc
 50
300.532902409
 51
337.9919710992
  0
ARC
  5
2FD
330
1F
100
AcDbEntity
  8
0
  6
Continuous
 62
     7
370
    15
100
AcDbCircle
 10
732.051768213
 20
601.699414064
 30
0.0
 40
1.580925538265726
100
AcDbArc
 50
37.9239903255
 51
92.6239990148
  0
LINE
  5
2FE
330
1F
100
AcDbEntity
  8
0
  6
Continuous
 62
     7
370
    15
100
AcDbLine
 10
731.9793912052
 20
603.2786819723
 30
0.0
 11
728.3804628546
 21
602.5808407136
 31
0.0
  0
ARC
  5
2FF
330
1F
100
AcDbEntity
  8
0
  6
Continuous
 62
     7
370
    15
100
AcDbCircle
 10
728.3080956124
 20
604.1601208554
 30
0.0
 40
1.58093731183259
100
AcDbArc
 50
217.9240242564
 51
272.6236251687
  0
LINE
  5
300
330
1F
100
AcDbEntity
  8
0
  6
Continuous
 62
     7
370
    15
100
AcDbLine
 10
722.4645984351
 20
606.4662952645
 30
0.0
 11
723.4121214928
 21
607.0132886826
 31
0.0
  0
LINE
  5
301
330
1F
100
AcDbEntity
  8
0
  6
Continuous
 62
     7
370
    15
100
AcDbLine
 10
727.0610104541
 20
603.1884514713
 30
0.0
 11
723.4121214928
 21
607.0132886826
 31
0.0
  0
LWPOLYLINE
  5
302
330
1F
100
AcDbEntity
  8
0
  6
Continuous
 62
     7
370
    15
100
AcDbPolyline
 90
        9
 70
   128
 43
0.0
 10
736.4397650511
 20
573.4999385772
 10
736.5061979673
 20
573.4387762177
 10
736.5752092171
 20
573.3915244874
 10
736.6441456562
 20
573.3600118983
 10
736.7103594089
 20
573.3454360833
 10
736.7713037518
 20
573.3483668464
 10
736.8246395349
 20
573.3686895944
 10
736.8683142067
 20
573.4056229873
 10
736.9006513762
 20
573.4577451063
  0
LWPOLYLINE
  5
303
330
1F
100
AcDbEntity
  8
0
  6
Continuous
 62
     7
370
    15
100
AcDbPolyline
 90
        9
 70
   128
 43
0.0
 10
735.5505371434
 20
576.9011738615
 10
735.5764068791
 20
576.9428715567
 10
735.6113466165
 20
576.9724172976
 10
735.6540150322
 20
576.9886726975
 10
735.7027705066
 20
576.9910182813
 10
735.7557406658
 20
576.9793620095
 10
735.8108908708
 20
576.9541484098
 10
735.8660990276
 20
576.9163494589
 10
735.9192462036
 20
576.8674171379
  0
LWPOLYLINE
  5
304
330
1F
100
AcDbEntity
  8
0
  6
Continuous
 62
     7
370
    15
100
AcDbPolyline
 90
        9
 70
   128
 43
0.0
 10
737.6216016691
 20
575.0829773155
 10
737.8668120338
 20
574.7920533059
 10
738.0820770625
 20
574.4660478541
 10
738.2591233291
 20
574.117480445
 10
738.3911462247
 20
573.7597601385
 10
738.4730733762
 20
573.4066198099
 10
738.5017564139
 20
573.0716404229
 10
738.4760931979
 20
572.767693773
 10
738.3970699643
 20
572.5064509289
  0
LWPOLYLINE
  5
305
330
1F
100
AcDbEntity
  8
0
  6
Continuous
 62
     7
370
    15
100
AcDbPolyline
 90
        9
 70
   128
 43
0.0
 10
738.0766464411
 20
571.7841283415
 10
737.9472998704
 20
571.5756386489
 10
737.772599076
 20
571.427911161
 10
737.5592601582
 20
571.3466226028
 10
737.3154785717
 20
571.3349019836
 10
737.050626722
 20
571.3931888179
 10
736.7748809656
 20
571.5192489079
 10
736.4988370203
 20
571.7082406202
 10
736.2331032477
 20
571.9529010087
  0
LINE
  5
306
330
1F
100
AcDbEntity
  8
0
  6
Continuous
 62
     7
370
    15
100
AcDbLine
 10
720.7835517576
 20
594.1686632914
 30
0.0
 11
719.0846718595
 21
595.9494614121
 31
0.0
  0
LWPOLYLINE
  5
307
330
1F
100
AcDbEntity
  8
0
  6
Continuous
 62
     7
370
    15
100
AcDbPolyline
 90
        9
 70
   128
 43
0.0
 10
738.5691247268
 20
575.6299707336
 10
738.8143350915
 20
575.339046724
 10
739.0296001202
 20
575.0130412723
 10
739.2066463868
 20
574.6644738632
 10
739.3386692824
 20
574.3067535566
 10
739.4205964339
 20
573.9536132281
 10
739.4492794716
 20
573.618633841
 10
739.4236162556
 20
573.3146871911
 10
739.344593022
 20
573.053444347
  0
LINE
  5
308
330
1F
100
AcDbEntity
  8
0
  6
Continuous
 62
     7
370
    15
100
AcDbLine
 10
730.3227472896
 20
603.5463679074
 30
0.0
 11
727.5512266395
 21
606.4515303919
 31
0.0
  0
ARC
  5
309
330
1F
100
AcDbEntity
  8
0
  6
Continuous
 62
     7
370
    15
100
AcDbCircle
 10
731.6798864026
 20
604.8489475439
 30
0.0
 40
1.881100816511692
100
AcDbArc
 50
223.8248421471
 51
249.1638180222
  0
LINE
  5
30A
330
1F
100
AcDbEntity
  8
0
  6
Continuous
 62
     7
370
    15
100
AcDbLine
 10
738.0897523988
 20
603.949182509
 30
0.0
 11
732.7689672359
 21
603.0978724769
 31
0.0
  0
ARC
  5
30B
330
1F
100
AcDbEntity
  8
0
  6
Continuous
 62
     7
370
    15
100
AcDbCircle
 10
738.4248575909
 20
602.0092353569
 30
0.0
 40
1.968677333300527
100
AcDbArc
 50
44.4463850087
 51
99.8005200832
  0
LINE
  5
30C
330
1F
100
AcDbEntity
  8
0
  6
Continuous
 62
     7
370
    15
100
AcDbLine
 10
751.6158535635
 20
591.0339477543
 30
0.0
 11
739.8303081873
 21
603.3877849802
 31
0.0
  0
ARC
  5
30D
330
1F
100
AcDbEntity
  8
0
  6
Continuous
 62
     7
370
    15
100
AcDbCircle
 10
750.2563683509
 20
589.7793431889
 30
0.0
 40
1.849927744158515
100
AcDbArc
 50
309.5211626898
 51
42.7024518363
  0
LINE
  5
30E
330
1F
100
AcDbEntity
  8
0
  6
Continuous
 62
     7
370
    15
100
AcDbLine
 10
750.5385363882
 20
587.5669480461
 30
0.0
 11
751.4335942586
 21
588.3523281852
 31
0.0
  0
ARC
  5
30F
330
1F
100
AcDbEntity
  8
0
  6
Continuous
 62
     7
370
    15
100
AcDbCircle
 10
749.1715844879
 20
589.0803996439
 30
0.0
 40
2.039385504701249
100
AcDbArc
 50
225.3069629795
 51
312.08839827
  0
LINE
  5
310
330
1F
100
AcDbEntity
  8
0
  6
Continuous
 62
     7
370
    15
100
AcDbLine
 10
746.0349101293
 20
589.4150722203
 30
0.0
 11
747.7372677022
 21
587.6306311814
 31
0.0
  0
ARC
  5
311
330
1F
100
AcDbEntity
  8
0
  6
Continuous
 62
     7
370
    15
100
AcDbCircle
 10
746.3068046678
 20
589.6659926607
 30
0.0
 40
0.3699833880827705
100
AcDbArc
 50
129.5207456598
 51
222.7026610274
  0
LINE
  5
312
330
1F
100
AcDbEntity
  8
0
  6
Continuous
 62
     7
370
    15
100
AcDbLine
 10
746.2154424671
 20
590.0778188514
 30
0.0
 11
746.0713629386
 21
589.9513957084
 31
0.0
  0
LINE
  5
313
330
1F
100
AcDbEntity
  8
0
  6
Continuous
 62
     7
370
    15
100
AcDbLine
 10
748.9016539445
 20
589.2827588901
 30
0.0
 11
747.923613144
 21
590.3079596896
 31
0.0
  0
ARC
  5
314
330
1F
100
AcDbEntity
  8
0
  6
Continuous
 62
     7
370
    15
100
AcDbCircle
 10
749.2602319591
 20
589.6451976737
 30
0.0
 40
0.5098431762735712
100
AcDbArc
 50
225.3067940409
 51
312.0890815413
  0
LINE
  5
315
330
1F
100
AcDbEntity
  8
0
  6
Continuous
 62
     7
370
    15
100
AcDbLine
 10
749.7511489643
 20
589.3977377114
 30
0.0
 11
749.6019723014
 21
589.2668412243
 31
0.0
  0
ARC
  5
316
330
1F
100
AcDbEntity
  8
0
  6
Continuous
 62
     7
370
    15
100
AcDbCircle
 10
749.4568509112
 20
589.7544882159
 30
0.0
 40
0.462474071213793
100
AcDbArc
 50
309.5206135873
 51
42.7032957465
  0
LINE
  5
317
330
1F
100
AcDbEntity
  8
0
  6
Continuous
 62
     7
370
    15
100
AcDbLine
 10
739.0336890231
 20
601.3501492617
 30
0.0
 11
749.7967118149
 21
590.0681390292
 31
0.0
  0
ARC
  5
318
330
1F
100
AcDbEntity
  8
0
  6
Continuous
 62
     7
370
    15
100
AcDbCircle
 10
737.6282352416
 20
599.9716058449
 30
0.0
 40
1.968675261134919
100
AcDbArc
 50
44.4461911431
 51
99.8004519893
  0
LINE
  5
319
330
1F
100
AcDbEntity
  8
0
  6
Continuous
 62
     7
370
    15
100
AcDbLine
 10
737.0252278457
 20
601.8686896871
 30
0.0
 11
737.2931327077
 21
601.9115513533
 31
0.0
  0
LINE
  5
31A
330
1F
100
AcDbEntity
  8
0
  6
Continuous
 62
     7
370
    15
100
AcDbLine
 10
726.059462644
 20
605.1425643043
 30
0.0
 11
728.4841581948
 21
602.6009500826
 31
0.0
  0
ARC
  5
31B
330
1F
100
AcDbEntity
  8
0
  6
Continuous
 62
     7
370
    15
100
AcDbCircle
 10
749.3354761738
 20
588.655363561
 30
0.0
 40
2.039384789704897
100
AcDbArc
 50
225.3069439898
 51
312.0884172597
  0
LINE
  5
31C
330
1F
100
AcDbEntity
  8
0
  6
Continuous
 62
     7
370
    15
100
AcDbLine
 10
750.7024280965
 20
587.1419129468
 30
0.0
 11
751.5974880743
 21
587.9272918694
 31
0.0
  0
ARC
  5
31D
330
1F
100
AcDbEntity
  8
0
  6
Continuous
 62
     7
370
    15
100
AcDbCircle
 10
750.3983232219
 20
589.3664267284
 30
0.0
 40
1.873260656087115
100
AcDbArc
 50
309.8028878208
 51
20.4034166789
  0
LINE
  5
31E
330
1F
100
AcDbEntity
  8
0
  6
Continuous
 62
     7
370
    15
100
AcDbLine
 10
746.1988039449
 20
588.9900359045
 30
0.0
 11
747.9011594105
 21
587.2055960821
 31
0.0
  0
LINE
  5
31F
330
1F
100
AcDbEntity
  8
0
  6
Continuous
 62
     7
370
    15
100
AcDbLine
 10
739.1975817851
 20
600.9251135542
 30
0.0
 11
748.7268114313
 21
590.9363943954
 31
0.0
  0
LINE
  5
320
330
1F
100
AcDbEntity
  8
0
  6
Continuous
 62
     7
370
    15
100
AcDbLine
 10
749.5575974651
 20
590.065546445
 30
0.0
 11
749.9147224639
 21
589.6911998152
 31
0.0
  0
LWPOLYLINE
  5
321
330
1F
100
AcDbEntity
  8
0
  6
Continuous
 62
     7
370
    15
100
AcDbPolyline
 90
        3
 70
   128
 43
0.0
 10
746.1239411321
 20
589.1079221138
 10
746.1534423456
 20
589.0486247348
 10
746.1988039449
 20
588.9900359045
  0
ARC
  5
322
330
1F
100
AcDbEntity
  8
0
  6
Continuous
 62
     7
370
    15
100
AcDbCircle
 10
737.8071521631
 20
599.574989745
 30
0.0
 40
1.938073485147497
100
AcDbArc
 50
44.1574014021
 51
90.8431249822
  0
LINE
  5
323
330
1F
100
AcDbEntity
  8
0
  6
Continuous
 62
     7
370
    15
100
AcDbLine
 10
726.2233556694
 20
604.7175284447
 30
0.0
 11
728.2741765369
 21
602.567814719
 31
0.0
  0
LINE
  5
324
330
1F
100
AcDbEntity
  8
0
  6
Continuous
 62
     7
370
    15
100
AcDbLine
 10
748.1377328322
 20
582.3987704997
 30
0.0
 11
747.1724899223
 21
583.4105579347
 31
0.0
  0
LWPOLYLINE
  5
325
330
1F
100
AcDbEntity
  8
0
  6
Continuous
 62
     7
370
    15
100
AcDbPolyline
 90
        9
 70
   128
 43
0.0
 10
748.4895120301
 20
580.9210320491
 10
748.6511926094
 20
580.9679083394
 10
748.7563368792
 20
581.0657354077
 10
748.8009034836
 20
581.2107502403
 10
748.7831812607
 20
581.3973839652
 10
748.7038482477
 20
581.6184589107
 10
748.5659564034
 20
581.8654814826
 10
748.3748014794
 20
582.1289636344
 10
748.1377328322
 20
582.3987704997
  0
LINE
  5
326
330
1F
100
AcDbEntity
  8
0
  6
Continuous
 62
     7
370
    15
100
AcDbLine
 10
747.9148755755
 20
580.8579757138
 30
0.0
 11
748.4895120301
 21
580.9210320491
 31
0.0
  0
LWPOLYLINE
  5
327
330
1F
100
AcDbEntity
  8
0
  6
Continuous
 62
     7
370
    15
100
AcDbPolyline
 90
        9
 70
   128
 43
0.0
 10
745.6476453923
 20
582.1255302336
 10
745.9215203554
 20
581.8597572636
 10
746.2216738786
 20
581.6082382967
 10
746.5365740573
 20
581.3806382365
 10
746.8541168433
 20
581.185700566
 10
747.1621007241
 20
581.0309203608
 10
747.4486892841
 20
580.9222443646
 10
747.7028716591
 20
580.8638477081
 10
747.9148755755
 20
580.8579757138
  0
LINE
  5
328
330
1F
100
AcDbEntity
  8
0
  6
Continuous
 62
     7
370
    15
100
AcDbLine
 10
743.9452899267
 20
583.909974923
 30
0.0
 11
745.6476453923
 21
582.1255302336
 31
0.0
  0
LWPOLYLINE
  5
329
330
1F
100
AcDbEntity
  8
0
  6
Continuous
 62
     7
370
    15
100
AcDbPolyline
 90
        9
 70
   128
 43
0.0
 10
743.8749331388
 20
584.205520362
 10
743.842597023
 20
584.1961470507
 10
743.8215683798
 20
584.176579082
 10
743.812655375
 20
584.1475772714
 10
743.8161999249
 20
584.110252534
 10
743.8320661061
 20
584.0660336513
 10
743.8596438427
 20
584.0166292586
 10
743.8978757758
 20
583.9639375127
 10
743.9452899267
 20
583.909974923
  0
LINE
  5
32A
330
1F
100
AcDbEntity
  8
0
  6
Continuous
 62
     7
370
    15
100
AcDbLine
 10
744.4495690666
 20
584.2685763931
 30
0.0
 11
743.8749331388
 21
584.205520362
 31
0.0
  0
ARC
  5
32B
330
1F
100
AcDbEntity
  8
0
  6
Continuous
 62
     7
370
    15
100
AcDbCircle
 10
744.348671467
 20
583.5558186482
 30
0.0
 40
0.7198638263359113
100
AcDbArc
 50
39.6400224643
 51
81.9427757106
  0
LINE
  5
32C
330
1F
100
AcDbEntity
  8
0
  6
Continuous
 62
     7
370
    15
100
AcDbLine
 10
746.2779952391
 20
582.5737853413
 30
0.0
 11
744.9030154194
 21
584.0150644549
 31
0.0
  0
ARC
  5
32D
330
1F
100
AcDbEntity
  8
0
  6
Continuous
 62
     7
370
    15
100
AcDbCircle
 10
746.9709366441
 20
583.1478634287
 30
0.0
 40
0.8998518995954226
100
AcDbArc
 50
219.6405780538
 51
261.94222086
  0
LINE
  5
32E
330
1F
100
AcDbEntity
  8
0
  6
Continuous
 62
     7
370
    15
100
AcDbLine
 10
746.9405753078
 20
582.2674051626
 30
0.0
 11
746.8448029166
 21
582.2568955707
 31
0.0
  0
LWPOLYLINE
  5
32F
330
1F
100
AcDbEntity
  8
0
  6
Continuous
 62
     7
370
    15
100
AcDbPolyline
 90
        9
 70
   128
 43
0.0
 10
746.8526316937
 20
582.6368416765
 10
746.9118985921
 20
582.5693873746
 10
746.9596867963
 20
582.5035195743
 10
746.9941592305
 20
582.441761802
 10
747.0139930106
 20
582.3864939782
 10
747.018423698
 20
582.3398368398
 10
747.007281125
 20
582.3035825992
 10
746.9809951892
 20
582.2791252999
 10
746.9405753078
 20
582.2674051626
  0
LINE
  5
330
330
1F
100
AcDbEntity
  8
0
  6
Continuous
 62
     7
370
    15
100
AcDbLine
 10
746.7085442627
 20
582.7878767711
 30
0.0
 11
746.8526316937
 21
582.6368416765
 31
0.0
  0
LWPOLYLINE
  5
331
330
1F
100
AcDbEntity
  8
0
  6
Continuous
 62
     7
370
    15
100
AcDbPolyline
 90
        9
 70
   128
 43
0.0
 10
744.8640158868
 20
581.1535003475
 10
745.1378887426
 20
580.8877285942
 10
745.4380448999
 20
580.6362087149
 10
745.7529424444
 20
580.408609567
 10
746.0704873378
 20
580.21367068
 10
746.3784712186
 20
580.0588904748
 10
746.6650603054
 20
579.9502147827
 10
746.9192421536
 20
579.8918178221
 10
747.13124607
 20
579.8859458278
  0
LINE
  5
332
330
1F
100
AcDbEntity
  8
0
  6
Continuous
 62
     7
370
    15
100
AcDbLine
 10
743.1616593676
 20
582.9379456452
 30
0.0
 11
744.8640158868
 21
581.1535003475
 31
0.0
  0
LWPOLYLINE
  5
333
330
1F
100
AcDbEntity
  8
0
  6
Continuous
 62
     7
370
    15
100
AcDbPolyline
 90
        8
 70
   128
 43
0.0
 10
743.0417974182
 20
583.2100144034
 10
743.0379383474
 20
583.2045501084
 10
743.0290248158
 20
583.1755479936
 10
743.0325693658
 20
583.1382232563
 10
743.0484355469
 20
583.0940043736
 10
743.076014864
 20
583.0445996767
 10
743.1142452167
 20
582.991908235
 10
743.1616593676
 20
582.9379456452
  0
LINE
  5
334
330
1F
100
AcDbEntity
  8
0
  6
Continuous
 62
     7
370
    15
100
AcDbLine
 10
747.13124607
 20
579.8859458278
 30
0.0
 11
747.7058825246
 21
579.9490021631
 31
0.0
  0
LWPOLYLINE
  5
335
330
1F
100
AcDbEntity
  8
0
  6
Continuous
 62
     7
370
    15
100
AcDbPolyline
 90
        3
 70
   128
 43
0.0
 10
747.7058825246
 20
579.9490021631
 10
747.8675631039
 20
579.9958784534
 10
747.9534093854
 20
580.0664032103
  0
LWPOLYLINE
  5
336
330
1F
100
AcDbEntity
  8
0
  6
Continuous
 62
     7
370
    15
100
AcDbPolyline
 90
        3
 70
   128
 43
0.0
 10
726.8760027796
 20
603.382383103
 10
726.9712658525
 20
603.5487998686
 10
727.1044385668
 20
603.7939610369
  0
LINE
  5
337
330
1F
100
AcDbEntity
  8
0
  6
Continuous
 62
     7
370
    15
100
AcDbLine
 10
719.0846718595
 20
595.9494614121
 30
0.0
 11
719.1654210065
 21
596.1314909532
 31
0.0
  0
LINE
  5
338
330
1F
100
AcDbEntity
  8
0
  6
Continuous
 62
     7
370
    15
100
AcDbLine
 10
715.822935057
 20
595.591544957
 30
0.0
 11
715.9871477234
 21
595.4194123339
 31
0.0
  0
LINE
  5
339
330
1F
100
AcDbEntity
  8
0
  6
Continuous
 62
     7
370
    15
100
AcDbLine
 10
718.6628000817
 20
595.7406483135
 30
0.0
 11
719.0846718595
 21
595.9494614121
 31
0.0
  0
LINE
  5
33A
330
1F
100
AcDbEntity
  8
0
  6
Continuous
 62
     7
370
    15
100
AcDbLine
 10
715.6590420316
 20
596.0165808166
 30
0.0
 11
717.1508060929
 21
597.3255468661
 31
0.0
  0
LWPOLYLINE
  5
33B
330
1F
100
AcDbEntity
  8
0
  6
Continuous
 62
     7
370
    15
100
AcDbPolyline
 90
       10
 70
   128
 43
0.0
 10
717.4778208563
 20
600.1166277251
 10
717.0743543439
 20
599.5601731287
 10
716.7149025756
 20
599.0176650277
 10
716.4028959098
 20
598.4942754422
 10
716.1413114945
 20
597.9950019173
 10
715.9326446866
 20
597.5246037195
 10
715.7788867929
 20
597.0875769685
 10
715.6815054457
 20
596.6880880942
 10
715.6414298514
 20
596.329951934
 10
715.6590420316
 20
596.0165808166
  0
LINE
  5
33C
330
1F
100
AcDbEntity
  8
0
  6
Continuous
 62
     7
370
    15
100
AcDbLine
 10
718.261451152
 20
601.0886571549
 30
0.0
 11
719.2191771715
 21
601.1937515539
 31
0.0
  0
ARC
  5
33D
330
1F
100
AcDbEntity
  8
0
  6
Continuous
 62
     7
370
    15
100
AcDbCircle
 10
736.1052523234
 20
585.8769637922
 30
0.0
 40
23.44774733755537
100
AcDbArc
 50
122.9788121957
 51
139.5526816732
  0
LINE
  5
33E
330
1F
100
AcDbEntity
  8
0
  6
Continuous
 62
     7
370
    15
100
AcDbLine
 10
722.8079287704
 20
604.3427439821
 30
0.0
 11
723.3419667463
 21
605.5466205376
 31
0.0
  0
LWPOLYLINE
  5
33F
330
1F
100
AcDbEntity
  8
0
  6
Continuous
 62
     7
370
    15
100
AcDbPolyline
 90
       10
 70
   128
 43
0.0
 10
727.5512266395
 20
606.4515303919
 10
727.3793599572
 20
606.6295482171
 10
727.1531770507
 20
606.7540564069
 10
726.8748368924
 20
606.8238642097
 10
726.5469944703
 20
606.8383005542
 10
726.1727786609
 20
606.7972389966
 10
725.7557596977
 20
606.7010628206
 10
725.29991756
 20
606.5506921148
 10
724.80960121
 20
606.3475638918
 10
724.289489804
 20
606.0936139558
  0
LINE
  5
340
330
1F
100
AcDbEntity
  8
0
  6
Continuous
 62
     7
370
    15
100
AcDbLine
 10
726.059462644
 20
605.1425643043
 30
0.0
 11
727.5512266395
 21
606.4515303919
 31
0.0
  0
LINE
  5
341
330
1F
100
AcDbEntity
  8
0
  6
Continuous
 62
     7
370
    15
100
AcDbLine
 10
726.2233556694
 20
604.7175284447
 30
0.0
 11
726.059462644
 21
605.1425643043
 31
0.0
  0
LINE
  5
342
330
1F
100
AcDbEntity
  8
0
  6
Continuous
 62
     7
370
    15
100
AcDbLine
 10
723.3419667463
 20
605.5466205376
 30
0.0
 11
722.4645984351
 21
606.4662952645
 31
0.0
  0
LINE
  5
343
330
1F
100
AcDbEntity
  8
0
  6
Continuous
 62
     7
370
    15
100
AcDbLine
 10
718.261451152
 20
601.0886571549
 30
0.0
 11
717.3840828408
 21
602.0083318818
 31
0.0
  0
ARC
  5
344
330
1F
100
AcDbEntity
  8
0
  6
Continuous
 62
     7
370
    15
100
AcDbCircle
 10
735.2278840121
 20
586.796638519
 30
0.0
 40
23.4477473375538
100
AcDbArc
 50
122.9788121957
 51
139.5526816732
  0
LINE
  5
345
330
1F
100
AcDbEntity
  8
0
  6
Continuous
 62
     7
370
    15
100
AcDbLine
 10
717.4778208563
 20
600.1166277251
 30
0.0
 11
716.6004524133
 21
601.036302528
 31
0.0
  0
LINE
  5
346
330
1F
100
AcDbEntity
  8
0
  6
Continuous
 62
     7
370
    15
100
AcDbLine
 10
715.6590420316
 20
596.0165808166
 30
0.0
 11
714.7816736709
 21
596.9362555719
 31
0.0
  0
LWPOLYLINE
  5
347
330
1F
100
AcDbEntity
  8
0
  6
Continuous
 62
     7
370
    15
100
AcDbPolyline
 90
       10
 70
   128
 43
0.0
 10
716.6004524133
 20
601.036302528
 10
716.1969860326
 20
600.4798478555
 10
715.8375342643
 20
599.9373348876
 10
715.5255275327
 20
599.413950207
 10
715.2639431174
 20
598.9146766821
 10
715.0552763753
 20
598.4442784464
 10
714.9015183828
 20
598.0072517523
 10
714.8041370686
 20
597.6077628591
 10
714.7640614969
 20
597.2496266858
 10
714.7816736709
 20
596.9362555719
  0
LINE
  5
348
330
1F
100
AcDbEntity
  8
0
  6
Continuous
 62
     7
370
    15
100
AcDbLine
 10
724.289489804
 20
606.0936139558
 30
0.0
 11
723.4121214928
 21
607.0132886826
 31
0.0
  0
LWPOLYLINE
  5
349
330
1F
100
AcDbEntity
  8
0
  6
Continuous
 62
     7
370
    15
100
AcDbPolyline
 90
       10
 70
   128
 43
0.0
 10
726.5981370368
 20
607.463362831
 10
726.5019916459
 20
607.5492229439
 10
726.2758087395
 20
607.6737311337
 10
725.9974685811
 20
607.7435389365
 10
725.669626159
 20
607.757975281
 10
725.2954100863
 20
607.7169138755
 10
724.8783913864
 20
607.6207375474
 10
724.4225492487
 20
607.4703668417
 10
723.9322328988
 20
607.2672386186
 10
723.4121214928
 20
607.0132886826
  0
LINE
  5
34A
330
1F
100
AcDbEntity
  8
0
  6
Continuous
 62
     7
370
    15
100
AcDbLine
 10
715.822935057
 20
595.591544957
 30
0.0
 11
714.9455666798
 21
596.5112197218
 31
0.0
  0
LINE
  5
34B
330
1F
100
AcDbEntity
  8
0
  6
Continuous
 62
     7
370
    15
100
AcDbLine
 10
714.9455666798
 20
596.5112197218
 30
0.0
 11
715.0212879713
 21
596.4190620095
 31
0.0
  0
ARC
  5
34C
330
1F
100
AcDbEntity
  8
0
  6
Continuous
 62
     7
370
    15
100
AcDbCircle
 10
679.4358219609
 20
596.3229014017
 30
0.0
 40
1.127038282983635
100
AcDbArc
 50
85.6422435582
 51
119.0045607868
  0
LWPOLYLINE
  5
34D
330
1F
100
AcDbEntity
  8
0
  6
Continuous
 62
     7
370
    15
100
AcDbPolyline
 90
        8
 70
   128
 43
0.0
 10
679.8368675536
 20
597.8555812159
 10
680.050745951
 20
597.947990834
 10
680.3233475525
 20
597.9944788706
 10
680.6197031178
 20
597.9768128364
 10
680.9328668463
 20
597.8954009044
 10
681.2554925423
 20
597.7521672692
 10
681.5800274905
 20
597.5504499581
 10
681.8868818358
 20
597.3056608033
  0
LWPOLYLINE
  5
34E
330
1F
100
AcDbEntity
  8
0
  6
Continuous
 62
     7
370
    15
100
AcDbPolyline
 90
        3
 70
   128
 43
0.0
 10
721.2153293618
 20
591.4145481292
 10
721.2126114169
 20
591.4471148495
 10
721.204027421
 20
591.5318105986
  0
LWPOLYLINE
  5
34F
330
1F
100
AcDbEntity
  8
0
  6
Continuous
 62
     7
370
    15
100
AcDbPolyline
 90
       19
 70
   128
 43
0.0
 10
718.5431045054
 20
591.8323375902
 10
718.4603983863
 20
592.0209035096
 10
718.3409727063
 20
592.1895024114
 10
718.1992320316
 20
592.3178119201
 10
718.0522723258
 20
592.3903462712
 10
717.9178190716
 20
592.3983620519
 10
717.8120894216
 20
592.3408928097
 10
717.7478358267
 20
592.2248661132
 10
717.7328082361
 20
592.0642781346
 10
717.7688192279
 20
591.8784994026
 10
717.8515253717
 20
591.689938336
 10
717.9709510352
 20
591.5213345767
 10
718.11269171
 20
591.393029935
 10
718.2596514487
 20
591.3204955649
 10
718.3941046699
 20
591.3124798032
 10
718.4998343528
 20
591.3699490264
 10
718.5640879478
 20
591.4859757229
 10
718.5791155136
 20
591.6465637158
 10
718.5431045054
 20
591.8323375902
  0
LINE
  5
350
330
1F
100
AcDbEntity
  8
0
  6
Continuous
 62
     7
370
    15
100
AcDbLine
 10
716.7459861398
 20
594.6239863681
 30
0.0
 11
678.5739356574
 21
596.8996880499
 31
0.0
  0
LINE
  5
351
330
1F
100
AcDbEntity
  8
0
  6
Continuous
 62
     7
370
    15
100
AcDbLine
 10
683.5465978615
 20
591.2342218481
 30
0.0
 11
718.254351713
 21
589.1650474328
 31
0.0
  0
ARC
  5
352
330
1F
100
AcDbEntity
  8
0
  6
Continuous
 62
     7
370
    15
100
AcDbCircle
 10
678.4821054527
 20
595.8042580746
 30
0.0
 40
1.099272312701844
100
AcDbArc
 50
85.2080827302
 51
119.4387216149
  0
LINE
  5
353
330
1F
100
AcDbEntity
  8
0
  6
Continuous
 62
     7
370
    15
100
AcDbLine
 10
716.1355465959
 20
595.2638583616
 30
0.0
 11
679.5214587151
 21
597.4466814681
 31
0.0
  0
ARC
  5
354
330
1F
100
AcDbEntity
  8
0
  6
Continuous
 62
     7
370
    15
100
AcDbCircle
 10
679.4296285104
 20
596.3512514927
 30
0.0
 40
1.099272312699189
100
AcDbArc
 50
85.2080827302
 51
119.4387216149
  0
ARC
  5
355
330
1F
100
AcDbEntity
  8
0
  6
Continuous
 62
     7
370
    15
100
AcDbCircle
 10
680.3771515681
 20
596.8982449108
 30
0.0
 40
1.099272312700633
100
AcDbArc
 50
85.2080827302
 51
119.4387216149
  0
LINE
  5
356
330
1F
100
AcDbEntity
  8
0
  6
Continuous
 62
     7
370
    15
100
AcDbLine
 10
680.4689817728
 20
597.9936748862
 30
0.0
 11
715.5121749501
 21
595.9045038252
 31
0.0
  0
LINE
  5
357
330
1F
100
AcDbEntity
  8
0
  6
Continuous
 62
     7
370
    15
100
AcDbLine
 10
681.4165048305
 20
598.5406683043
 30
0.0
 11
714.9017355379
 21
596.5443806097
 31
0.0
  0
ARC
  5
358
330
1F
100
AcDbEntity
  8
0
  6
Continuous
 62
     7
370
    15
100
AcDbCircle
 10
681.3246746259
 20
597.4452383289
 30
0.0
 40
1.099272312702989
100
AcDbArc
 50
85.2080827302
 51
119.4387216149
  0
ARC
  5
359
330
1F
100
AcDbEntity
  8
0
  6
Continuous
 62
     7
370
    15
100
AcDbCircle
 10
681.3299081977
 20
597.4212820159
 30
0.0
 40
1.122730884727798
100
AcDbArc
 50
85.5763626092
 51
119.0704417359
  0
LINE
  5
35A
330
1F
100
AcDbEntity
  8
0
  6
Continuous
 62
     7
370
    15
100
AcDbLine
 10
722.7898888655
 20
539.4790030578
 30
0.0
 11
687.6756511165
 21
590.988057117
 31
0.0
  0
ARC
  5
35B
330
1F
100
AcDbEntity
  8
0
  6
Continuous
 62
     7
370
    15
100
AcDbCircle
 10
719.1673468306
 20
536.8901214503
 30
0.0
 40
4.452540709787504
100
AcDbArc
 50
2.2020823307
 51
35.5518304974
  0
LWPOLYLINE
  5
35C
330
1F
100
AcDbEntity
  8
0
  6
Continuous
 62
     7
370
    15
100
AcDbPolyline
 90
       11
 70
   128
 43
0.0
 10
711.9925019042
 20
552.1458414319
 10
712.0286206997
 20
552.1724543302
 10
712.0969080773
 20
552.2838052809
 10
712.1164210145
 20
552.4411919034
 10
712.0848066635
 20
552.6256285647
 10
712.0058772066
 20
552.8148711704
 10
711.8891525633
 20
552.9860939511
 10
711.7487118884
 20
553.1186452727
 10
711.6014950539
 20
553.1965369277
 10
711.4652574734
 20
553.2103730859
 10
711.3925509987
 20
553.1851000361
  0
LWPOLYLINE
  5
35D
330
1F
100
AcDbEntity
  8
0
  6
Continuous
 62
     7
370
    15
100
AcDbPolyline
 90
       11
 70
   128
 43
0.0
 10
702.1897486942
 20
566.5254932867
 10
702.2258685434
 20
566.5521067934
 10
702.2941548673
 20
566.6634571356
 10
702.3136688582
 20
566.8208443666
 10
702.2820545071
 20
567.0052798112
 10
702.2031239966
 20
567.1945230251
 10
702.086400407
 20
567.3657451976
 10
701.9459586783
 20
567.4982983442
 10
701.7987418438
 20
567.5761887824
 10
701.6625042634
 20
567.5900261574
 10
701.5897988423
 20
567.5647512826
  0
LWPOLYLINE
  5
35E
330
1F
100
AcDbEntity
  8
0
  6
Continuous
 62
     7
370
    15
100
AcDbPolyline
 90
       11
 70
   128
 43
0.0
 10
692.3869965378
 20
580.9051469666
 10
692.423116387
 20
580.9317580399
 10
692.491402711
 20
581.0431108156
 10
692.5109167018
 20
581.2004956131
 10
692.4793002434
 20
581.3849322742
 10
692.4003718402
 20
581.5741742716
 10
692.2836482506
 20
581.7453988776
 10
692.143206522
 20
581.8779495907
 10
691.9959896875
 20
581.9558400289
 10
691.859752107
 20
581.9696774039
 10
691.7870445786
 20
581.9444061791
  0
LWPOLYLINE
  5
35F
330
1F
100
AcDbEntity
  8
0
  6
Continuous
 62
     7
370
    15
100
AcDbPolyline
 90
       12
 70
   128
 43
0.0
 10
723.9426803781
 20
536.2346657108
 10
724.1232742239
 20
536.3677290614
 10
724.3051063968
 20
536.5847334868
 10
724.4410824034
 20
536.8570931024
 10
724.5278542034
 20
537.1781012241
 10
724.5632850833
 20
537.5398542365
 10
724.5465027351
 20
537.9334442236
 10
724.4779201978
 20
538.3491792768
 10
724.359226243
 20
538.7768232676
 10
724.193343623
 20
539.2058456563
 10
723.9843568941
 20
539.6256827798
 10
723.737412055
 20
540.0259965519
  0
LINE
  5
360
330
1F
100
AcDbEntity
  8
0
  6
Continuous
 62
     7
370
    15
100
AcDbLine
 10
723.737412055
 20
540.0259965519
 30
0.0
 11
689.0520016308
 21
590.9060043105
 31
0.0
  0
LWPOLYLINE
  5
361
330
1F
100
AcDbEntity
  8
0
  6
Continuous
 62
     7
370
    15
100
AcDbPolyline
 90
        9
 70
   128
 43
0.0
 10
683.7819280829
 20
598.3996477156
 10
683.6223769732
 20
598.5336834927
 10
683.2913977718
 20
598.7656654054
 10
682.9589476454
 20
598.9382045336
 10
682.6332157267
 20
599.0470503538
 10
682.3222225609
 20
599.0895194889
 10
682.0336262304
 20
599.0645686941
 10
681.7745326939
 20
598.9728070063
 10
681.7319138007
 20
598.9495681282
  0
LWPOLYLINE
  5
362
330
1F
100
AcDbEntity
  8
0
  6
Continuous
 62
     7
370
    15
100
AcDbPolyline
 90
       19
 70
   128
 43
0.0
 10
718.0412811521
 20
535.6048283466
 10
717.9324556678
 20
535.5529419138
 10
717.7962181944
 20
535.566779227
 10
717.6490009853
 20
535.6446710982
 10
717.5085606109
 20
535.7772216379
 10
717.3918362804
 20
535.9484448465
 10
717.312906593
 20
536.1376875852
 10
717.2812917151
 20
536.3221245506
 10
717.3008048499
 20
536.4795104508
 10
717.3690923921
 20
536.5908613064
 10
717.4779178764
 20
536.6427477392
 10
717.6141553498
 20
536.628910426
 10
717.7613725589
 20
536.5510185548
 10
717.9018129333
 20
536.4184680151
 10
718.0185372638
 20
536.2472448065
 10
718.0974669512
 20
536.0580020678
 10
718.1290818291
 20
535.8735651024
 10
718.1095686943
 20
535.7161792022
 10
718.0412811521
 20
535.6048283466
  0
LWPOLYLINE
  5
363
330
1F
100
AcDbEntity
  8
0
  6
Continuous
 62
     7
370
    15
100
AcDbPolyline
 90
       19
 70
   128
 43
0.0
 10
678.8302697608
 20
593.1234367543
 10
678.7214465979
 20
593.0715495898
 10
678.5852069101
 20
593.0853906148
 10
678.4379921829
 20
593.1632798365
 10
678.2975504543
 20
593.295832983
 10
678.1808247574
 20
593.4670539386
 10
678.1018963542
 20
593.656295936
 10
678.0702820031
 20
593.840733814
 10
678.089795994
 20
593.9981186116
 10
678.1580823179
 20
594.1094713872
 10
678.2669054808
 20
594.1613585518
 10
678.4031451686
 20
594.1475175268
 10
678.5503598957
 20
594.0696283051
 10
678.6908016243
 20
593.9370751585
 10
678.8075273213
 20
593.765854203
 10
678.8864557245
 20
593.5766122056
 10
678.9180700756
 20
593.3921743275
 10
678.8985560847
 20
593.23478953
 10
678.8302697608
 20
593.1234367543
  0
LINE
  5
364
330
1F
100
AcDbEntity
  8
0
  6
Continuous
 62
     7
370
    15
100
AcDbLine
 10
679.7887860336
 20
594.8096396182
 30
0.0
 11
718.999796503
 21
537.2910293092
 31
0.0
  0
LWPOLYLINE
  5
365
330
1F
100
AcDbEntity
  8
0
  6
Continuous
 62
     7
370
    15
100
AcDbPolyline
 90
       21
 70
   128
 43
0.0
 10
718.999796503
 20
537.2910293092
 10
719.2467413422
 20
536.890715537
 10
719.455728071
 20
536.4708784135
 10
719.6216106911
 20
536.0418560249
 10
719.7403046458
 20
535.614212034
 10
719.8088871831
 20
535.1984769809
 10
719.8256695313
 20
534.8048869938
 10
719.7902386514
 20
534.4431339814
 10
719.7034668514
 20
534.1221258597
 10
719.5674908448
 20
533.849766244
 10
719.3856586719
 20
533.6327618187
 10
719.1624476451
 20
533.4764555598
 10
718.9033541086
 20
533.3846969138
 10
718.6147577123
 20
533.3597449402
 10
718.3037646123
 20
533.4022143415
 10
717.9780325619
 20
533.5110587169
 10
717.6455821351
 20
533.6835986268
 10
717.3145993817
 20
533.9155850236
 10
716.9932341728
 20
534.2013062338
 10
716.6893995834
 20
534.5337265865
 10
716.4105770412
 20
534.9046603438
  0
LINE
  5
366
330
1F
100
AcDbEntity
  8
0
  6
Continuous
 62
     7
370
    15
100
AcDbLine
 10
716.4105770412
 20
534.9046603438
 30
0.0
 11
677.199566045
 21
592.4232685234
 31
0.0
  0
LWPOLYLINE
  5
367
330
1F
100
AcDbEntity
  8
0
  6
Continuous
 62
     7
370
    15
100
AcDbPolyline
 90
       21
 70
   128
 43
0.0
 10
677.199566045
 20
592.4232685234
 10
676.9526234449
 20
592.8235822197
 10
676.7436340819
 20
593.2434232974
 10
676.5777525155
 20
593.6724450778
 10
676.4590585607
 20
594.1000890686
 10
676.3904772088
 20
594.5158234374
 10
676.3736943338
 20
594.9094131203
 10
676.4091229746
 20
595.2711631667
 10
676.4958949063
 20
595.5921718207
 10
676.6318732837
 20
595.8645325013
 10
676.8137032175
 20
596.0815382192
 10
677.0369171419
 20
596.2378397635
 10
677.2960106785
 20
596.3296014513
 10
677.584607009
 20
596.3545522462
 10
677.8956001748
 20
596.3120831111
 10
678.2213320935
 20
596.2032372908
 10
678.5537822198
 20
596.0306981627
 10
678.8847614212
 20
595.79871625
 10
679.2061269264
 20
595.5129948687
 10
679.5099635573
 20
595.1805709039
 10
679.7887860336
 20
594.8096396182
  0
LWPOLYLINE
  5
368
330
1F
100
AcDbEntity
  8
0
  6
Continuous
 62
     7
370
    15
100
AcDbPolyline
 90
       12
 70
   128
 43
0.0
 10
719.9473196924
 20
537.8380228034
 10
720.1942645316
 20
537.4377090312
 10
720.4032512604
 20
537.0178719077
 10
720.5691338805
 20
536.588849519
 10
720.6878278352
 20
536.1612055282
 10
720.7564103725
 20
535.7454704751
 10
720.7731927208
 20
535.351880488
 10
720.7377618409
 20
534.9901274756
 10
720.6509900408
 20
534.6691193539
 10
720.5150140343
 20
534.3967597382
 10
720.3331818614
 20
534.1797553129
 10
720.1525880156
 20
534.0466919623
  0
LINE
  5
369
330
1F
100
AcDbEntity
  8
0
  6
Continuous
 62
     7
370
    15
100
AcDbLine
 10
680.7363092231
 20
595.3566331123
 30
0.0
 11
719.9473196924
 21
537.8380228034
 31
0.0
  0
LWPOLYLINE
  5
36A
330
1F
100
AcDbEntity
  8
0
  6
Continuous
 62
     7
370
    15
100
AcDbPolyline
 90
       11
 70
   128
 43
0.0
 10
677.9418214381
 20
596.7615943796
 10
677.9844403314
 20
596.7848332577
 10
678.2435338679
 20
596.8765949455
 10
678.5321301984
 20
596.9015457404
 10
678.8431233642
 20
596.8590766052
 10
679.1688552829
 20
596.750230785
 10
679.5013054093
 20
596.5776916568
 10
679.8322846106
 20
596.3457097441
 10
680.1536501158
 20
596.0599883629
 10
680.4574867467
 20
595.7275643981
 10
680.7363092231
 20
595.3566331123
  0
ARC
  5
36B
330
1F
100
AcDbEntity
  8
0
  6
Continuous
 62
     7
370
    15
100
AcDbCircle
 10
716.2985529506
 20
535.2401742539
 30
0.0
 40
4.479097657107785
100
AcDbArc
 50
2.303811307
 51
35.4501015211
  0
LWPOLYLINE
  5
36C
330
1F
100
AcDbEntity
  8
0
  6
Continuous
 62
     7
370
    15
100
AcDbPolyline
 90
       16
 70
   128
 43
0.0
 10
723.6165994308
 20
537.0612064347
 10
723.5904824776
 20
537.4594885906
 10
723.5127746208
 20
537.8781183259
 10
723.385389459
 20
538.306786301
 10
723.2114633763
 20
538.7349384217
 10
722.9952791511
 20
539.152031652
 10
722.7421599304
 20
539.547795984
 10
722.4583384427
 20
539.9124857577
 10
722.1508031624
 20
540.2371217792
 10
721.8271267586
 20
540.5137108109
 10
721.4952791347
 20
540.7354411081
 10
721.1634315107
 20
540.8968539221
 10
720.8397551069
 20
540.9939737116
 10
720.5322198266
 20
541.0244103668
 10
720.2483983389
 20
540.9874139076
 10
719.9954010806
 20
540.8839649334
  0
LINE
  5
36D
330
1F
100
AcDbEntity
  8
0
  6
Continuous
 62
     7
370
    15
100
AcDbLine
 10
716.5313896654
 20
534.7350262275
 30
0.0
 11
716.5313896654
 21
533.7867463408
 31
0.0
  0
LINE
  5
36E
330
1F
100
AcDbEntity
  8
0
  6
Continuous
 62
     7
370
    15
100
AcDbLine
 10
720.7740302577
 20
531.33752206
 30
0.0
 11
720.7740302577
 21
535.4202261803
 31
0.0
  0
LINE
  5
36F
330
1F
100
AcDbEntity
  8
0
  6
Continuous
 62
     7
370
    15
100
AcDbLine
 10
716.5313896654
 20
533.7867463408
 30
0.0
 11
720.7740302577
 21
531.33752206
 31
0.0
  0
LINE
  5
370
330
1F
100
AcDbEntity
  8
0
  6
Continuous
 62
     7
370
    15
100
AcDbLine
 10
720.7740302577
 20
531.33752206
 30
0.0
 11
723.6165994308
 21
532.9785023144
 31
0.0
  0
LINE
  5
371
330
1F
100
AcDbEntity
  8
0
  6
Continuous
 62
     7
370
    15
100
AcDbLine
 10
723.6165994308
 20
532.9785023144
 30
0.0
 11
723.6165994308
 21
537.0612064347
 31
0.0
  0
LWPOLYLINE
  5
372
330
1F
100
AcDbEntity
  8
0
  6
Continuous
 62
     7
370
    15
100
AcDbPolyline
 90
      106
 70
   128
 43
0.0
 10
702.3963250184
 20
543.5877257254
 10
701.4805351791
 20
543.0301245475
 10
700.6174511592
 20
542.4451761698
 10
699.809519254
 20
541.8345385502
 10
699.0590279715
 20
541.1999440077
 10
698.3681067814
 20
540.5431899844
 10
697.7387126143
 20
539.8661385513
 10
697.1726314431
 20
539.1707088048
 10
696.6714659016
 20
538.4588721527
 10
696.2366373924
 20
537.7326462313
 10
695.869377657
 20
536.9940900395
 10
695.5707293031
 20
536.2452969434
 10
695.3415379019
 20
535.488388898
 10
695.1824535686
 20
534.7255112766
 10
695.0939272743
 20
533.9588283091
 10
695.0762097928
 20
533.1905115244
 10
695.1293506468
 20
532.4227391428
 10
695.2532002148
 20
531.6576875592
 10
695.4474065707
 20
530.8975258699
 10
695.7114196981
 20
530.1444073555
 10
696.0444920174
 20
529.400469178
 10
696.4456773316
 20
528.6678183894
 10
696.913840837
 20
527.9485322369
 10
697.4476533274
 20
527.2446493422
 10
698.0456038381
 20
526.5581660521
 10
698.7059951683
 20
525.8910268584
 10
699.4269562613
 20
525.2451233333
 10
700.2064445755
 20
524.6222866778
 10
701.0422492453
 20
524.0242822477
 10
701.9320013543
 20
523.4528048395
 10
702.8731789406
 20
522.9094745841
 10
703.8631141085
 20
522.3958316247
 10
704.8990004049
 20
521.9133318592
 10
705.9779020383
 20
521.4633428337
 10
707.0967609914
 20
521.0471408538
 10
708.252405187
 20
520.6659050537
 10
709.4415579712
 20
520.3207155714
 10
710.6608510204
 20
520.0125521802
 10
711.9068261857
 20
519.7422871413
 10
713.175952088
 20
519.5106877891
 10
714.4646304403
 20
519.318409232
 10
715.7692113253
 20
519.1659976977
 10
717.0859926692
 20
519.0538847548
 10
718.4112444761
 20
518.982387921
 10
719.7412093543
 20
518.951710359
 10
721.0721172682
 20
518.9619384433
 10
722.4001950212
 20
519.0130435852
 10
723.7216810072
 20
519.1048810161
 10
725.0328262638
 20
519.2371903957
 10
726.3299144928
 20
519.4095964206
 10
727.6092699622
 20
519.621610953
 10
728.8672664623
 20
519.8726321083
 10
730.1003373163
 20
520.1619488171
 10
731.3049874966
 20
520.4887405213
 10
732.477802055
 20
520.8520820399
 10
733.6154566586
 20
521.2509423531
 10
734.7147257565
 20
521.6841917484
 10
735.7724957503
 20
522.1506009095
 10
736.7857658502
 20
522.6488487087
 10
737.7516640778
 20
523.1775229298
 10
738.6674539171
 20
523.7351241077
 10
739.530537937
 20
524.3200724854
 10
740.3384698422
 20
524.930710105
 10
741.0889611246
 20
525.5653046475
 10
741.7798823148
 20
526.2220586708
 10
742.4092764819
 20
526.8991101039
 10
742.9753576531
 20
527.5945398503
 10
743.4765231945
 20
528.3063765025
 10
743.9113517038
 20
529.0326024239
 10
744.2786114392
 20
529.7711586157
 10
744.5772597931
 20
530.5199517118
 10
744.8064511942
 20
531.2768597572
 10
744.9655355276
 20
532.0397373786
 10
745.0540618219
 20
532.8064203461
 10
745.0717793033
 20
533.5747371307
 10
745.0186384494
 20
534.3425095124
 10
744.8947888814
 20
535.1075610959
 10
744.7005825255
 20
535.8677227853
 10
744.436569398
 20
536.6208412996
 10
744.1034970788
 20
537.3647794772
 10
743.7023117646
 20
538.0974302657
 10
743.2341482591
 20
538.8167164182
 10
742.7003357688
 20
539.520599313
 10
742.1023852581
 20
540.207082603
 10
741.4419939279
 20
540.8742217967
 10
740.7210328349
 20
541.5201253219
 10
739.9415445207
 20
542.1429619774
 10
739.1057398509
 20
542.7409664074
 10
738.2159877418
 20
543.3124438157
 10
737.2748101556
 20
543.8557740711
 10
736.2848749876
 20
544.3694170304
 10
735.2489886913
 20
544.851916796
 10
734.1700870579
 20
545.3019058215
 10
733.0512281048
 20
545.7181078014
 10
731.8955839091
 20
546.0993436015
 10
730.706431125
 20
546.4445330838
 10
729.4871380758
 20
546.752696475
 10
728.2411629105
 20
547.0229615139
 10
726.9720370081
 20
547.2545608661
 10
725.6833586559
 20
547.4468394232
 10
724.3787777709
 20
547.5992509575
 10
723.0619964269
 20
547.7113639004
 10
721.7367446201
 20
547.7828607342
 10
720.4067797419
 20
547.8135382962
 10
719.075871828
 20
547.8033102118
 10
718.4485138806
 20
547.7842786149
  0
ARC
  5
373
330
1F
100
AcDbEntity
  8
0
  6
Continuous
 62
     7
370
    15
100
AcDbCircle
 10
716.7481161716
 20
518.2376915037
 30
0.0
 40
29.13070792729381
100
AcDbArc
 50
106.0605632956
 51
119.5161460362
  0
LWPOLYLINE
  5
374
330
1F
100
AcDbEntity
  8
0
  6
Continuous
 62
     7
370
    15
100
AcDbPolyline
 90
       61
 70
   128
 43
0.0
 10
695.0739949759
 20
530.1001303646
 10
695.0762097928
 20
529.9080175614
 10
695.1293506468
 20
529.1402451797
 10
695.2532002148
 20
528.3751935962
 10
695.4474065707
 20
527.6150319068
 10
695.7114196981
 20
526.8619133925
 10
696.0444920174
 20
526.1179752149
 10
696.4456773316
 20
525.3853244264
 10
696.913840837
 20
524.6660382739
 10
697.4476533274
 20
523.9621553792
 10
698.0456038381
 20
523.2756720891
 10
698.7059951683
 20
522.6085328954
 10
699.4269562613
 20
521.9626293702
 10
700.2064445755
 20
521.3397927147
 10
701.0422492453
 20
520.7417882847
 10
701.9320013543
 20
520.1703108765
 10
702.8731789406
 20
519.6269806211
 10
703.8631141085
 20
519.1133376617
 10
704.8990004049
 20
518.6308378961
 10
705.9779020383
 20
518.1808488706
 10
707.0967609914
 20
517.7646468907
 10
708.252405187
 20
517.3834110906
 10
709.4415579712
 20
517.0382216084
 10
710.6608510204
 20
516.7300582172
 10
711.9068261857
 20
516.4597931782
 10
713.175952088
 20
516.228193826
 10
714.4646304403
 20
516.0359152689
 10
715.7692113253
 20
515.8835037346
 10
717.0859926692
 20
515.7713907917
 10
718.4112444761
 20
515.699893958
 10
719.7412093543
 20
515.669216396
 10
721.0721172682
 20
515.6794444803
 10
722.4001950212
 20
515.7305496222
 10
723.7216810072
 20
515.822387053
 10
725.0328262638
 20
515.9546964327
 10
726.3299144928
 20
516.1271024576
 10
727.6092699622
 20
516.33911699
 10
728.8672664623
 20
516.5901381452
 10
730.1003373163
 20
516.879454854
 10
731.3049874966
 20
517.2062465582
 10
732.477802055
 20
517.5695880769
 10
733.6154566586
 20
517.96844839
 10
734.7147257565
 20
518.4016977854
 10
735.7724957503
 20
518.8681069465
 10
736.7857658502
 20
519.3663547457
 10
737.7516640778
 20
519.8950289668
 10
738.6674539171
 20
520.4526301447
 10
739.530537937
 20
521.0375785224
 10
740.3384698422
 20
521.648216142
 10
741.0889611246
 20
522.2828106845
 10
741.7798823148
 20
522.9395647078
 10
742.4092764819
 20
523.6166161408
 10
742.9753576531
 20
524.3120458873
 10
743.4765231945
 20
525.0238825394
 10
743.9113517038
 20
525.7501084608
 10
744.2786114392
 20
526.4886646527
 10
744.5772597931
 20
527.2374577488
 10
744.8064511942
 20
527.9943657942
 10
744.9655355276
 20
528.7572434156
 10
745.0540618219
 20
529.5239263831
 10
745.0739941202
 20
530.1001303646
  0
ENDSEC
  0
SECTION
  2
OBJECTS
  0
DICTIONARY
  5
C
330
0
100
AcDbDictionary
281
     1
  3
ACAD_GROUP
350
D
  3
ACAD_LAYOUT
350
1A
  3
ACAD_MLINESTYLE
350
17
  3
ACAD_PLOTSETTINGS
350
19
  3
ACAD_PLOTSTYLENAME
350
E
  3
ACAD_SCALELIST
350
47
  0
DICTIONARY
  5
D
102
{ACAD_REACTORS
330
C
102
}
330
C
100
AcDbDictionary
281
     1
  0
DICTIONARY
  5
1A
102
{ACAD_REACTORS
330
C
102
}
330
C
100
AcDbDictionary
281
     1
  3
Layout1
350
1E
  3
Layout2
350
26
  3
Model
350
22
  0
DICTIONARY
  5
17
102
{ACAD_REACTORS
330
C
102
}
330
C
100
AcDbDictionary
281
     1
  3
Standard
350
18
  0
DICTIONARY
  5
19
102
{ACAD_REACTORS
330
C
102
}
330
C
100
AcDbDictionary
281
     1
  0
ACDBDICTIONARYWDFLT
  5
E
102
{ACAD_REACTORS
330
C
102
}
330
C
100
AcDbDictionary
281
     1
  3
Normal
350
F
100
AcDbDictionaryWithDefault
340
F
  0
DICTIONARY
  5
47
102
{ACAD_REACTORS
330
C
102
}
330
C
100
AcDbDictionary
281
     1
  3
A0
350
48
  3
A1
350
49
  3
A2
350
4A
  3
A3
350
4B
  3
A4
350
4C
  3
A5
350
4D
  3
A6
350
4E
  3
A7
350
4F
  3
A8
350
50
  3
A9
350
51
  3
B0
350
52
  3
B1
350
53
  3
B2
350
54
  3
B3
350
55
  3
B4
350
56
  3
B5
350
57
  3
B6
350
58
  3
B7
350
59
  3
B8
350
5A
  3
B9
350
5B
  3
C0
350
5C
  3
C1
350
5D
  3
C2
350
5E
  3
C3
350
5F
  3
C4
350
60
  3
C5
350
61
  3
C6
350
62
  3
C7
350
63
  3
C8
350
64
  3
C9
350
65
  3
D0
350
66
  3
D1
350
67
  3
D2
350
68
  0
LAYOUT
  5
1E
102
{ACAD_REACTORS
330
1A
102
}
330
1A
100
AcDbPlotSettings
  1

  2
none_device
  4

  6

 40
0.0
 41
0.0
 42
0.0
 43
0.0
 44
0.0
 45
0.0
 46
0.0
 47
0.0
 48
0.0
 49
0.0
140
0.0
141
0.0
142
1.0
143
1.0
 70
   688
 72
     1
 73
     0
 74
     5
  7

 75
    16
147
1.0
148
0.0
149
0.0
100
AcDbLayout
  1
Layout1
 70
     1
 71
     1
 10
0.0
 20
0.0
 11
420.0
 21
297.0
 12
0.0
 22
0.0
 32
0.0
 14
1.0000000000E+20
 24
1.0000000000E+20
 34
1.0000000000E+20
 15
-1.0000000000E+20
 25
-1.0000000000E+20
 35
-1.0000000000E+20
146
0.0
 13
0.0
 23
0.0
 33
0.0
 16
1.0
 26
0.0
 36
0.0
 17
0.0
 27
1.0
 37
0.0
 76
     0
330
1B
  0
LAYOUT
  5
26
102
{ACAD_REACTORS
330
1A
102
}
330
1A
100
AcDbPlotSettings
  1

  2
none_device
  4

  6

 40
0.0
 41
0.0
 42
0.0
 43
0.0
 44
0.0
 45
0.0
 46
0.0
 47
0.0
 48
0.0
 49
0.0
140
0.0
141
0.0
142
1.0
143
1.0
 70
   688
 72
     1
 73
     0
 74
     5
  7

 75
    16
147
1.0
148
0.0
149
0.0
100
AcDbLayout
  1
Layout2
 70
     1
 71
     2
 10
0.0
 20
0.0
 11
0.0
 21
0.0
 12
0.0
 22
0.0
 32
0.0
 14
0.0
 24
0.0
 34
0.0
 15
0.0
 25
0.0
 35
0.0
146
0.0
 13
0.0
 23
0.0
 33
0.0
 16
1.0
 26
0.0
 36
0.0
 17
0.0
 27
1.0
 37
0.0
 76
     0
330
23
  0
LAYOUT
  5
22
102
{ACAD_REACTORS
330
1A
102
}
330
1A
100
AcDbPlotSettings
  1

  2
none_device
  4
Letter_(8.50_x_11.00_Inches)
  6

 40
6.35
 41
6.35
 42
6.35000508
 43
6.35000508
 44
215.9
 45
279.4
 46
0.0
 47
0.0
 48
0.0
 49
0.0
140
0.0
141
0.0
142
1.0
143
1.0
 70
  1712
 72
     1
 73
     0
 74
     0
  7

 75
     0
147
1.0
148
0.0
149
0.0
100
AcDbLayout
  1
Model
 70
     1
 71
     0
 10
0.0
 20
0.0
 11
1189.0
 21
841.0
 12
0.0
 22
0.0
 32
0.0
 14
0.0
 24
0.0
 34
0.0
 15
1189.0
 25
841.0
 35
0.0
146
0.0
 13
0.0
 23
0.0
 33
0.0
 16
1.0
 26
0.0
 36
0.0
 17
0.0
 27
1.0
 37
0.0
 76
     0
330
1F
331
29
  0
MLINESTYLE
  5
18
102
{ACAD_REACTORS
330
17
102
}
330
17
100
AcDbMlineStyle
  2
Standard
 70
     0
  3

 62
   256
 51
90.0
 52
90.0
 71
     2
 49
0.5
 62
   256
  6
BYLAYER
 49
-0.5
 62
   256
  6
BYLAYER
  0
ACDBPLACEHOLDER
  5
F
102
{ACAD_REACTORS
330
E
102
}
330
E
  0
SCALE
  5
48
102
{ACAD_REACTORS
330
47
102
}
330
47
100
AcDbScale
 70
     0
300
1:1
140
1.0
141
1.0
290
     1
  0
SCALE
  5
49
102
{ACAD_REACTORS
330
47
102
}
330
47
100
AcDbScale
 70
     0
300
1:2
140
1.0
141
2.0
290
     0
  0
SCALE
  5
4A
102
{ACAD_REACTORS
330
47
102
}
330
47
100
AcDbScale
 70
     0
300
1:4
140
1.0
141
4.0
290
     0
  0
SCALE
  5
4B
102
{ACAD_REACTORS
330
47
102
}
330
47
100
AcDbScale
 70
     0
300
1:5
140
1.0
141
5.0
290
     0
  0
SCALE
  5
4C
102
{ACAD_REACTORS
330
47
102
}
330
47
100
AcDbScale
 70
     0
300
1:8
140
1.0
141
8.0
290
     0
  0
SCALE
  5
4D
102
{ACAD_REACTORS
330
47
102
}
330
47
100
AcDbScale
 70
     0
300
1:10
140
1.0
141
10.0
290
     0
  0
SCALE
  5
4E
102
{ACAD_REACTORS
330
47
102
}
330
47
100
AcDbScale
 70
     0
300
1:16
140
1.0
141
16.0
290
     0
  0
SCALE
  5
4F
102
{ACAD_REACTORS
330
47
102
}
330
47
100
AcDbScale
 70
     0
300
1:20
140
1.0
141
20.0
290
     0
  0
SCALE
  5
50
102
{ACAD_REACTORS
330
47
102
}
330
47
100
AcDbScale
 70
     0
300
1:30
140
1.0
141
30.0
290
     0
  0
SCALE
  5
51
102
{ACAD_REACTORS
330
47
102
}
330
47
100
AcDbScale
 70
     0
300
1:40
140
1.0
141
40.0
290
     0
  0
SCALE
  5
52
102
{ACAD_REACTORS
330
47
102
}
330
47
100
AcDbScale
 70
     0
300
1:50
140
1.0
141
50.0
290
     0
  0
SCALE
  5
53
102
{ACAD_REACTORS
330
47
102
}
330
47
100
AcDbScale
 70
     0
300
1:100
140
1.0
141
100.0
290
     0
  0
SCALE
  5
54
102
{ACAD_REACTORS
330
47
102
}
330
47
100
AcDbScale
 70
     0
300
2:1
140
2.0
141
1.0
290
     0
  0
SCALE
  5
55
102
{ACAD_REACTORS
330
47
102
}
330
47
100
AcDbScale
 70
     0
300
4:1
140
4.0
141
1.0
290
     0
  0
SCALE
  5
56
102
{ACAD_REACTORS
330
47
102
}
330
47
100
AcDbScale
 70
     0
300
8:1
140
8.0
141
1.0
290
     0
  0
SCALE
  5
57
102
{ACAD_REACTORS
330
47
102
}
330
47
100
AcDbScale
 70
     0
300
10:1
140
10.0
141
1.0
290
     0
  0
SCALE
  5
58
102
{ACAD_REACTORS
330
47
102
}
330
47
100
AcDbScale
 70
     0
300
100:1
140
100.0
141
1.0
290
     0
  0
SCALE
  5
59
102
{ACAD_REACTORS
330
47
102
}
330
47
100
AcDbScale
 70
     0
300
1/128" = 1'-0"
140
0.0078125
141
12.0
290
     0
  0
SCALE
  5
5A
102
{ACAD_REACTORS
330
47
102
}
330
47
100
AcDbScale
 70
     0
300
1/64" = 1'-0"
140
0.015625
141
12.0
290
     0
  0
SCALE
  5
5B
102
{ACAD_REACTORS
330
47
102
}
330
47
100
AcDbScale
 70
     0
300
1/32" = 1'-0"
140
0.03125
141
12.0
290
     0
  0
SCALE
  5
5C
102
{ACAD_REACTORS
330
47
102
}
330
47
100
AcDbScale
 70
     0
300
1/16" = 1'-0"
140
0.0625
141
12.0
290
     0
  0
SCALE
  5
5D
102
{ACAD_REACTORS
330
47
102
}
330
47
100
AcDbScale
 70
     0
300
3/32" = 1'-0"
140
0.09375
141
12.0
290
     0
  0
SCALE
  5
5E
102
{ACAD_REACTORS
330
47
102
}
330
47
100
AcDbScale
 70
     0
300
1/8" = 1'-0"
140
0.125
141
12.0
290
     0
  0
SCALE
  5
5F
102
{ACAD_REACTORS
330
47
102
}
330
47
100
AcDbScale
 70
     0
300
3/16" = 1'-0"
140
0.1875
141
12.0
290
     0
  0
SCALE
  5
60
102
{ACAD_REACTORS
330
47
102
}
330
47
100
AcDbScale
 70
     0
300
1/4" = 1'-0"
140
0.25
141
12.0
290
     0
  0
SCALE
  5
61
102
{ACAD_REACTORS
330
47
102
}
330
47
100
AcDbScale
 70
     0
300
3/8" = 1'-0"
140
0.375
141
12.0
290
     0
  0
SCALE
  5
62
102
{ACAD_REACTORS
330
47
102
}
330
47
100
AcDbScale
 70
     0
300
1/2" = 1'-0"
140
0.5
141
12.0
290
     0
  0
SCALE
  5
63
102
{ACAD_REACTORS
330
47
102
}
330
47
100
AcDbScale
 70
     0
300
3/4" = 1'-0"
140
0.75
141
12.0
290
     0
  0
SCALE
  5
64
102
{ACAD_REACTORS
330
47
102
}
330
47
100
AcDbScale
 70
     0
300
1" = 1'-0"
140
1.0
141
12.0
290
     0
  0
SCALE
  5
65
102
{ACAD_REACTORS
330
47
102
}
330
47
100
AcDbScale
 70
     0
300
1-1/2" = 1'-0"
140
1.5
141
12.0
290
     0
  0
SCALE
  5
66
102
{ACAD_REACTORS
330
47
102
}
330
47
100
AcDbScale
 70
     0
300
3" = 1'-0"
140
3.0
141
12.0
290
     0
  0
SCALE
  5
67
102
{ACAD_REACTORS
330
47
102
}
330
47
100
AcDbScale
 70
     0
300
6" = 1'-0"
140
6.0
141
12.0
290
     0
  0
SCALE
  5
68
102
{ACAD_REACTORS
330
47
102
}
330
47
100
AcDbScale
 70
     0
300
1'-0" = 1'-0"
140
12.0
141
12.0
290
     0
  0
ENDSEC
  0
EOF
