  0
SECTION
  2
HEADER
  9
$ACADVER
  1
AC1015
  9
$ACADMAINTVER
 70
     6
  9
$DWGCODEPAGE
  3
ANSI_1252
  9
$INSBASE
 10
0.0
 20
0.0
 30
0.0
  9
$EXTMIN
 10
0.0
 20
0.0
 30
0.0
  9
$EXTMAX
 10
1189.0
 20
841.0
 30
0.0
  9
$LIMMIN
 10
0.0
 20
0.0
  9
$LIMMAX
 10
1189.0
 20
841.0
  9
$ORTHOMODE
 70
     0
  9
$REGENMODE
 70
     1
  9
$FILLMODE
 70
     1
  9
$QTEXTMODE
 70
     0
  9
$MIRRTEXT
 70
     1
  9
$LTSCALE
 40
1.0
  9
$ATTMODE
 70
     1
  9
$TEXTSIZE
 40
3.5
  9
$TRACEWID
 40
1.0
  9
$TEXTSTYLE
  7
Standard
  9
$CLAYER
  8
0
  9
$CELTYPE
  6
ByLayer
  9
$CECOLOR
 62
   256
  9
$CELTSCALE
 40
1.0
  9
$DISPSILH
 70
     0
  9
$DIMSCALE
 40
1.0
  9
$DIMASZ
 40
3.302
  9
$DIMEXO
 40
1.0
  9
$DIMDLI
 40
3.75
  9
$DIMRND
 40
0.0
  9
$DIMDLE
 40
0.0
  9
$DIMEXE
 40
1.0
  9
$DIMTP
 40
0.0
  9
$DIMTM
 40
0.0
  9
$DIMTXT
 40
3.5
  9
$DIMCEN
 40
2.5
  9
$DIMTSZ
 40
0.0
  9
$DIMTOL
 70
     0
  9
$DIMLIM
 70
     0
  9
$DIMTIH
 70
     1
  9
$DIMTOH
 70
     1
  9
$DIMSE1
 70
     0
  9
$DIMSE2
 70
     0
  9
$DIMTAD
 70
     1
  9
$DIMZIN
 70
     0
  9
$DIMBLK
  1

  9
$DIMASO
 70
     1
  9
$DIMSHO
 70
     1
  9
$DIMPOST
  1

  9
$DIMAPOST
  1

  9
$DIMALT
 70
     0
  9
$DIMALTD
 70
     3
  9
$DIMALTF
 40
0.0393700787
  9
$DIMLFAC
 40
5.0
  9
$DIMTOFL
 70
     1
  9
$DIMTVP
 40
0.0
  9
$DIMTIX
 70
     0
  9
$DIMSOXD
 70
     0
  9
$DIMSAH
 70
     0
  9
$DIMBLK1
  1

  9
$DIMBLK2
  1

  9
$DIMSTYLE
  2
ISO-25
  9
$DIMCLRD
 70
     0
  9
$DIMCLRE
 70
     0
  9
$DIMCLRT
 70
     0
  9
$DIMTFAC
 40
1.0
  9
$DIMGAP
 40
1.524
  9
$DIMJUST
 70
     0
  9
$DIMSD1
 70
     0
  9
$DIMSD2
 70
     0
  9
$DIMTOLJ
 70
     0
  9
$DIMTZIN
 70
     0
  9
$DIMALTZ
 70
     0
  9
$DIMALTTZ
 70
     0
  9
$DIMUPT
 70
     0
  9
$DIMDEC
 70
     2
  9
$DIMTDEC
 70
     2
  9
$DIMALTU
 70
     2
  9
$DIMALTTD
 70
     3
  9
$DIMTXSTY
  7
Standard
  9
$DIMAUNIT
 70
     0
  9
$DIMADEC
 70
     2
  9
$DIMALTRND
 40
0.0
  9
$DIMAZIN
 70
     0
  9
$DIMDSEP
 70
    44
  9
$DIMATFIT
 70
     3
  9
$DIMFRAC
 70
     0
  9
$DIMLDRBLK
  1

  9
$DIMLUNIT
 70
     2
  9
$DIMLWD
 70
    -2
  9
$DIMLWE
 70
    -2
  9
$DIMTMOVE
 70
     0
  9
$LUNITS
 70
     2
  9
$LUPREC
 70
     2
  9
$SKETCHINC
 40
1.0
  9
$FILLETRAD
 40
10.0
  9
$AUNITS
 70
     0
  9
$AUPREC
 70
     2
  9
$MENU
  1
.
  9
$ELEVATION
 40
0.0
  9
$PELEVATION
 40
0.0
  9
$THICKNESS
 40
0.0
  9
$LIMCHECK
 70
     0
  9
$CHAMFERA
 40
0.0
  9
$CHAMFERB
 40
0.0
  9
$CHAMFERC
 40
0.0
  9
$CHAMFERD
 40
0.0
  9
$SKPOLY
 70
     0
  9
$TDCREATE
 40
2458057.568837523
  9
$TDUCREATE
 40
2458057.568837523
  9
$TDUPDATE
 40
2458057.568837708
  9
$TDUUPDATE
 40
2458057.568837708
  9
$TDINDWG
 40
0.0000000116
  9
$TDUSRTIMER
 40
0.0000000116
  9
$USRTIMER
 70
     1
  9
$ANGBASE
 50
0.0
  9
$ANGDIR
 70
     0
  9
$PDMODE
 70
     0
  9
$PDSIZE
 40
-1.0
  9
$PLINEWID
 40
0.0
  9
$SPLFRAME
 70
     0
  9
$SPLINETYPE
 70
     6
  9
$SPLINESEGS
 70
     8
  9
$HANDSEED
  5
AF
  9
$SURFTAB1
 70
     6
  9
$SURFTAB2
 70
     6
  9
$SURFTYPE
 70
     6
  9
$SURFU
 70
     6
  9
$SURFV
 70
     6
  9
$UCSBASE
  2

  9
$UCSNAME
  2

  9
$UCSORG
 10
0.0
 20
0.0
 30
0.0
  9
$UCSXDIR
 10
1.0
 20
0.0
 30
0.0
  9
$UCSYDIR
 10
0.0
 20
1.0
 30
0.0
  9
$UCSORTHOREF
  2

  9
$UCSORTHOVIEW
 70
     0
  9
$UCSORGTOP
 10
0.0
 20
0.0
 30
0.0
  9
$UCSORGBOTTOM
 10
0.0
 20
0.0
 30
0.0
  9
$UCSORGLEFT
 10
0.0
 20
0.0
 30
0.0
  9
$UCSORGRIGHT
 10
0.0
 20
0.0
 30
0.0
  9
$UCSORGFRONT
 10
0.0
 20
0.0
 30
0.0
  9
$UCSORGBACK
 10
0.0
 20
0.0
 30
0.0
  9
$PUCSBASE
  2

  9
$PUCSNAME
  2

  9
$PUCSORG
 10
0.0
 20
0.0
 30
0.0
  9
$PUCSXDIR
 10
1.0
 20
0.0
 30
0.0
  9
$PUCSYDIR
 10
0.0
 20
1.0
 30
0.0
  9
$PUCSORTHOREF
  2

  9
$PUCSORTHOVIEW
 70
     0
  9
$PUCSORGTOP
 10
0.0
 20
0.0
 30
0.0
  9
$PUCSORGBOTTOM
 10
0.0
 20
0.0
 30
0.0
  9
$PUCSORGLEFT
 10
0.0
 20
0.0
 30
0.0
  9
$PUCSORGRIGHT
 10
0.0
 20
0.0
 30
0.0
  9
$PUCSORGFRONT
 10
0.0
 20
0.0
 30
0.0
  9
$PUCSORGBACK
 10
0.0
 20
0.0
 30
0.0
  9
$USERI1
 70
     0
  9
$USERI2
 70
     0
  9
$USERI3
 70
     0
  9
$USERI4
 70
     0
  9
$USERI5
 70
     0
  9
$USERR1
 40
0.0
  9
$USERR2
 40
0.0
  9
$USERR3
 40
0.0
  9
$USERR4
 40
0.0
  9
$USERR5
 40
0.0
  9
$WORLDVIEW
 70
     1
  9
$SHADEDGE
 70
     3
  9
$SHADEDIF
 70
    70
  9
$TILEMODE
 70
     1
  9
$MAXACTVP
 70
    64
  9
$PINSBASE
 10
0.0
 20
0.0
 30
0.0
  9
$PLIMCHECK
 70
     0
  9
$PEXTMIN
 10
1.0000000000E+20
 20
1.0000000000E+20
 30
1.0000000000E+20
  9
$PEXTMAX
 10
-1.0000000000E+20
 20
-1.0000000000E+20
 30
-1.0000000000E+20
  9
$PLIMMIN
 10
0.0
 20
0.0
  9
$PLIMMAX
 10
420.0
 20
297.0
  9
$UNITMODE
 70
     0
  9
$VISRETAIN
 70
     1
  9
$PLINEGEN
 70
     0
  9
$PSLTSCALE
 70
     1
  9
$TREEDEPTH
 70
  3020
  9
$CMLSTYLE
  2
Standard
  9
$CMLJUST
 70
     0
  9
$CMLSCALE
 40
20.0
  9
$PROXYGRAPHICS
 70
     1
  9
$MEASUREMENT
 70
     1
  9
$CELWEIGHT
370
    -1
  9
$ENDCAPS
280
     0
  9
$JOINSTYLE
280
     0
  9
$LWDISPLAY
290
     1
  9
$INSUNITS
 70
     4
  9
$HYPERLINKBASE
  1

  9
$STYLESHEET
  1

  9
$XEDIT
290
     1
  9
$CEPSNTYPE
380
     0
  9
$PSTYLEMODE
290
     1
  9
$FINGERPRINTGUID
  2
{CE92B482-C549-4E16-BDCE-7285EFEA4153}
  9
$VERSIONGUID
  2
{FAEB1C32-E019-11D5-929B-00C0DF256EC4}
  9
$EXTNAMES
290
     1
  9
$PSVPSCALE
 40
0.0
  9
$OLESTARTUP
290
     0
  0
ENDSEC
  0
SECTION
  2
CLASSES
  0
CLASS
  1
ACDBDICTIONARYWDFLT
  2
AcDbDictionaryWithDefault
  3
ObjectDBX Classes
 90
        0
280
     0
281
     0
  0
CLASS
  1
VISUALSTYLE
  2
AcDbVisualStyle
  3
ObjectDBX Classes
 90
     4095
280
     0
281
     0
  0
CLASS
  1
MATERIAL
  2
AcDbMaterial
  3
ObjectDBX Classes
 90
     1153
280
     0
281
     0
  0
CLASS
  1
SCALE
  2
AcDbScale
  3
ObjectDBX Classes
 90
     1153
280
     0
281
     0
  0
CLASS
  1
TABLESTYLE
  2
AcDbTableStyle
  3
ObjectDBX Classes
 90
     4095
280
     0
281
     0
  0
CLASS
  1
MLEADERSTYLE
  2
AcDbMLeaderStyle
  3
ACDB_MLEADERSTYLE_CLASS
 90
     4095
280
     0
281
     0
  0
CLASS
  1
SUN
  2
AcDbSun
  3
SCENEOE
 90
     1153
280
     0
281
     0
  0
CLASS
  1
ACDBPLACEHOLDER
  2
AcDbPlaceHolder
  3
ObjectDBX Classes
 90
        0
280
     0
281
     0
  0
CLASS
  1
LAYOUT
  2
AcDbLayout
  3
ObjectDBX Classes
 90
        0
280
     0
281
     0
  0
ENDSEC
  0
SECTION
  2
TABLES
  0
TABLE
  2
VPORT
  5
8
330
0
100
AcDbSymbolTable
 70
     1
  0
VPORT
  5
29
330
8
100
AcDbSymbolTableRecord
100
AcDbViewportTableRecord
  2
*Active
 70
     0
 10
0.0
 20
0.0
 11
1.0
 21
1.0
 12
594.5
 22
420.5
 13
0.0
 23
0.0
 14
10.0
 24
10.0
 15
10.0
 25
10.0
 16
0.0
 26
0.0
 36
1.0
 17
0.0
 27
0.0
 37
0.0
 40
841.0
 41
1.4137931034
 42
50.0
 43
0.0
 44
0.0
 50
0.0
 51
0.0
 71
     0
 72
  2000
 73
     1
 74
     3
 75
     0
 76
     0
 77
     0
 78
     0
281
     0
 65
     1
110
0.0
120
0.0
130
0.0
111
1.0
121
0.0
131
0.0
112
0.0
122
1.0
132
0.0
 79
     0
146
0.0
  0
ENDTAB
  0
TABLE
  2
LTYPE
  5
5
330
0
100
AcDbSymbolTable
 70
     6
  0
LTYPE
  5
14
330
5
100
AcDbSymbolTableRecord
100
AcDbLinetypeTableRecord
  2
ByBlock
 70
     0
  3

 72
    65
 73
     0
 40
0.0
  0
LTYPE
  5
15
330
5
100
AcDbSymbolTableRecord
100
AcDbLinetypeTableRecord
  2
ByLayer
 70
     0
  3

 72
    65
 73
     0
 40
0.0
  0
LTYPE
  5
16
330
5
100
AcDbSymbolTableRecord
100
AcDbLinetypeTableRecord
  2
Continuous
 70
     0
  3
Solid line
 72
    65
 73
     0
 40
0.0
  0
LTYPE
  5
6E
330
5
100
AcDbSymbolTableRecord
100
AcDbLinetypeTableRecord
  2
HIDDEN
 70
     0
  3
Hidden __ __ __ __ __ __ __ __ __ __ __ __ __ __
 72
    65
 73
     2
 40
1.905
 49
1.27
 74
     0
 49
-0.635
 74
     0
  0
LTYPE
  5
6F
330
5
100
AcDbSymbolTableRecord
100
AcDbLinetypeTableRecord
  2
PHANTOM
 70
     0
  3
Phantom ______  __  __  ______  __  __  ______
 72
    65
 73
     6
 40
12.7
 49
6.35
 74
     0
 49
-1.27
 74
     0
 49
1.27
 74
     0
 49
-1.27
 74
     0
 49
1.27
 74
     0
 49
-1.27
 74
     0
  0
LTYPE
  5
70
330
5
100
AcDbSymbolTableRecord
100
AcDbLinetypeTableRecord
  2
CENTER
 70
     0
  3
Center ____ _ ____ _ ____ _ ____ _ ____ _ ____
 72
    65
 73
     4
 40
10.16
 49
6.35
 74
     0
 49
-1.27
 74
     0
 49
1.27
 74
     0
 49
-1.27
 74
     0
  0
LTYPE
  5
71
330
5
100
AcDbSymbolTableRecord
100
AcDbLinetypeTableRecord
  2
CENTERX2
 70
     0
  3
Center (2x) ________  __  ________  __  _____
 72
    65
 73
     4
 40
20.32
 49
12.7
 74
     0
 49
-2.54
 74
     0
 49
2.54
 74
     0
 49
-2.54
 74
     0
  0
LTYPE
  5
72
330
5
100
AcDbSymbolTableRecord
100
AcDbLinetypeTableRecord
  2
DOT2
 70
     0
  3
Dot (.5x) ........................................
 72
    65
 73
     2
 40
0.635
 49
0.0
 74
     0
 49
-0.635
 74
     0
  0
ENDTAB
  0
TABLE
  2
LAYER
  5
2
330
0
100
AcDbSymbolTable
 70
     2
  0
LAYER
  5
10
330
2
100
AcDbSymbolTableRecord
100
AcDbLayerTableRecord
  2
0
 70
     0
 62
     7
  6
Continuous
370
    -3
390
F
  0
LAYER
  5
73
330
2
100
AcDbSymbolTableRecord
100
AcDbLayerTableRecord
  2
FORMAT
 70
     0
 62
     7
  6
Continuous
370
    -3
390
F
  0
ENDTAB
  0
TABLE
  2
STYLE
  5
3
330
0
100
AcDbSymbolTable
 70
     1
  0
STYLE
  5
11
330
3
100
AcDbSymbolTableRecord
100
AcDbTextStyleTableRecord
  2
Standard
 70
     0
 40
0.0
 41
1.0
 50
0.0
 71
     0
 42
3.5
  3
txt
  4

  0
ENDTAB
  0
TABLE
  2
VIEW
  5
6
330
0
100
AcDbSymbolTable
 70
     0
  0
ENDTAB
  0
TABLE
  2
UCS
  5
7
330
0
100
AcDbSymbolTable
 70
     0
  0
ENDTAB
  0
TABLE
  2
APPID
  5
9
330
0
100
AcDbSymbolTable
 70
     1
  0
APPID
  5
12
330
9
100
AcDbSymbolTableRecord
100
AcDbRegAppTableRecord
  2
ACAD
 70
     0
  0
ENDTAB
  0
TABLE
  2
DIMSTYLE
  5
A
330
0
100
AcDbSymbolTable
 70
     1
100
AcDbDimStyleTable
  0
DIMSTYLE
105
27
330
A
100
AcDbSymbolTableRecord
100
AcDbDimStyleTableRecord
  2
ISO-25
 70
     0
 41
2.5
 42
0.625
 43
3.75
 44
1.25
 73
     0
 74
     0
 77
     1
 78
     8
140
2.5
141
2.5
143
0.0393700787
147
0.625
171
     3
172
     1
178
     0
271
     2
272
     2
274
     3
278
    44
283
     0
284
     8
340
11
  0
ENDTAB
  0
TABLE
  2
BLOCK_RECORD
  5
1
330
0
100
AcDbSymbolTable
 70
     1
  0
BLOCK_RECORD
  5
1F
330
1
100
AcDbSymbolTableRecord
100
AcDbBlockTableRecord
  2
*Model_Space
340
22
  0
BLOCK_RECORD
  5
1B
330
1
100
AcDbSymbolTableRecord
100
AcDbBlockTableRecord
  2
*Paper_Space
340
1E
  0
BLOCK_RECORD
  5
23
330
1
100
AcDbSymbolTableRecord
100
AcDbBlockTableRecord
  2
*Paper_Space0
340
26
  0
ENDTAB
  0
ENDSEC
  0
SECTION
  2
BLOCKS
  0
BLOCK
  5
20
330
1F
100
AcDbEntity
  8
0
100
AcDbBlockBegin
  2
*Model_Space
 70
     0
 10
0.0
 20
0.0
 30
0.0
  3
*Model_Space
  1

  0
ENDBLK
  5
21
330
1F
100
AcDbEntity
  8
0
100
AcDbBlockEnd
  0
BLOCK
  5
1C
330
1B
100
AcDbEntity
 67
     1
  8
0
100
AcDbBlockBegin
  2
*Paper_Space
 70
     0
 10
0.0
 20
0.0
 30
0.0
  3
*Paper_Space
  1

  0
ENDBLK
  5
1D
330
1B
100
AcDbEntity
 67
     1
  8
0
100
AcDbBlockEnd
  0
BLOCK
  5
24
330
23
100
AcDbEntity
  8
0
100
AcDbBlockBegin
  2
*Paper_Space0
 70
     0
 10
0.0
 20
0.0
 30
0.0
  3
*Paper_Space0
  1

  0
ENDBLK
  5
25
330
23
100
AcDbEntity
  8
0
100
AcDbBlockEnd
  0
ENDSEC
  0
SECTION
  2
ENTITIES
  0
ARC
  5
74
330
1F
100
AcDbEntity
  8
0
  6
Continuous
 62
     7
370
    15
100
AcDbCircle
 10
525.2820958796
 20
272.1577404084
 30
0.0
 40
0.9199999999999591
100
AcDbArc
 50
270.0
 51
90.0
  0
ARC
  5
75
330
1F
100
AcDbEntity
  8
0
  6
Continuous
 62
     7
370
    15
100
AcDbCircle
 10
473.6820958796
 20
272.1577404084
 30
0.0
 40
0.9199999999999591
100
AcDbArc
 50
90.0
 51
270.0
  0
LINE
  5
76
330
1F
100
AcDbEntity
  8
0
  6
Continuous
 62
     7
370
    15
100
AcDbLine
 10
525.2820958796
 20
273.0777404084
 30
0.0
 11
473.6820958796
 21
273.0777404084
 31
0.0
  0
LINE
  5
77
330
1F
100
AcDbEntity
  8
0
  6
Continuous
 62
     7
370
    15
100
AcDbLine
 10
473.6820958796
 20
271.2377404084
 30
0.0
 11
525.2820958796
 21
271.2377404084
 31
0.0
  0
LINE
  5
78
330
1F
100
AcDbEntity
  8
0
  6
Continuous
 62
     7
370
    15
100
AcDbLine
 10
524.4820958796
 20
273.0777404084
 30
0.0
 11
524.4820958796
 21
304.3918483131
 31
0.0
  0
LINE
  5
79
330
1F
100
AcDbEntity
  8
0
  6
Continuous
 62
     7
370
    15
100
AcDbLine
 10
474.4820958796
 20
304.3918483131
 30
0.0
 11
474.4820958796
 21
273.0777404084
 31
0.0
  0
ARC
  5
7A
330
1F
100
AcDbEntity
  8
0
  6
Continuous
 62
     7
370
    15
100
AcDbCircle
 10
521.2820958796
 20
304.3918483131
 30
0.0
 40
3.200000000000045
100
AcDbArc
 50
0.0
 51
57.7834539414
  0
ARC
  5
7B
330
1F
100
AcDbEntity
  8
0
  6
Continuous
 62
     7
370
    15
100
AcDbCircle
 10
477.6820958796
 20
304.3918483131
 30
0.0
 40
3.200000000000041
100
AcDbArc
 50
122.2165460586
 51
180.0
  0
LINE
  5
7C
330
1F
100
AcDbEntity
  8
0
  6
Continuous
 62
     7
370
    15
100
AcDbLine
 10
522.9880818643
 20
307.0991738975
 30
0.0
 11
511.3761098949
 21
314.4163069193
 31
0.0
  0
LINE
  5
7D
330
1F
100
AcDbEntity
  8
0
  6
Continuous
 62
     7
370
    15
100
AcDbLine
 10
487.5880818643
 20
314.4163069193
 30
0.0
 11
475.9761098949
 21
307.0991738975
 31
0.0
  0
ARC
  5
7E
330
1F
100
AcDbEntity
  8
0
  6
Continuous
 62
     7
370
    15
100
AcDbCircle
 10
513.0820958796
 20
317.1236325037
 30
0.0
 40
3.199999999999989
100
AcDbArc
 50
180.0
 51
237.7834539414
  0
ARC
  5
7F
330
1F
100
AcDbEntity
  8
0
  6
Continuous
 62
     7
370
    15
100
AcDbCircle
 10
485.8820958796
 20
317.1236325037
 30
0.0
 40
3.199999999999989
100
AcDbArc
 50
302.2165460586
 51
0.0
  0
ARC
  5
80
330
1F
100
AcDbEntity
  8
0
  6
Continuous
 62
     7
370
    15
100
AcDbCircle
 10
509.4820958796
 20
327.7577404084
 30
0.0
 40
0.3999999999999773
100
AcDbArc
 50
0.0
 51
90.0
  0
ARC
  5
81
330
1F
100
AcDbEntity
  8
0
  6
Continuous
 62
     7
370
    15
100
AcDbCircle
 10
489.4820958796
 20
327.7577404084
 30
0.0
 40
0.3999999999999773
100
AcDbArc
 50
90.0
 51
180.0
  0
LINE
  5
82
330
1F
100
AcDbEntity
  8
0
  6
Continuous
 62
     7
370
    15
100
AcDbLine
 10
509.8820958796
 20
317.1236325037
 30
0.0
 11
509.8820958796
 21
327.7577404084
 31
0.0
  0
LINE
  5
83
330
1F
100
AcDbEntity
  8
0
  6
Continuous
 62
     7
370
    15
100
AcDbLine
 10
489.0820958796
 20
327.7577404084
 30
0.0
 11
489.0820958796
 21
317.1236325037
 31
0.0
  0
LINE
  5
84
330
1F
100
AcDbEntity
  8
0
  6
Continuous
 62
     7
370
    15
100
AcDbLine
 10
509.4820958796
 20
328.1577404084
 30
0.0
 11
489.4820958796
 21
328.1577404084
 31
0.0
  0
LINE
  5
85
330
1F
100
AcDbEntity
  8
0
  6
Continuous
 62
     8
370
    15
100
AcDbLine
 10
524.4820958796
 20
304.3918483131
 30
0.0
 11
474.4820958796
 21
304.3918483131
 31
0.0
  0
LINE
  5
86
330
1F
100
AcDbEntity
  8
0
  6
Continuous
 62
     8
370
    15
100
AcDbLine
 10
522.9880818643
 20
307.0991738975
 30
0.0
 11
475.9761098949
 21
307.0991738975
 31
0.0
  0
LINE
  5
87
330
1F
100
AcDbEntity
  8
0
  6
Continuous
 62
     8
370
    15
100
AcDbLine
 10
511.3761098949
 20
314.4163069193
 30
0.0
 11
487.5880818643
 21
314.4163069193
 31
0.0
  0
LINE
  5
88
330
1F
100
AcDbEntity
  8
0
  6
Continuous
 62
     8
370
    15
100
AcDbLine
 10
509.8820958796
 20
317.1236325037
 30
0.0
 11
489.0820958796
 21
317.1236325037
 31
0.0
  0
LINE
  5
89
330
1F
100
AcDbEntity
  8
0
  6
Continuous
 62
     8
370
    15
100
AcDbLine
 10
509.8820958796
 20
327.7577404084
 30
0.0
 11
489.0820958796
 21
327.7577404084
 31
0.0
  0
CIRCLE
  5
8A
330
1F
100
AcDbEntity
  8
0
  6
Continuous
 62
     7
370
    15
100
AcDbCircle
 10
499.4820958796
 20
586.4796108204
 30
0.0
 40
26.71999999999991
  0
CIRCLE
  5
8B
330
1F
100
AcDbEntity
  8
0
  6
Continuous
 62
     7
370
    15
100
AcDbCircle
 10
499.4820958796
 20
586.4796108204
 30
0.0
 40
10.0
  0
CIRCLE
  5
8C
330
1F
100
AcDbEntity
  8
0
  6
Continuous
 62
     7
370
    15
100
AcDbCircle
 10
499.4820958796
 20
586.4796108204
 30
0.0
 40
10.39999999999998
  0
CIRCLE
  5
8D
330
1F
100
AcDbEntity
  8
0
  6
Continuous
 62
     7
370
    15
100
AcDbCircle
 10
499.4820958796
 20
586.4796108204
 30
0.0
 40
1.0
  0
CIRCLE
  5
8E
330
1F
100
AcDbEntity
  8
0
  6
Continuous
 62
     7
370
    15
100
AcDbCircle
 10
499.4820958796
 20
586.4796108204
 30
0.0
 40
11.89401401530188
  0
CIRCLE
  5
8F
330
1F
100
AcDbEntity
  8
0
  6
Continuous
 62
     7
370
    15
100
AcDbCircle
 10
499.4820958796
 20
586.4796108204
 30
0.0
 40
23.50598598469821
  0
CIRCLE
  5
90
330
1F
100
AcDbEntity
  8
0
  6
Continuous
 62
     7
370
    15
100
AcDbCircle
 10
499.4820958796
 20
586.4796108204
 30
0.0
 40
25.0
  0
CIRCLE
  5
91
330
1F
100
AcDbEntity
  8
0
  6
Continuous
 62
     7
370
    15
100
AcDbCircle
 10
499.4820958796
 20
586.4796108204
 30
0.0
 40
25.11000000000001
  0
LINE
  5
92
330
1F
100
AcDbEntity
  8
0
  6
CENTERX2
 62
     7
100
AcDbLine
 10
715.2118671735
 20
558.9122608267
 30
0.0
 11
713.9956435098
 21
558.2101498506
 31
0.0
  0
LINE
  5
93
330
1F
100
AcDbEntity
  8
0
  6
CENTERX2
 62
     7
100
AcDbLine
 10
713.9956435098
 20
558.2101498506
 30
0.0
 11
713.9956435098
 21
557.0899834162
 31
0.0
  0
LWPOLYLINE
  5
94
330
1F
100
AcDbEntity
  8
0
  6
Continuous
 62
     7
370
    15
100
AcDbPolyline
 90
       25
 70
   128
 43
0.0
 10
757.8862172287
 20
594.3162087157
 10
757.8676097322
 20
594.9949176783
 10
757.7881978899
 20
595.7721476974
 10
757.6513103201
 20
596.5438139011
 10
757.4573485713
 20
597.3086739267
 10
757.206585295
 20
598.0655337442
 10
756.8991852631
 20
598.8131921387
 10
756.53525312
 20
599.5503810707
 10
756.1149083067
 20
600.2757089931
 10
755.6383822688
 20
600.9876174301
 10
755.1061260332
 20
601.6843622136
 10
754.5189098541
 20
602.364028198
 10
753.8778942459
 20
603.0245795134
 10
753.1846560666
 20
603.6639379918
 10
752.4411642495
 20
604.2800739791
 10
751.6497133127
 20
604.8710903638
 10
750.8128329827
 20
605.4352840453
 10
749.9043345052
 20
605.9878652075
 10
749.4145224874
 20
606.2630452579
 10
748.4728310961
 20
606.7523302409
 10
747.4961161128
 20
607.2101545949
 10
746.4865168045
 20
607.6360685284
 10
745.4466349492
 20
608.0294638622
 10
744.3790368584
 20
608.3898237011
 10
743.2895367031
 20
608.7157234124
  0
LWPOLYLINE
  5
95
330
1F
100
AcDbEntity
  8
0
  6
Continuous
 62
     7
370
    15
100
AcDbPolyline
 90
       25
 70
   128
 43
0.0
 10
722.4895367031
 20
608.7120490911
 10
722.2154349706
 20
608.6375757041
 10
721.1287536761
 20
608.3022255758
 10
720.0675315772
 20
607.9333697999
 10
719.0341749096
 20
607.5313672302
 10
718.0310940732
 20
607.0966089979
 10
717.0607180052
 20
606.6295289543
 10
716.1255107904
 20
606.1306211491
 10
715.2279887162
 20
605.6004662662
 10
714.3707497209
 20
605.0397789791
 10
713.5566736316
 20
604.4496093176
 10
712.7885018955
 20
603.8311400012
 10
712.0689839397
 20
603.1858426883
 10
711.4008059638
 20
602.5155144334
 10
710.7864915684
 20
601.8222854171
 10
710.2282863588
 20
601.1085868308
 10
709.7280480978
 20
600.3770765299
 10
709.2871679036
 20
599.6305328967
 10
708.9065421283
 20
598.871738198
 10
708.5866002881
 20
598.1033755152
 10
708.3273786164
 20
597.3279565107
 10
708.1286190388
 20
596.5477851745
 10
707.9898727084
 20
595.7649519048
 10
707.9105932841
 20
594.9813471359
 10
707.8937862989
 20
594.3359088156
  0
LINE
  5
96
330
1F
100
AcDbEntity
  8
0
  6
Continuous
 62
     7
370
    15
100
AcDbLine
 10
757.8895367031
 20
567.9971957901
 30
0.0
 11
757.8895367031
 21
594.317660429
 31
0.0
  0
LINE
  5
97
330
1F
100
AcDbEntity
  8
0
  6
Continuous
 62
     7
370
    15
100
AcDbLine
 10
707.8895367031
 20
594.317660429
 30
0.0
 11
707.8895367031
 21
567.9971957901
 31
0.0
  0
LWPOLYLINE
  5
98
330
1F
100
AcDbEntity
  8
0
  6
Continuous
 62
     7
370
    15
100
AcDbPolyline
 90
       12
 70
   128
 43
0.0
 10
743.2821539265
 20
613.4238139098
 10
743.2795952854
 20
613.6692156306
 10
743.2165987885
 20
614.133308443
 10
743.0961588459
 20
614.5920861525
 10
742.9188729876
 20
615.0436869872
 10
742.6853276174
 20
615.4861346421
 10
742.3963193673
 20
615.9171931346
 10
742.0530768712
 20
616.3343747255
 10
741.6573820779
 20
616.73506854
 10
741.2115612972
 20
617.1167093661
 10
740.7183867694
 20
617.4769114382
 10
740.1605882615
 20
617.825325035
  0
LWPOLYLINE
  5
99
330
1F
100
AcDbEntity
  8
0
  6
Continuous
 62
     7
370
    15
100
AcDbPolyline
 90
       33
 70
   128
 43
0.0
 10
740.1605882615
 20
617.825325035
 10
739.8591679946
 20
617.9924847284
 10
739.2592518614
 20
618.2885077671
 10
738.6240013095
 20
618.5565497845
 10
737.957047177
 20
618.795305153
 10
737.2621594066
 20
619.0036191041
 10
736.5432197879
 20
619.1804913866
 10
735.8042136108
 20
619.3250743773
 10
735.049217754
 20
619.4366746599
 10
734.2823853422
 20
619.5147561601
 10
733.5079275561
 20
619.5589435087
 10
732.7300933103
 20
619.5690247749
 10
731.9531474992
 20
619.5449530406
 10
731.1813718196
 20
619.4868487934
 10
730.4190038303
 20
619.3949982791
 10
729.6702183393
 20
619.2698478953
 10
728.939116003
 20
619.1119993466
 10
728.2297037113
 20
618.9222032573
 10
727.5458774895
 20
618.7013517383
 10
726.8914088604
 20
618.4504706825
 10
726.269935678
 20
618.1707131534
 10
725.6849583102
 20
617.8633561311
 10
725.1398414402
 20
617.5298041256
 10
724.6378201382
 20
617.1716045946
 10
724.1820815983
 20
616.7905500512
 10
723.7756381901
 20
616.3886670601
 10
723.4212948886
 20
615.9682815697
 10
723.1215737674
 20
615.5320881729
 10
722.8785656686
 20
615.08315055
 10
722.6937654962
 20
614.6248006953
 10
722.5679687737
 20
614.1604280373
 10
722.5013090047
 20
613.6932207577
 10
722.4966526465
 20
613.4163986502
  0
LINE
  5
9A
330
1F
100
AcDbEntity
  8
0
  6
Continuous
 62
     7
370
    15
100
AcDbLine
 10
743.2895367031
 20
604.7136818288
 30
0.0
 11
743.2895367031
 21
613.396864931
 31
0.0
  0
LINE
  5
9B
330
1F
100
AcDbEntity
  8
0
  6
Continuous
 62
     7
370
    15
100
AcDbLine
 10
722.4895367031
 20
613.396864931
 30
0.0
 11
722.4895367031
 21
604.7136818288
 31
0.0
  0
LWPOLYLINE
  5
9C
330
1F
100
AcDbEntity
  8
0
  6
Continuous
 62
     7
370
    15
100
AcDbPolyline
 90
       35
 70
   128
 43
0.0
 10
750.9894752504
 20
558.453941362
 10
750.480854105
 20
558.1526135998
 10
749.6139963862
 20
557.6857871519
 10
748.7076733904
 20
557.2423896763
 10
747.7639308332
 20
556.8235883903
 10
746.7849280507
 20
556.4304942866
 10
745.7729291888
 20
556.0641549259
 10
744.7302942149
 20
555.7255487705
 10
743.6594699867
 20
555.4155807698
 10
742.5629815089
 20
555.1350789433
 10
741.4434234376
 20
554.8847917443
 10
740.3034518503
 20
554.6653860307
 10
739.145776272
 20
554.4774455042
 10
737.9731519317
 20
554.3214695147
 10
736.7883722211
 20
554.1978721456
 10
735.5942613217
 20
554.1069815247
 10
734.3936669691
 20
554.0490393135
 10
733.1894533273
 20
554.0242003439
 10
731.9844939439
 20
554.032532381
 10
730.7816696024
 20
554.0740157596
 10
729.5838659628
 20
554.1485423294
 10
728.3939424233
 20
554.2559166951
 10
727.214739636
 20
554.3958564853
 10
726.0490725121
 20
554.5679926166
 10
724.8997231561
 20
554.7718696628
 10
723.7694337007
 20
555.0069463448
 10
722.6608990075
 20
555.2725961676
 10
721.5767591947
 20
555.5681082412
 10
720.5195919465
 20
555.8926883415
 10
719.491904557
 20
556.2454602904
 10
718.4961256646
 20
556.6254677627
 10
717.5345966352
 20
557.0316766683
 10
716.6095625764
 20
557.4629783082
 10
715.7231629928
 20
557.91819356
 10
715.248409303
 20
558.1864525726
  0
LWPOLYLINE
  5
9D
330
1F
100
AcDbEntity
  8
0
  6
Continuous
 62
     7
370
    15
100
AcDbPolyline
 90
       85
 70
   128
 43
0.0
 10
707.8895367031
 20
573.6103657276
 10
707.8153865731
 20
573.4989756511
 10
707.4070947837
 20
572.7884809022
 10
707.0560907804
 20
572.0674228473
 10
706.7630777618
 20
571.3377817843
 10
706.5285116614
 20
570.6015150723
 10
706.3526203597
 20
569.860505785
 10
706.2354434662
 20
569.1165227176
 10
706.1768858637
 20
568.3711999978
 10
706.1767743192
 20
567.6260402918
 10
706.234905476
 20
566.8824404352
 10
706.3510171615
 20
566.1420308305
 10
706.5248491746
 20
565.4060968437
 10
706.7561458718
 20
564.6759335022
 10
707.0446235443
 20
563.9528924352
 10
707.3899226672
 20
563.2384116638
 10
707.7915558138
 20
562.534024244
 10
708.2488622763
 20
561.8413457308
 10
708.7609778585
 20
561.1620449544
 10
709.3268237555
 20
560.4978056555
 10
709.9451134829
 20
559.8502872575
 10
710.6143730859
 20
559.2210915037
 10
711.3329682777
 20
558.6117387718
 10
712.0991326378
 20
558.023654826
 10
712.9109927471
 20
557.4581665172
 10
713.7665881955
 20
556.9165038413
 10
714.663883327
 20
556.3998071683
 10
715.6007323765
 20
555.9091559444
 10
716.5749933874
 20
555.4455160601
 10
717.5844709861
 20
555.0097854478
 10
718.6269180711
 20
554.6027983756
 10
719.7000371191
 20
554.2253283283
 10
720.8014815715
 20
553.8780896705
 10
721.9288575763
 20
553.5617383432
 10
723.0797262201
 20
553.2768718424
 10
724.251606301
 20
553.0240287028
 10
725.4419776331
 20
552.8036876732
 10
726.6482848445
 20
552.6162667319
 10
727.8679416106
 20
552.4621220586
 10
729.0983352608
 20
552.3415470502
 10
730.3368316942
 20
552.2547714449
 10
731.5807805415
 20
552.2019606031
 10
732.8275205142
 20
552.1832149786
 10
734.0743848848
 20
552.1985698037
 10
735.3186986665
 20
552.2479945549
 10
736.5577909269
 20
552.3313924916
 10
737.7890125436
 20
552.4486021206
 10
739.0097314288
 20
552.5993978622
 10
740.2173378987
 20
552.7834909386
 10
741.4092498653
 20
553.0005304844
 10
742.5829177894
 20
553.2501048603
 10
743.7358293268
 20
553.5317431336
 10
744.8655135968
 20
553.8449166787
 10
745.9695449964
 20
554.1890408245
 10
747.0455464803
 20
554.5634764519
 10
748.091192231
 20
554.9675314041
 10
749.1042096531
 20
555.4004615277
 10
750.0823806543
 20
555.8614711058
 10
751.0235422272
 20
556.3497123809
 10
751.9255864342
 20
556.8642838018
 10
752.7864600375
 20
557.4042265768
 10
753.6041642193
 20
557.9685191104
 10
754.3767072493
 20
558.5560307281
 10
755.1021891629
 20
559.1655634147
 10
755.7787846205
 20
559.7958271098
 10
756.4047477387
 20
560.4454217887
 10
756.9784313357
 20
561.1128265892
 10
757.4983133228
 20
561.7963942339
 10
757.9630291051
 20
562.4943547414
 10
758.3714065258
 20
563.2048320951
 10
758.7224974072
 20
563.9258757277
 10
759.0155981752
 20
564.6555053473
 10
759.2502525326
 20
565.3917635203
 10
759.4262322808
 20
566.1327670268
 10
759.5434975647
 20
566.8767468785
 10
759.602143342
 20
567.6220687413
 10
759.6023427674
 20
568.3672297651
 10
759.5442991804
 20
569.1108329835
 10
759.4282746433
 20
569.8512483659
 10
759.2545293956
 20
570.5871900602
 10
759.0233190683
 20
571.3173630929
 10
758.7349272943
 20
572.0404159473
 10
758.3897134449
 20
572.7549107445
 10
757.9881647169
 20
573.4593145673
 10
757.8895367031
 20
573.6087369295
  0
LWPOLYLINE
  5
9E
330
1F
100
AcDbEntity
  8
0
  6
Continuous
 62
     7
370
    15
100
AcDbPolyline
 90
        3
 70
   128
 43
0.0
 10
757.8895367031
 20
567.9971957901
 10
757.8767963146
 20
567.5365009871
 10
757.8533092599
 20
567.2205217905
  0
LWPOLYLINE
  5
9F
330
1F
100
AcDbEntity
  8
0
  6
Continuous
 62
     7
370
    15
100
AcDbPolyline
 90
        3
 70
   128
 43
0.0
 10
707.9297135093
 20
567.1793141391
 10
707.9145058283
 20
567.352328257
 10
707.8895367031
 20
567.9971957901
  0
LWPOLYLINE
  5
A0
330
1F
100
AcDbEntity
  8
0
  6
Continuous
 62
     7
370
    15
100
AcDbPolyline
 90
       79
 70
   128
 43
0.0
 10
739.960604515
 20
617.8055218148
 10
740.5066597849
 20
617.463817218
 10
741.0033150887
 20
617.0978551071
 10
741.4473494261
 20
616.7100088869
 10
741.8358830642
 20
616.3027938891
 10
742.1663962131
 20
615.878851059
 10
742.4367453682
 20
615.4409298287
 10
742.6451772116
 20
614.9918702854
 10
742.7903399827
 20
614.5345847524
 10
742.8712922453
 20
614.0720389021
 10
742.887508993
 20
613.6072325216
 10
742.8388850537
 20
613.1431800588
 10
742.7257357726
 20
612.682891072
 10
742.548794966
 20
612.2293507118
 10
742.309210163
 20
611.7855003615
 10
742.008535163
 20
611.354218561
 10
741.6487199588
 20
610.9383023382
 10
741.2320980899
 20
610.5404490695
 10
740.7613715092
 20
610.1632389859
 10
740.2395930591
 20
609.8091184396
 10
739.670146673
 20
609.4803840383
 10
739.0567254294
 20
609.1791677506
 10
738.4033076003
 20
608.9074230798
 10
737.7141308512
 20
608.6669123943
 10
736.9936647576
 20
608.4591954983
 10
736.2465818188
 20
608.2856195154
 10
735.4777271541
 20
608.1473101527
 10
734.6920870813
 20
608.0451643993
 10
733.8947567775
 20
607.9798447096
 10
733.0909072358
 20
607.951774707
 10
732.2857517289
 20
607.9611364361
 10
731.4845119993
 20
608.0078691826
 10
730.692384394
 20
608.0916698666
 10
729.9145061646
 20
608.2119950086
 10
729.1559221498
 20
608.3680642539
 10
728.4215520581
 20
608.5588654334
 10
727.7161585613
 20
608.7831611284
 10
727.044316407
 20
609.0394966951
 10
726.4103827493
 20
609.3262096992
 10
725.8184688913
 20
609.6414406966
 10
725.2724136213
 20
609.9831452935
 10
724.7757583176
 20
610.3491074043
 10
724.3317239801
 20
610.7369536245
 10
723.9431903421
 20
611.1441686224
 10
723.6126771932
 20
611.5681114524
 10
723.342328038
 20
612.0060326827
 10
723.1338961946
 20
612.4550922261
 10
722.9887334235
 20
612.912377759
 10
722.9077811609
 20
613.3749236094
 10
722.8915644133
 20
613.8397299898
 10
722.9401883525
 20
614.3037824526
 10
723.0533376336
 20
614.7640714394
 10
723.2302784402
 20
615.2176117996
 10
723.4698632432
 20
615.6614621499
 10
723.7705382432
 20
616.0927439504
 10
724.1303534474
 20
616.5086601732
 10
724.5469753163
 20
616.9065134419
 10
725.017701897
 20
617.2837235255
 10
725.5394803472
 20
617.6378440718
 10
726.1089267332
 20
617.9665784731
 10
726.7223479768
 20
618.2677947608
 10
727.3757658059
 20
618.5395394316
 10
728.064942555
 20
618.7800501171
 10
728.7854086486
 20
618.9877670132
 10
729.5324915875
 20
619.161342996
 10
730.3013462521
 20
619.2996523587
 10
731.086986325
 20
619.4017981121
 10
731.8843166288
 20
619.4671178018
 10
732.6881661705
 20
619.4951878044
 10
733.4933216773
 20
619.4858260753
 10
734.294561407
 20
619.4390933288
 10
735.0866890122
 20
619.3552926448
 10
735.8645672417
 20
619.2349675028
 10
736.6231512564
 20
619.0788982575
 10
737.3575213481
 20
618.888097078
 10
738.0629148449
 20
618.663801383
 10
738.7347569992
 20
618.4074658163
 10
739.3686906569
 20
618.1207528123
 10
739.960604515
 20
617.8055218148
  0
LINE
  5
A1
330
1F
100
AcDbEntity
  8
0
  6
Continuous
 62
     7
370
    15
100
AcDbLine
 10
743.2894445297
 20
613.4221419457
 30
0.0
 11
743.2895367031
 21
613.396864931
 31
0.0
  0
LWPOLYLINE
  5
A2
330
1F
100
AcDbEntity
  8
0
  6
Continuous
 62
     7
370
    15
100
AcDbPolyline
 90
       25
 70
   128
 43
0.0
 10
732.1824299219
 20
613.3152771998
 10
732.3895367031
 20
613.2235354318
 10
732.630717658
 20
613.1658641454
 10
732.8895367031
 20
613.1461935436
 10
733.1483557482
 20
613.1658641454
 10
733.3895367031
 20
613.2235354318
 10
733.5966434843
 20
613.3152771998
 10
733.7555621069
 20
613.4348373997
 10
733.8554625294
 20
613.5740682013
 10
733.8895367031
 20
613.7234812557
 10
733.8554625294
 20
613.8728943101
 10
733.7555621069
 20
614.0121251118
 10
733.5966434843
 20
614.1316853116
 10
733.3895367031
 20
614.2234270797
 10
733.1483557482
 20
614.281098366
 10
732.8895367031
 20
614.3007689678
 10
732.630717658
 20
614.281098366
 10
732.3895367031
 20
614.2234270797
 10
732.1824299219
 20
614.1316853116
 10
732.0235112993
 20
614.0121251118
 10
731.9236108768
 20
613.8728943101
 10
731.8895367031
 20
613.7234812557
 10
731.9236108768
 20
613.5740682013
 10
732.0235112993
 20
613.4348373997
 10
732.1824299219
 20
613.3152771998
  0
ARC
  5
A3
330
1F
100
AcDbEntity
  8
0
  6
Continuous
 62
     7
370
    15
100
AcDbCircle
 10
733.3762193796
 20
613.56009362
 30
0.0
 40
0.5223889178452362
100
AcDbArc
 50
12.6494072896
 51
65.0419853627
  0
LWPOLYLINE
  5
A4
330
1F
100
AcDbEntity
  8
0
  6
Continuous
 62
     7
370
    15
100
AcDbPolyline
 90
       10
 70
   128
 43
0.0
 10
731.8931443812
 20
613.674488807
 10
731.9236108768
 20
613.7749094127
 10
732.0235112993
 20
613.9141402143
 10
732.1824299219
 20
614.0337004142
 10
732.3895367031
 20
614.1254421822
 10
732.630717658
 20
614.1831134686
 10
732.8895367031
 20
614.2027840704
 10
733.1483557482
 20
614.1831134686
 10
733.3895367031
 20
614.1254421822
 10
733.5966434843
 20
614.0337004142
  0
LWPOLYLINE
  5
A5
330
1F
100
AcDbEntity
  8
0
  6
Continuous
 62
     7
370
    15
100
AcDbPolyline
 90
       19
 70
   128
 43
0.0
 10
757.8895367031
 20
569.8494276114
 10
757.9376221032
 20
569.5114035717
 10
757.994929732
 20
568.771742798
 10
757.9867402569
 20
568.0313576324
 10
757.9130750433
 20
567.2921796553
 10
757.7741262753
 20
566.5561372976
 10
757.5702564544
 20
565.8251508099
 10
757.3019974536
 20
565.1011272524
 10
756.9700491302
 20
564.3859555198
 10
756.5752774992
 20
563.6815014137
 10
756.118712475
 20
562.9896027742
 10
755.6015451834
 20
562.3120646861
 10
755.025124855
 20
561.6506547687
 10
754.3909553044
 20
561.007098565
 10
753.7006910077
 20
560.3830750397
 10
752.9561327857
 20
559.780212199
 10
752.1592231056
 20
559.2000828431
 10
751.3120410139
 20
558.6442004632
 10
750.9708728047
 20
558.4357230685
  0
LWPOLYLINE
  5
A6
330
1F
100
AcDbEntity
  8
0
  6
Continuous
 62
     7
370
    15
100
AcDbPolyline
 90
       19
 70
   128
 43
0.0
 10
715.2717569207
 20
558.1652111022
 10
714.6864267725
 20
558.5091898522
 10
713.8270169227
 20
559.0587813336
 10
713.0173390105
 20
559.6329884305
 10
712.2595053931
 20
560.2303131023
 10
711.5554931719
 20
560.8491969971
 10
710.9071390343
 20
561.4880255174
 10
710.3161344624
 20
562.1451320326
 10
709.7840213195
 20
562.8188022268
 10
709.3121878281
 20
563.5072785714
 10
708.9018649479
 20
564.2087649102
 10
708.5541231644
 20
564.9214311454
 10
708.2698696963
 20
565.6434180123
 10
708.0498461283
 20
566.3728419295
 10
707.8946264769
 20
567.1077999133
 10
707.8046156924
 20
567.8463745423
 10
707.7800486027
 20
568.5866389595
 10
707.8209893005
 20
569.3266618996
 10
707.8895367031
 20
569.8494276114
  0
LWPOLYLINE
  5
A7
330
1F
100
AcDbEntity
  8
0
  6
Continuous
 62
     8
370
    15
100
AcDbPolyline
 90
       58
 70
   128
 43
0.0
 10
743.2895367031
 20
605.8347238515
 10
743.3855894217
 20
605.7327801401
 10
743.770107796
 20
605.2764699242
 10
744.0952002641
 20
604.8050121959
 10
744.3590912836
 20
604.3209818937
 10
744.5603395733
 20
603.8270226233
 10
744.6978459848
 20
603.3258322189
 10
744.7708595058
 20
602.8201480087
 10
744.7789813617
 20
602.3127318645
 10
744.7221671939
 20
601.8063551173
 10
744.6007273015
 20
601.3037834214
 10
744.4153249472
 20
600.807761649
 10
744.1669727343
 20
600.3209988991
 10
743.8570270765
 20
599.846153701
 10
743.4871807895
 20
599.3858194946
 10
743.0594538455
 20
598.9425104655
 10
742.5761823407
 20
598.5186478141
 10
742.0400057364
 20
598.1165465311
 10
741.4538524435
 20
597.7384027543
 10
740.8209238278
 20
597.3862817739
 10
740.144676726
 20
597.0621067526
 10
739.4288045652
 20
596.7676482219
 10
738.6772171911
 20
596.5045144122
 10
737.8940195131
 20
596.2741424691
 10
737.0834890855
 20
596.0777906043
 10
736.2500527442
 20
595.9165312237
 10
735.3982624297
 20
595.7912450699
 10
734.5327703252
 20
595.7026164126
 10
733.6583034485
 20
595.6511293107
 10
732.7796378344
 20
595.6370649689
 10
731.9015724499
 20
595.6605002019
 10
731.0289029835
 20
595.7213070144
 10
730.1663956532
 20
595.8191533007
 10
729.3187611751
 20
595.9535046584
 10
728.4906290346
 20
596.1236273069
 10
727.6865222024
 20
596.3285920954
 10
726.9108324312
 20
596.5672795771
 10
726.1677962694
 20
596.838386124
 10
725.461471923
 20
597.1404310459
 10
724.7957170906
 20
597.4717646784
 10
724.1741678942
 20
597.8305773919
 10
723.60021902
 20
598.2149094759
 10
723.0770051777
 20
598.6226618419
 10
722.6073839798
 20
599.0516074877
 10
722.1939203346
 20
599.499403661
 10
721.8388724371
 20
599.9636046544
 10
721.5441794357
 20
600.4416751631
 10
721.3114508415
 20
600.9310041317
 10
721.1419577373
 20
601.428919015
 10
721.0366258357
 20
601.9327003747
 10
720.996030423
 20
602.4395967316
 10
721.0203932173
 20
602.9468395936
 10
721.1095811574
 20
603.4516585762
 10
721.2631071297
 20
603.951296533
 10
721.4801326287
 20
604.4430246149
 10
721.7594723362
 20
604.9241571735
 10
722.0996005958
 20
605.3920664296
 10
722.4895367031
 20
605.8347238515
  0
LWPOLYLINE
  5
A8
330
1F
100
AcDbEntity
  8
0
  6
Continuous
 62
     8
370
    15
100
AcDbPolyline
 90
       97
 70
   128
 43
0.0
 10
749.5107787914
 20
606.1235410769
 10
750.3648074209
 20
605.6037771917
 10
751.1701293366
 20
605.0587183302
 10
751.9244999619
 20
604.4898836691
 10
752.6258167306
 20
603.8988586526
 10
753.272124947
 20
603.2872905735
 10
753.8616232342
 20
602.6568839817
 10
754.3926685547
 20
602.0093959335
 10
754.86378079
 20
601.3466310941
 10
755.2736468658
 20
600.670436708
 10
755.6211244119
 20
599.9826974503
 10
755.9052449459
 20
599.2853301737
 10
756.1252165731
 20
598.5802785657
 10
756.2804261929
 20
597.8695077318
 10
756.3704412085
 20
597.1549987176
 10
756.3950107317
 20
596.438742988
 10
756.3540662829
 20
595.7227368762
 10
756.2477219817
 20
595.0089760196
 10
756.0762742286
 20
594.2994497977
 10
755.8402008794
 20
593.5961357874
 10
755.5401599127
 20
592.9009942509
 10
755.1769875966
 20
592.2159626725
 10
754.7516961575
 20
591.5429503579
 10
754.2654709588
 20
590.8838331133
 10
753.7196671974
 20
590.2404480165
 10
753.1158061264
 20
589.6145882972
 10
752.4555708147
 20
589.0079983389
 10
751.7408014566
 20
588.4223688163
 10
750.9734902426
 20
587.8593319841
 10
750.1557758066
 20
587.3204571269
 10
749.2899372653
 20
586.8072461856
 10
748.3783878662
 20
586.3211295711
 10
747.4236682609
 20
585.8634621776
 10
746.4284394241
 20
585.4355196063
 10
745.3954752371
 20
585.0384946097
 10
744.3276547564
 20
584.6734937679
 10
743.2279541892
 20
584.3415344036
 10
742.0994385982
 20
584.043541747
 10
740.9452533587
 20
583.7803463573
 10
739.7686153921
 20
583.552681807
 10
738.5728041993
 20
583.3611826383
 10
737.3611527208
 20
583.2063825935
 10
736.1370380463
 20
583.0887131283
 10
734.9038720032
 20
583.0085022084
 10
733.6650916462
 20
582.9659733961
 10
732.4241496786
 20
582.9612452269
 10
731.1845048281
 20
582.994330879
 10
729.9496122072
 20
583.0651381367
 10
728.7229136832
 20
583.1734696475
 10
727.5078282848
 20
583.3190234722
 10
726.3077426731
 20
583.5013939259
 10
725.1260017018
 20
583.7200727097
 10
723.965899095
 20
583.9744503265
 10
722.8306682667
 20
584.2638177802
 10
721.7234733089
 20
584.5873685519
 10
720.6474001725
 20
584.9442008475
 10
719.6054480663
 20
585.3333201115
 10
718.6005210977
 20
585.7536417986
 10
717.6354201784
 20
586.2039943969
 10
716.7128352179
 20
586.6831226929
 10
715.8353376258
 20
587.1896912702
 10
715.0053731453
 20
587.7222882313
 10
714.2252550362
 20
588.2794291329
 10
713.4971576278
 20
588.8595611234
 10
712.823110258
 20
589.4610672709
 10
712.2049916177
 20
590.0822710699
 10
711.6445245146
 20
590.7214411139
 10
711.1432710708
 20
591.3767959215
 10
710.7026283697
 20
592.0465089011
 10
710.3238245615
 20
592.7287134427
 10
710.0079154403
 20
593.4215081198
 10
709.7557815016
 20
594.1229619894
 10
709.5681254879
 20
594.8311199738
 10
709.44547043
 20
595.5440083096
 10
709.3881581897
 20
596.2596400491
 10
709.3963485065
 20
596.9760205985
 10
709.4700185524
 20
597.6911532765
 10
709.6089629959
 20
598.4030448802
 10
709.8127945738
 20
599.1097112399
 10
710.080945171
 20
599.8091827498
 10
710.4126674037
 20
600.4995098574
 10
710.8070367025
 20
601.1787684971
 10
711.2629538895
 20
601.8450654533
 10
711.7791482416
 20
602.4965436369
 10
712.3541810327
 20
603.1313872613
 10
712.9864495432
 20
603.7478269035
 10
713.6741915273
 20
604.3441444357
 10
714.4154901249
 20
604.9186778139
 10
715.2082792037
 20
605.4698257105
 10
716.0503491184
 20
605.9960519776
 10
716.9393528692
 20
606.4958899281
 10
717.8728126431
 20
606.967946424
 10
718.8481267203
 20
607.4109057592
 10
719.8625767255
 20
607.8235333266
 10
720.9133352047
 20
608.2046790591
 10
721.9974735055
 20
608.5532806353
 10
722.4895367031
 20
608.6975953808
  0
ARC
  5
A9
330
1F
100
AcDbEntity
  8
0
  6
Continuous
 62
     8
370
    15
100
AcDbCircle
 10
735.9545501133
 20
582.1645375799
 30
0.0
 40
27.52826156047423
100
AcDbArc
 50
60.498411837
 51
74.5466945963
  0
LWPOLYLINE
  5
AA
330
1F
100
AcDbEntity
  8
0
  6
Continuous
 62
     8
370
    15
100
AcDbPolyline
 90
       63
 70
   128
 43
0.0
 10
757.8895366155
 20
594.3164520006
 10
757.8767963146
 20
593.856965626
 10
757.803453808
 20
593.1210257842
 10
757.6651137363
 20
592.3882078256
 10
757.462137013
 20
591.6604235885
 10
757.1950531811
 20
590.9395717789
 10
756.8645590319
 20
590.2275330169
 10
756.4715167869
 20
589.5261649303
 10
756.0169518484
 20
588.8372973084
 10
755.5020501244
 20
588.1627273282
 10
754.9281549348
 20
587.5042148656
 10
754.2967635065
 20
586.8634779046
 10
753.6095230677
 20
586.2421880547
 10
752.8682265503
 20
585.6419661901
 10
752.0748079123
 20
585.0643782212
 10
751.2313370922
 20
584.5109310091
 10
750.3400146091
 20
583.9830684344
 10
749.4031658216
 20
583.4821676301
 10
748.4232348612
 20
583.0095353894
 10
747.402778256
 20
582.5664047558
 10
746.3444582607
 20
582.1539318065
 10
745.2510359113
 20
581.7731926363
 10
744.1253638218
 20
581.4251805503
 10
742.9703787423
 20
581.1108034722
 10
741.7890938969
 20
580.830881576
 10
740.584591123
 20
580.586145146
 10
739.3600128307
 20
580.3772326714
 10
738.1185538049
 20
580.2046891812
 10
736.8634528706
 20
580.0689648216
 10
735.5979844427
 20
579.9704136819
 10
734.325449984
 20
579.9092928709
 10
733.0491693914
 20
579.8857618457
 10
731.7724723353
 20
579.899881996
 10
730.4986895727
 20
579.9516164841
 10
729.2311442572
 20
580.0408303406
 10
727.97314327
 20
580.1672908166
 10
726.7279685918
 20
580.3306679913
 10
725.4988687413
 20
580.5305356323
 10
724.2890502997
 20
580.7663723077
 10
723.1016695451
 20
581.0375627465
 10
721.9398242184
 20
581.3433994438
 10
720.8065454413
 20
581.6830845067
 10
719.7047898088
 20
582.0557317356
 10
718.6374316756
 20
582.4603689364
 10
717.607255657
 20
582.8959404568
 10
716.6169493648
 20
583.3613099406
 10
715.669096395
 20
583.8552632917
 10
714.7661695878
 20
584.3765118425
 10
713.9105245761
 20
584.9236957148
 10
713.10439364
 20
585.4953873685
 10
712.3498798831
 20
586.0900953253
 10
711.6489517457
 20
586.70626806
 10
711.0034378692
 20
587.3422980483
 10
710.4150223257
 20
587.9965259607
 10
709.885240224
 20
588.6672449912
 10
709.4154737053
 20
589.3527053104
 10
709.0069483367
 20
590.0511186306
 10
708.6607299143
 20
590.7606628712
 10
708.3777216824
 20
591.4794869123
 10
708.1586619771
 20
592.205715424
 10
708.0041223003
 20
592.9374537592
 10
707.9145058283
 20
593.6727928959
 10
707.8895494932
 20
594.3322591089
  0
LWPOLYLINE
  5
AB
330
1F
100
AcDbEntity
  8
0
  6
Continuous
 62
     8
370
    15
100
AcDbPolyline
 90
        3
 70
   128
 43
0.0
 10
757.8533092599
 20
567.2205217905
 10
757.803453808
 20
566.8005611453
 10
757.7354192348
 20
566.397148232
  0
LWPOLYLINE
  5
AC
330
1F
100
AcDbEntity
  8
0
  6
Continuous
 62
     8
370
    15
100
AcDbPolyline
 90
        3
 70
   128
 43
0.0
 10
708.0436541714
 20
566.397148232
 10
708.0041223003
 20
566.6169891203
 10
707.9297135093
 20
567.1793141391
  0
LWPOLYLINE
  5
AD
330
1F
100
AcDbEntity
  8
0
  6
Continuous
 62
     8
370
    15
100
AcDbPolyline
 90
       42
 70
   128
 43
0.0
 10
743.2895367031
 20
613.396864931
 10
743.2890227478
 20
613.3371777196
 10
743.247933748
 20
612.8603876802
 10
743.141355627
 20
612.3869894226
 10
742.969962206
 20
611.9199759232
 10
742.7348370894
 20
611.4622997916
 10
742.4374668138
 20
611.0168546037
 10
742.0797314499
 20
610.5864566073
 10
741.6638927158
 20
610.1738269173
 10
741.192579678
 20
609.7815743113
 10
740.6687721291
 20
609.4121787366
 10
740.0957817492
 20
609.067975631
 10
739.4772311678
 20
608.7511411573
 10
738.8170310611
 20
608.4636784451
 10
738.1193554265
 20
608.2074049262
 10
737.3886151941
 20
607.9839408443
 10
736.6294303389
 20
607.7946990113
 10
735.8466006721
 20
607.640875875
 10
735.0450754947
 20
607.5234439547
 10
734.229922307
 20
607.4431456929
 10
733.4062947701
 20
607.4004887611
 10
732.5794001222
 20
607.39574285
 10
731.7544662576
 20
607.428937965
 10
730.9367086739
 20
607.4998642357
 10
730.1312974977
 20
607.6080732435
 10
729.3433247979
 20
607.7528808561
 10
728.5777723914
 20
607.9333715533
 10
727.8394803473
 20
608.1484042147
 10
727.1331163853
 20
608.3966193345
 10
726.4631463661
 20
608.676447617
 10
725.8338060556
 20
608.9861198976
 10
725.249074346
 20
609.3236783284
 10
724.7126480995
 20
609.6869887563
 10
724.2279187754
 20
610.0737542159
 10
723.7979509887
 20
610.4815294514
 10
723.4254631341
 20
610.9077363764
 10
723.1128101997
 20
611.3496803736
 10
722.8619688781
 20
611.8045673307
 10
722.6745250688
 20
612.2695213059
 10
722.5516638521
 20
612.7416027104
 10
722.494161996
 20
613.2178268937
 10
722.4895834076
 20
613.4148579067
  0
LWPOLYLINE
  5
AE
330
1F
100
AcDbEntity
  8
0
  6
Continuous
 62
     8
370
    15
100
AcDbPolyline
 90
       42
 70
   128
 43
0.0
 10
743.2895367031
 20
604.7136818288
 10
743.2890227478
 20
604.6539946175
 10
743.247933748
 20
604.177204578
 10
743.141355627
 20
603.7038063205
 10
742.969962206
 20
603.236792821
 10
742.7348370894
 20
602.7791166894
 10
742.4374668138
 20
602.3336715015
 10
742.0797314499
 20
601.9032735052
 10
741.6638927158
 20
601.4906438151
 10
741.192579678
 20
601.0983912091
 10
740.6687721291
 20
600.7289956344
 10
740.0957817492
 20
600.3847925288
 10
739.4772311678
 20
600.0679580551
 10
738.8170310611
 20
599.7804953429
 10
738.1193554265
 20
599.524221824
 10
737.3886151941
 20
599.3007577421
 10
736.6294303389
 20
599.1115159091
 10
735.8466006721
 20
598.9576927728
 10
735.0450754947
 20
598.8402608525
 10
734.229922307
 20
598.7599625907
 10
733.4062947701
 20
598.7173056589
 10
732.5794001222
 20
598.7125597479
 10
731.7544662576
 20
598.7457548628
 10
730.9367086739
 20
598.8166811335
 10
730.1312974977
 20
598.9248901413
 10
729.3433247979
 20
599.0696977539
 10
728.5777723914
 20
599.2501884511
 10
727.8394803473
 20
599.4652211125
 10
727.1331163853
 20
599.7134362324
 10
726.4631463661
 20
599.9932645148
 10
725.8338060556
 20
600.3029367954
 10
725.249074346
 20
600.6404952262
 10
724.7126480995
 20
601.0038056541
 10
724.2279187754
 20
601.3905711137
 10
723.7979509887
 20
601.7983463492
 10
723.4254631341
 20
602.2245532742
 10
723.1128101997
 20
602.6664972714
 10
722.8619688781
 20
603.1213842285
 10
722.6745250688
 20
603.5863382037
 10
722.5516638521
 20
604.0584196083
 10
722.494161996
 20
604.5346437915
 10
722.4895367031
 20
604.7136818288
  0
ENDSEC
  0
SECTION
  2
OBJECTS
  0
DICTIONARY
  5
C
330
0
100
AcDbDictionary
281
     1
  3
ACAD_GROUP
350
D
  3
ACAD_LAYOUT
350
1A
  3
ACAD_MLINESTYLE
350
17
  3
ACAD_PLOTSETTINGS
350
19
  3
ACAD_PLOTSTYLENAME
350
E
  3
ACAD_SCALELIST
350
47
  0
DICTIONARY
  5
D
102
{ACAD_REACTORS
330
C
102
}
330
C
100
AcDbDictionary
281
     1
  0
DICTIONARY
  5
1A
102
{ACAD_REACTORS
330
C
102
}
330
C
100
AcDbDictionary
281
     1
  3
Layout1
350
1E
  3
Layout2
350
26
  3
Model
350
22
  0
DICTIONARY
  5
17
102
{ACAD_REACTORS
330
C
102
}
330
C
100
AcDbDictionary
281
     1
  3
Standard
350
18
  0
DICTIONARY
  5
19
102
{ACAD_REACTORS
330
C
102
}
330
C
100
AcDbDictionary
281
     1
  0
ACDBDICTIONARYWDFLT
  5
E
102
{ACAD_REACTORS
330
C
102
}
330
C
100
AcDbDictionary
281
     1
  3
Normal
350
F
100
AcDbDictionaryWithDefault
340
F
  0
DICTIONARY
  5
47
102
{ACAD_REACTORS
330
C
102
}
330
C
100
AcDbDictionary
281
     1
  3
A0
350
48
  3
A1
350
49
  3
A2
350
4A
  3
A3
350
4B
  3
A4
350
4C
  3
A5
350
4D
  3
A6
350
4E
  3
A7
350
4F
  3
A8
350
50
  3
A9
350
51
  3
B0
350
52
  3
B1
350
53
  3
B2
350
54
  3
B3
350
55
  3
B4
350
56
  3
B5
350
57
  3
B6
350
58
  3
B7
350
59
  3
B8
350
5A
  3
B9
350
5B
  3
C0
350
5C
  3
C1
350
5D
  3
C2
350
5E
  3
C3
350
5F
  3
C4
350
60
  3
C5
350
61
  3
C6
350
62
  3
C7
350
63
  3
C8
350
64
  3
C9
350
65
  3
D0
350
66
  3
D1
350
67
  3
D2
350
68
  0
LAYOUT
  5
1E
102
{ACAD_REACTORS
330
1A
102
}
330
1A
100
AcDbPlotSettings
  1

  2
none_device
  4

  6

 40
0.0
 41
0.0
 42
0.0
 43
0.0
 44
0.0
 45
0.0
 46
0.0
 47
0.0
 48
0.0
 49
0.0
140
0.0
141
0.0
142
1.0
143
1.0
 70
   688
 72
     1
 73
     0
 74
     5
  7

 75
    16
147
1.0
148
0.0
149
0.0
100
AcDbLayout
  1
Layout1
 70
     1
 71
     1
 10
0.0
 20
0.0
 11
420.0
 21
297.0
 12
0.0
 22
0.0
 32
0.0
 14
1.0000000000E+20
 24
1.0000000000E+20
 34
1.0000000000E+20
 15
-1.0000000000E+20
 25
-1.0000000000E+20
 35
-1.0000000000E+20
146
0.0
 13
0.0
 23
0.0
 33
0.0
 16
1.0
 26
0.0
 36
0.0
 17
0.0
 27
1.0
 37
0.0
 76
     0
330
1B
  0
LAYOUT
  5
26
102
{ACAD_REACTORS
330
1A
102
}
330
1A
100
AcDbPlotSettings
  1

  2
none_device
  4

  6

 40
0.0
 41
0.0
 42
0.0
 43
0.0
 44
0.0
 45
0.0
 46
0.0
 47
0.0
 48
0.0
 49
0.0
140
0.0
141
0.0
142
1.0
143
1.0
 70
   688
 72
     1
 73
     0
 74
     5
  7

 75
    16
147
1.0
148
0.0
149
0.0
100
AcDbLayout
  1
Layout2
 70
     1
 71
     2
 10
0.0
 20
0.0
 11
0.0
 21
0.0
 12
0.0
 22
0.0
 32
0.0
 14
0.0
 24
0.0
 34
0.0
 15
0.0
 25
0.0
 35
0.0
146
0.0
 13
0.0
 23
0.0
 33
0.0
 16
1.0
 26
0.0
 36
0.0
 17
0.0
 27
1.0
 37
0.0
 76
     0
330
23
  0
LAYOUT
  5
22
102
{ACAD_REACTORS
330
1A
102
}
330
1A
100
AcDbPlotSettings
  1

  2
none_device
  4
Letter_(8.50_x_11.00_Inches)
  6

 40
6.35
 41
6.35
 42
6.35000508
 43
6.35000508
 44
215.9
 45
279.4
 46
0.0
 47
0.0
 48
0.0
 49
0.0
140
0.0
141
0.0
142
1.0
143
1.0
 70
  1712
 72
     1
 73
     0
 74
     0
  7

 75
     0
147
1.0
148
0.0
149
0.0
100
AcDbLayout
  1
Model
 70
     1
 71
     0
 10
0.0
 20
0.0
 11
1189.0
 21
841.0
 12
0.0
 22
0.0
 32
0.0
 14
0.0
 24
0.0
 34
0.0
 15
1189.0
 25
841.0
 35
0.0
146
0.0
 13
0.0
 23
0.0
 33
0.0
 16
1.0
 26
0.0
 36
0.0
 17
0.0
 27
1.0
 37
0.0
 76
     0
330
1F
331
29
  0
MLINESTYLE
  5
18
102
{ACAD_REACTORS
330
17
102
}
330
17
100
AcDbMlineStyle
  2
Standard
 70
     0
  3

 62
   256
 51
90.0
 52
90.0
 71
     2
 49
0.5
 62
   256
  6
BYLAYER
 49
-0.5
 62
   256
  6
BYLAYER
  0
ACDBPLACEHOLDER
  5
F
102
{ACAD_REACTORS
330
E
102
}
330
E
  0
SCALE
  5
48
102
{ACAD_REACTORS
330
47
102
}
330
47
100
AcDbScale
 70
     0
300
1:1
140
1.0
141
1.0
290
     1
  0
SCALE
  5
49
102
{ACAD_REACTORS
330
47
102
}
330
47
100
AcDbScale
 70
     0
300
1:2
140
1.0
141
2.0
290
     0
  0
SCALE
  5
4A
102
{ACAD_REACTORS
330
47
102
}
330
47
100
AcDbScale
 70
     0
300
1:4
140
1.0
141
4.0
290
     0
  0
SCALE
  5
4B
102
{ACAD_REACTORS
330
47
102
}
330
47
100
AcDbScale
 70
     0
300
1:5
140
1.0
141
5.0
290
     0
  0
SCALE
  5
4C
102
{ACAD_REACTORS
330
47
102
}
330
47
100
AcDbScale
 70
     0
300
1:8
140
1.0
141
8.0
290
     0
  0
SCALE
  5
4D
102
{ACAD_REACTORS
330
47
102
}
330
47
100
AcDbScale
 70
     0
300
1:10
140
1.0
141
10.0
290
     0
  0
SCALE
  5
4E
102
{ACAD_REACTORS
330
47
102
}
330
47
100
AcDbScale
 70
     0
300
1:16
140
1.0
141
16.0
290
     0
  0
SCALE
  5
4F
102
{ACAD_REACTORS
330
47
102
}
330
47
100
AcDbScale
 70
     0
300
1:20
140
1.0
141
20.0
290
     0
  0
SCALE
  5
50
102
{ACAD_REACTORS
330
47
102
}
330
47
100
AcDbScale
 70
     0
300
1:30
140
1.0
141
30.0
290
     0
  0
SCALE
  5
51
102
{ACAD_REACTORS
330
47
102
}
330
47
100
AcDbScale
 70
     0
300
1:40
140
1.0
141
40.0
290
     0
  0
SCALE
  5
52
102
{ACAD_REACTORS
330
47
102
}
330
47
100
AcDbScale
 70
     0
300
1:50
140
1.0
141
50.0
290
     0
  0
SCALE
  5
53
102
{ACAD_REACTORS
330
47
102
}
330
47
100
AcDbScale
 70
     0
300
1:100
140
1.0
141
100.0
290
     0
  0
SCALE
  5
54
102
{ACAD_REACTORS
330
47
102
}
330
47
100
AcDbScale
 70
     0
300
2:1
140
2.0
141
1.0
290
     0
  0
SCALE
  5
55
102
{ACAD_REACTORS
330
47
102
}
330
47
100
AcDbScale
 70
     0
300
4:1
140
4.0
141
1.0
290
     0
  0
SCALE
  5
56
102
{ACAD_REACTORS
330
47
102
}
330
47
100
AcDbScale
 70
     0
300
8:1
140
8.0
141
1.0
290
     0
  0
SCALE
  5
57
102
{ACAD_REACTORS
330
47
102
}
330
47
100
AcDbScale
 70
     0
300
10:1
140
10.0
141
1.0
290
     0
  0
SCALE
  5
58
102
{ACAD_REACTORS
330
47
102
}
330
47
100
AcDbScale
 70
     0
300
100:1
140
100.0
141
1.0
290
     0
  0
SCALE
  5
59
102
{ACAD_REACTORS
330
47
102
}
330
47
100
AcDbScale
 70
     0
300
1/128" = 1'-0"
140
0.0078125
141
12.0
290
     0
  0
SCALE
  5
5A
102
{ACAD_REACTORS
330
47
102
}
330
47
100
AcDbScale
 70
     0
300
1/64" = 1'-0"
140
0.015625
141
12.0
290
     0
  0
SCALE
  5
5B
102
{ACAD_REACTORS
330
47
102
}
330
47
100
AcDbScale
 70
     0
300
1/32" = 1'-0"
140
0.03125
141
12.0
290
     0
  0
SCALE
  5
5C
102
{ACAD_REACTORS
330
47
102
}
330
47
100
AcDbScale
 70
     0
300
1/16" = 1'-0"
140
0.0625
141
12.0
290
     0
  0
SCALE
  5
5D
102
{ACAD_REACTORS
330
47
102
}
330
47
100
AcDbScale
 70
     0
300
3/32" = 1'-0"
140
0.09375
141
12.0
290
     0
  0
SCALE
  5
5E
102
{ACAD_REACTORS
330
47
102
}
330
47
100
AcDbScale
 70
     0
300
1/8" = 1'-0"
140
0.125
141
12.0
290
     0
  0
SCALE
  5
5F
102
{ACAD_REACTORS
330
47
102
}
330
47
100
AcDbScale
 70
     0
300
3/16" = 1'-0"
140
0.1875
141
12.0
290
     0
  0
SCALE
  5
60
102
{ACAD_REACTORS
330
47
102
}
330
47
100
AcDbScale
 70
     0
300
1/4" = 1'-0"
140
0.25
141
12.0
290
     0
  0
SCALE
  5
61
102
{ACAD_REACTORS
330
47
102
}
330
47
100
AcDbScale
 70
     0
300
3/8" = 1'-0"
140
0.375
141
12.0
290
     0
  0
SCALE
  5
62
102
{ACAD_REACTORS
330
47
102
}
330
47
100
AcDbScale
 70
     0
300
1/2" = 1'-0"
140
0.5
141
12.0
290
     0
  0
SCALE
  5
63
102
{ACAD_REACTORS
330
47
102
}
330
47
100
AcDbScale
 70
     0
300
3/4" = 1'-0"
140
0.75
141
12.0
290
     0
  0
SCALE
  5
64
102
{ACAD_REACTORS
330
47
102
}
330
47
100
AcDbScale
 70
     0
300
1" = 1'-0"
140
1.0
141
12.0
290
     0
  0
SCALE
  5
65
102
{ACAD_REACTORS
330
47
102
}
330
47
100
AcDbScale
 70
     0
300
1-1/2" = 1'-0"
140
1.5
141
12.0
290
     0
  0
SCALE
  5
66
102
{ACAD_REACTORS
330
47
102
}
330
47
100
AcDbScale
 70
     0
300
3" = 1'-0"
140
3.0
141
12.0
290
     0
  0
SCALE
  5
67
102
{ACAD_REACTORS
330
47
102
}
330
47
100
AcDbScale
 70
     0
300
6" = 1'-0"
140
6.0
141
12.0
290
     0
  0
SCALE
  5
68
102
{ACAD_REACTORS
330
47
102
}
330
47
100
AcDbScale
 70
     0
300
1'-0" = 1'-0"
140
12.0
141
12.0
290
     0
  0
ENDSEC
  0
EOF
