  0
SECTION
  2
HEADER
  9
$ACADVER
  1
AC1015
  9
$ACADMAINTVER
 70
     6
  9
$DWGCODEPAGE
  3
ANSI_1252
  9
$INSBASE
 10
0.0
 20
0.0
 30
0.0
  9
$EXTMIN
 10
0.0
 20
0.0
 30
0.0
  9
$EXTMAX
 10
1189.0
 20
841.0
 30
0.0
  9
$LIMMIN
 10
0.0
 20
0.0
  9
$LIMMAX
 10
1189.0
 20
841.0
  9
$ORTHOMODE
 70
     0
  9
$REGENMODE
 70
     1
  9
$FILLMODE
 70
     1
  9
$QTEXTMODE
 70
     0
  9
$MIRRTEXT
 70
     1
  9
$LTSCALE
 40
1.0
  9
$ATTMODE
 70
     1
  9
$TEXTSIZE
 40
3.5
  9
$TRACEWID
 40
1.0
  9
$TEXTSTYLE
  7
Standard
  9
$CLAYER
  8
0
  9
$CELTYPE
  6
ByLayer
  9
$CECOLOR
 62
   256
  9
$CELTSCALE
 40
1.0
  9
$DISPSILH
 70
     0
  9
$DIMSCALE
 40
1.0
  9
$DIMASZ
 40
3.302
  9
$DIMEXO
 40
1.0
  9
$DIMDLI
 40
3.75
  9
$DIMRND
 40
0.0
  9
$DIMDLE
 40
0.0
  9
$DIMEXE
 40
1.0
  9
$DIMTP
 40
0.0
  9
$DIMTM
 40
0.0
  9
$DIMTXT
 40
3.5
  9
$DIMCEN
 40
2.5
  9
$DIMTSZ
 40
0.0
  9
$DIMTOL
 70
     0
  9
$DIMLIM
 70
     0
  9
$DIMTIH
 70
     1
  9
$DIMTOH
 70
     1
  9
$DIMSE1
 70
     0
  9
$DIMSE2
 70
     0
  9
$DIMTAD
 70
     1
  9
$DIMZIN
 70
     0
  9
$DIMBLK
  1

  9
$DIMASO
 70
     1
  9
$DIMSHO
 70
     1
  9
$DIMPOST
  1

  9
$DIMAPOST
  1

  9
$DIMALT
 70
     0
  9
$DIMALTD
 70
     3
  9
$DIMALTF
 40
0.0393700787
  9
$DIMLFAC
 40
5.0
  9
$DIMTOFL
 70
     1
  9
$DIMTVP
 40
0.0
  9
$DIMTIX
 70
     0
  9
$DIMSOXD
 70
     0
  9
$DIMSAH
 70
     0
  9
$DIMBLK1
  1

  9
$DIMBLK2
  1

  9
$DIMSTYLE
  2
ISO-25
  9
$DIMCLRD
 70
     0
  9
$DIMCLRE
 70
     0
  9
$DIMCLRT
 70
     0
  9
$DIMTFAC
 40
1.0
  9
$DIMGAP
 40
1.524
  9
$DIMJUST
 70
     0
  9
$DIMSD1
 70
     0
  9
$DIMSD2
 70
     0
  9
$DIMTOLJ
 70
     0
  9
$DIMTZIN
 70
     0
  9
$DIMALTZ
 70
     0
  9
$DIMALTTZ
 70
     0
  9
$DIMUPT
 70
     0
  9
$DIMDEC
 70
     2
  9
$DIMTDEC
 70
     2
  9
$DIMALTU
 70
     2
  9
$DIMALTTD
 70
     3
  9
$DIMTXSTY
  7
Standard
  9
$DIMAUNIT
 70
     0
  9
$DIMADEC
 70
     2
  9
$DIMALTRND
 40
0.0
  9
$DIMAZIN
 70
     0
  9
$DIMDSEP
 70
    44
  9
$DIMATFIT
 70
     3
  9
$DIMFRAC
 70
     0
  9
$DIMLDRBLK
  1

  9
$DIMLUNIT
 70
     2
  9
$DIMLWD
 70
    -2
  9
$DIMLWE
 70
    -2
  9
$DIMTMOVE
 70
     0
  9
$LUNITS
 70
     2
  9
$LUPREC
 70
     2
  9
$SKETCHINC
 40
1.0
  9
$FILLETRAD
 40
10.0
  9
$AUNITS
 70
     0
  9
$AUPREC
 70
     2
  9
$MENU
  1
.
  9
$ELEVATION
 40
0.0
  9
$PELEVATION
 40
0.0
  9
$THICKNESS
 40
0.0
  9
$LIMCHECK
 70
     0
  9
$CHAMFERA
 40
0.0
  9
$CHAMFERB
 40
0.0
  9
$CHAMFERC
 40
0.0
  9
$CHAMFERD
 40
0.0
  9
$SKPOLY
 70
     0
  9
$TDCREATE
 40
2458057.567477743
  9
$TDUCREATE
 40
2458057.567477743
  9
$TDUPDATE
 40
2458057.567477917
  9
$TDUUPDATE
 40
2458057.567477917
  9
$TDINDWG
 40
0.0000000116
  9
$TDUSRTIMER
 40
0.0000000116
  9
$USRTIMER
 70
     1
  9
$ANGBASE
 50
0.0
  9
$ANGDIR
 70
     0
  9
$PDMODE
 70
     0
  9
$PDSIZE
 40
-1.0
  9
$PLINEWID
 40
0.0
  9
$SPLFRAME
 70
     0
  9
$SPLINETYPE
 70
     6
  9
$SPLINESEGS
 70
     8
  9
$HANDSEED
  5
9A
  9
$SURFTAB1
 70
     6
  9
$SURFTAB2
 70
     6
  9
$SURFTYPE
 70
     6
  9
$SURFU
 70
     6
  9
$SURFV
 70
     6
  9
$UCSBASE
  2

  9
$UCSNAME
  2

  9
$UCSORG
 10
0.0
 20
0.0
 30
0.0
  9
$UCSXDIR
 10
1.0
 20
0.0
 30
0.0
  9
$UCSYDIR
 10
0.0
 20
1.0
 30
0.0
  9
$UCSORTHOREF
  2

  9
$UCSORTHOVIEW
 70
     0
  9
$UCSORGTOP
 10
0.0
 20
0.0
 30
0.0
  9
$UCSORGBOTTOM
 10
0.0
 20
0.0
 30
0.0
  9
$UCSORGLEFT
 10
0.0
 20
0.0
 30
0.0
  9
$UCSORGRIGHT
 10
0.0
 20
0.0
 30
0.0
  9
$UCSORGFRONT
 10
0.0
 20
0.0
 30
0.0
  9
$UCSORGBACK
 10
0.0
 20
0.0
 30
0.0
  9
$PUCSBASE
  2

  9
$PUCSNAME
  2

  9
$PUCSORG
 10
0.0
 20
0.0
 30
0.0
  9
$PUCSXDIR
 10
1.0
 20
0.0
 30
0.0
  9
$PUCSYDIR
 10
0.0
 20
1.0
 30
0.0
  9
$PUCSORTHOREF
  2

  9
$PUCSORTHOVIEW
 70
     0
  9
$PUCSORGTOP
 10
0.0
 20
0.0
 30
0.0
  9
$PUCSORGBOTTOM
 10
0.0
 20
0.0
 30
0.0
  9
$PUCSORGLEFT
 10
0.0
 20
0.0
 30
0.0
  9
$PUCSORGRIGHT
 10
0.0
 20
0.0
 30
0.0
  9
$PUCSORGFRONT
 10
0.0
 20
0.0
 30
0.0
  9
$PUCSORGBACK
 10
0.0
 20
0.0
 30
0.0
  9
$USERI1
 70
     0
  9
$USERI2
 70
     0
  9
$USERI3
 70
     0
  9
$USERI4
 70
     0
  9
$USERI5
 70
     0
  9
$USERR1
 40
0.0
  9
$USERR2
 40
0.0
  9
$USERR3
 40
0.0
  9
$USERR4
 40
0.0
  9
$USERR5
 40
0.0
  9
$WORLDVIEW
 70
     1
  9
$SHADEDGE
 70
     3
  9
$SHADEDIF
 70
    70
  9
$TILEMODE
 70
     1
  9
$MAXACTVP
 70
    64
  9
$PINSBASE
 10
0.0
 20
0.0
 30
0.0
  9
$PLIMCHECK
 70
     0
  9
$PEXTMIN
 10
1.0000000000E+20
 20
1.0000000000E+20
 30
1.0000000000E+20
  9
$PEXTMAX
 10
-1.0000000000E+20
 20
-1.0000000000E+20
 30
-1.0000000000E+20
  9
$PLIMMIN
 10
0.0
 20
0.0
  9
$PLIMMAX
 10
420.0
 20
297.0
  9
$UNITMODE
 70
     0
  9
$VISRETAIN
 70
     1
  9
$PLINEGEN
 70
     0
  9
$PSLTSCALE
 70
     1
  9
$TREEDEPTH
 70
  3020
  9
$CMLSTYLE
  2
Standard
  9
$CMLJUST
 70
     0
  9
$CMLSCALE
 40
20.0
  9
$PROXYGRAPHICS
 70
     1
  9
$MEASUREMENT
 70
     1
  9
$CELWEIGHT
370
    -1
  9
$ENDCAPS
280
     0
  9
$JOINSTYLE
280
     0
  9
$LWDISPLAY
290
     1
  9
$INSUNITS
 70
     4
  9
$HYPERLINKBASE
  1

  9
$STYLESHEET
  1

  9
$XEDIT
290
     1
  9
$CEPSNTYPE
380
     0
  9
$PSTYLEMODE
290
     1
  9
$FINGERPRINTGUID
  2
{6689AF26-E631-4410-A809-6A8DD33A0510}
  9
$VERSIONGUID
  2
{FAEB1C32-E019-11D5-929B-00C0DF256EC4}
  9
$EXTNAMES
290
     1
  9
$PSVPSCALE
 40
0.0
  9
$OLESTARTUP
290
     0
  0
ENDSEC
  0
SECTION
  2
CLASSES
  0
CLASS
  1
ACDBDICTIONARYWDFLT
  2
AcDbDictionaryWithDefault
  3
ObjectDBX Classes
 90
        0
280
     0
281
     0
  0
CLASS
  1
VISUALSTYLE
  2
AcDbVisualStyle
  3
ObjectDBX Classes
 90
     4095
280
     0
281
     0
  0
CLASS
  1
MATERIAL
  2
AcDbMaterial
  3
ObjectDBX Classes
 90
     1153
280
     0
281
     0
  0
CLASS
  1
SCALE
  2
AcDbScale
  3
ObjectDBX Classes
 90
     1153
280
     0
281
     0
  0
CLASS
  1
TABLESTYLE
  2
AcDbTableStyle
  3
ObjectDBX Classes
 90
     4095
280
     0
281
     0
  0
CLASS
  1
MLEADERSTYLE
  2
AcDbMLeaderStyle
  3
ACDB_MLEADERSTYLE_CLASS
 90
     4095
280
     0
281
     0
  0
CLASS
  1
SUN
  2
AcDbSun
  3
SCENEOE
 90
     1153
280
     0
281
     0
  0
CLASS
  1
ACDBPLACEHOLDER
  2
AcDbPlaceHolder
  3
ObjectDBX Classes
 90
        0
280
     0
281
     0
  0
CLASS
  1
LAYOUT
  2
AcDbLayout
  3
ObjectDBX Classes
 90
        0
280
     0
281
     0
  0
ENDSEC
  0
SECTION
  2
TABLES
  0
TABLE
  2
VPORT
  5
8
330
0
100
AcDbSymbolTable
 70
     1
  0
VPORT
  5
29
330
8
100
AcDbSymbolTableRecord
100
AcDbViewportTableRecord
  2
*Active
 70
     0
 10
0.0
 20
0.0
 11
1.0
 21
1.0
 12
594.5
 22
420.5
 13
0.0
 23
0.0
 14
10.0
 24
10.0
 15
10.0
 25
10.0
 16
0.0
 26
0.0
 36
1.0
 17
0.0
 27
0.0
 37
0.0
 40
841.0
 41
1.4137931034
 42
50.0
 43
0.0
 44
0.0
 50
0.0
 51
0.0
 71
     0
 72
  2000
 73
     1
 74
     3
 75
     0
 76
     0
 77
     0
 78
     0
281
     0
 65
     1
110
0.0
120
0.0
130
0.0
111
1.0
121
0.0
131
0.0
112
0.0
122
1.0
132
0.0
 79
     0
146
0.0
  0
ENDTAB
  0
TABLE
  2
LTYPE
  5
5
330
0
100
AcDbSymbolTable
 70
     6
  0
LTYPE
  5
14
330
5
100
AcDbSymbolTableRecord
100
AcDbLinetypeTableRecord
  2
ByBlock
 70
     0
  3

 72
    65
 73
     0
 40
0.0
  0
LTYPE
  5
15
330
5
100
AcDbSymbolTableRecord
100
AcDbLinetypeTableRecord
  2
ByLayer
 70
     0
  3

 72
    65
 73
     0
 40
0.0
  0
LTYPE
  5
16
330
5
100
AcDbSymbolTableRecord
100
AcDbLinetypeTableRecord
  2
Continuous
 70
     0
  3
Solid line
 72
    65
 73
     0
 40
0.0
  0
LTYPE
  5
6E
330
5
100
AcDbSymbolTableRecord
100
AcDbLinetypeTableRecord
  2
HIDDEN
 70
     0
  3
Hidden __ __ __ __ __ __ __ __ __ __ __ __ __ __
 72
    65
 73
     2
 40
1.905
 49
1.27
 74
     0
 49
-0.635
 74
     0
  0
LTYPE
  5
6F
330
5
100
AcDbSymbolTableRecord
100
AcDbLinetypeTableRecord
  2
PHANTOM
 70
     0
  3
Phantom ______  __  __  ______  __  __  ______
 72
    65
 73
     6
 40
12.7
 49
6.35
 74
     0
 49
-1.27
 74
     0
 49
1.27
 74
     0
 49
-1.27
 74
     0
 49
1.27
 74
     0
 49
-1.27
 74
     0
  0
LTYPE
  5
70
330
5
100
AcDbSymbolTableRecord
100
AcDbLinetypeTableRecord
  2
CENTER
 70
     0
  3
Center ____ _ ____ _ ____ _ ____ _ ____ _ ____
 72
    65
 73
     4
 40
10.16
 49
6.35
 74
     0
 49
-1.27
 74
     0
 49
1.27
 74
     0
 49
-1.27
 74
     0
  0
LTYPE
  5
71
330
5
100
AcDbSymbolTableRecord
100
AcDbLinetypeTableRecord
  2
CENTERX2
 70
     0
  3
Center (2x) ________  __  ________  __  _____
 72
    65
 73
     4
 40
20.32
 49
12.7
 74
     0
 49
-2.54
 74
     0
 49
2.54
 74
     0
 49
-2.54
 74
     0
  0
LTYPE
  5
72
330
5
100
AcDbSymbolTableRecord
100
AcDbLinetypeTableRecord
  2
DOT2
 70
     0
  3
Dot (.5x) ........................................
 72
    65
 73
     2
 40
0.635
 49
0.0
 74
     0
 49
-0.635
 74
     0
  0
ENDTAB
  0
TABLE
  2
LAYER
  5
2
330
0
100
AcDbSymbolTable
 70
     2
  0
LAYER
  5
10
330
2
100
AcDbSymbolTableRecord
100
AcDbLayerTableRecord
  2
0
 70
     0
 62
     7
  6
Continuous
370
    -3
390
F
  0
LAYER
  5
73
330
2
100
AcDbSymbolTableRecord
100
AcDbLayerTableRecord
  2
FORMAT
 70
     0
 62
     7
  6
Continuous
370
    -3
390
F
  0
ENDTAB
  0
TABLE
  2
STYLE
  5
3
330
0
100
AcDbSymbolTable
 70
     1
  0
STYLE
  5
11
330
3
100
AcDbSymbolTableRecord
100
AcDbTextStyleTableRecord
  2
Standard
 70
     0
 40
0.0
 41
1.0
 50
0.0
 71
     0
 42
3.5
  3
txt
  4

  0
ENDTAB
  0
TABLE
  2
VIEW
  5
6
330
0
100
AcDbSymbolTable
 70
     0
  0
ENDTAB
  0
TABLE
  2
UCS
  5
7
330
0
100
AcDbSymbolTable
 70
     0
  0
ENDTAB
  0
TABLE
  2
APPID
  5
9
330
0
100
AcDbSymbolTable
 70
     1
  0
APPID
  5
12
330
9
100
AcDbSymbolTableRecord
100
AcDbRegAppTableRecord
  2
ACAD
 70
     0
  0
ENDTAB
  0
TABLE
  2
DIMSTYLE
  5
A
330
0
100
AcDbSymbolTable
 70
     1
100
AcDbDimStyleTable
  0
DIMSTYLE
105
27
330
A
100
AcDbSymbolTableRecord
100
AcDbDimStyleTableRecord
  2
ISO-25
 70
     0
 41
2.5
 42
0.625
 43
3.75
 44
1.25
 73
     0
 74
     0
 77
     1
 78
     8
140
2.5
141
2.5
143
0.0393700787
147
0.625
171
     3
172
     1
178
     0
271
     2
272
     2
274
     3
278
    44
283
     0
284
     8
340
11
  0
ENDTAB
  0
TABLE
  2
BLOCK_RECORD
  5
1
330
0
100
AcDbSymbolTable
 70
     1
  0
BLOCK_RECORD
  5
1F
330
1
100
AcDbSymbolTableRecord
100
AcDbBlockTableRecord
  2
*Model_Space
340
22
  0
BLOCK_RECORD
  5
1B
330
1
100
AcDbSymbolTableRecord
100
AcDbBlockTableRecord
  2
*Paper_Space
340
1E
  0
BLOCK_RECORD
  5
23
330
1
100
AcDbSymbolTableRecord
100
AcDbBlockTableRecord
  2
*Paper_Space0
340
26
  0
ENDTAB
  0
ENDSEC
  0
SECTION
  2
BLOCKS
  0
BLOCK
  5
20
330
1F
100
AcDbEntity
  8
0
100
AcDbBlockBegin
  2
*Model_Space
 70
     0
 10
0.0
 20
0.0
 30
0.0
  3
*Model_Space
  1

  0
ENDBLK
  5
21
330
1F
100
AcDbEntity
  8
0
100
AcDbBlockEnd
  0
BLOCK
  5
1C
330
1B
100
AcDbEntity
 67
     1
  8
0
100
AcDbBlockBegin
  2
*Paper_Space
 70
     0
 10
0.0
 20
0.0
 30
0.0
  3
*Paper_Space
  1

  0
ENDBLK
  5
1D
330
1B
100
AcDbEntity
 67
     1
  8
0
100
AcDbBlockEnd
  0
BLOCK
  5
24
330
23
100
AcDbEntity
  8
0
100
AcDbBlockBegin
  2
*Paper_Space0
 70
     0
 10
0.0
 20
0.0
 30
0.0
  3
*Paper_Space0
  1

  0
ENDBLK
  5
25
330
23
100
AcDbEntity
  8
0
100
AcDbBlockEnd
  0
ENDSEC
  0
SECTION
  2
ENTITIES
  0
ARC
  5
74
330
1F
100
AcDbEntity
  8
0
  6
Continuous
 62
     7
370
    15
100
AcDbCircle
 10
488.0715101419
 20
277.7340469259
 30
0.0
 40
0.4200000000000159
100
AcDbArc
 50
270.0
 51
90.0
  0
ARC
  5
75
330
1F
100
AcDbEntity
  8
0
  6
Continuous
 62
     7
370
    15
100
AcDbCircle
 10
463.4715101419
 20
277.7340469259
 30
0.0
 40
0.4200000000000159
100
AcDbArc
 50
90.0
 51
270.0
  0
LINE
  5
76
330
1F
100
AcDbEntity
  8
0
  6
Continuous
 62
     7
370
    15
100
AcDbLine
 10
488.0715101419
 20
278.1540469259
 30
0.0
 11
463.4715101419
 21
278.1540469259
 31
0.0
  0
LINE
  5
77
330
1F
100
AcDbEntity
  8
0
  6
Continuous
 62
     7
370
    15
100
AcDbLine
 10
463.4715101419
 20
277.3140469259
 30
0.0
 11
488.0715101419
 21
277.3140469259
 31
0.0
  0
LINE
  5
78
330
1F
100
AcDbEntity
  8
0
  6
Continuous
 62
     7
370
    15
100
AcDbLine
 10
487.7715101419
 20
278.1540469259
 30
0.0
 11
487.7715101419
 21
293.8846939139
 31
0.0
  0
LINE
  5
79
330
1F
100
AcDbEntity
  8
0
  6
Continuous
 62
     7
370
    15
100
AcDbLine
 10
463.7715101419
 20
293.8846939139
 30
0.0
 11
463.7715101419
 21
278.1540469259
 31
0.0
  0
ARC
  5
7A
330
1F
100
AcDbEntity
  8
0
  6
Continuous
 62
     7
370
    15
100
AcDbCircle
 10
486.1715101419
 20
293.8846939139
 30
0.0
 40
1.599999999999966
100
AcDbArc
 50
0.0
 51
55.9228047199
  0
ARC
  5
7B
330
1F
100
AcDbEntity
  8
0
  6
Continuous
 62
     7
370
    15
100
AcDbCircle
 10
465.3715101419
 20
293.8846939139
 30
0.0
 40
1.599999999999966
100
AcDbArc
 50
124.0771952801
 51
180.0
  0
LINE
  5
7C
330
1F
100
AcDbEntity
  8
0
  6
Continuous
 62
     7
370
    15
100
AcDbLine
 10
487.0680051303
 20
295.209947375
 30
0.0
 11
481.6750151536
 21
298.8581464768
 31
0.0
  0
LINE
  5
7D
330
1F
100
AcDbEntity
  8
0
  6
Continuous
 62
     7
370
    15
100
AcDbLine
 10
469.8680051303
 20
298.8581464768
 30
0.0
 11
464.4750151536
 21
295.209947375
 31
0.0
  0
ARC
  5
7E
330
1F
100
AcDbEntity
  8
0
  6
Continuous
 62
     7
370
    15
100
AcDbCircle
 10
482.5715101419
 20
300.1833999378
 30
0.0
 40
1.600000000000035
100
AcDbArc
 50
180.0
 51
235.9228047199
  0
ARC
  5
7F
330
1F
100
AcDbEntity
  8
0
  6
Continuous
 62
     7
370
    15
100
AcDbCircle
 10
468.9715101419
 20
300.1833999378
 30
0.0
 40
1.600000000000023
100
AcDbArc
 50
304.0771952801
 51
0.0
  0
ARC
  5
80
330
1F
100
AcDbEntity
  8
0
  6
Continuous
 62
     7
370
    15
100
AcDbCircle
 10
480.7715101419
 20
305.5340469259
 30
0.0
 40
0.1999999999999886
100
AcDbArc
 50
0.0
 51
90.0
  0
ARC
  5
81
330
1F
100
AcDbEntity
  8
0
  6
Continuous
 62
     7
370
    15
100
AcDbCircle
 10
470.7715101419
 20
305.5340469259
 30
0.0
 40
0.1999999999999886
100
AcDbArc
 50
90.0
 51
180.0
  0
LINE
  5
82
330
1F
100
AcDbEntity
  8
0
  6
Continuous
 62
     7
370
    15
100
AcDbLine
 10
480.9715101419
 20
300.1833999378
 30
0.0
 11
480.9715101419
 21
305.5340469259
 31
0.0
  0
LINE
  5
83
330
1F
100
AcDbEntity
  8
0
  6
Continuous
 62
     7
370
    15
100
AcDbLine
 10
470.5715101419
 20
305.5340469259
 30
0.0
 11
470.5715101419
 21
300.1833999378
 31
0.0
  0
LINE
  5
84
330
1F
100
AcDbEntity
  8
0
  6
Continuous
 62
     7
370
    15
100
AcDbLine
 10
480.7715101419
 20
305.7340469259
 30
0.0
 11
470.7715101419
 21
305.7340469259
 31
0.0
  0
CIRCLE
  5
85
330
1F
100
AcDbEntity
  8
0
  6
Continuous
 62
     7
370
    15
100
AcDbCircle
 10
475.7715101419
 20
549.0119634377
 30
0.0
 40
12.72000000000003
  0
CIRCLE
  5
86
330
1F
100
AcDbEntity
  8
0
  6
Continuous
 62
     7
370
    15
100
AcDbCircle
 10
475.7715101419
 20
549.0119634377
 30
0.0
 40
5.199999999999818
  0
CIRCLE
  5
87
330
1F
100
AcDbEntity
  8
0
  6
Continuous
 62
     7
370
    15
100
AcDbCircle
 10
475.7715101419
 20
549.0119634377
 30
0.0
 40
1.0
  0
CIRCLE
  5
88
330
1F
100
AcDbEntity
  8
0
  6
Continuous
 62
     7
370
    15
100
AcDbCircle
 10
475.7715101419
 20
549.0119634377
 30
0.0
 40
11.99999999999989
  0
CIRCLE
  5
89
330
1F
100
AcDbEntity
  8
0
  6
Continuous
 62
     7
370
    15
100
AcDbCircle
 10
475.7715101419
 20
549.0119634377
 30
0.0
 40
12.15999999999997
  0
LWPOLYLINE
  5
8A
330
1F
100
AcDbEntity
  8
0
  6
Continuous
 62
     7
370
    15
100
AcDbPolyline
 90
       26
 70
   128
 43
0.0
 10
703.9619361753
 20
552.5945185396
 10
703.9622785838
 20
552.7786470842
 10
703.934775375
 20
553.1559393649
 10
703.8793349652
 20
553.5307411305
 10
703.7961845403
 20
553.9024170475
 10
703.6854867508
 20
554.27037613
 10
703.5473444782
 20
554.6340381528
 10
703.3818176438
 20
554.9928052835
 10
703.1889536271
 20
555.3460328512
 10
702.9688304972
 20
555.6930037027
 10
702.7216090236
 20
556.0329118265
 10
702.4475857823
 20
556.3648606967
 10
702.1472371326
 20
556.687879462
 10
701.8212441312
 20
557.0009558472
 10
701.470492435
 20
557.303079777
 10
701.0960478793
 20
557.5932884392
 10
700.6991149213
 20
557.8707034616
 10
700.2809886242
 20
558.1345540807
 10
700.1193213884
 20
558.2296783236
 10
699.8822965594
 20
558.3628123769
 10
699.4271391686
 20
558.5991211251
 10
698.955074853
 20
558.8200655394
 10
698.4671421902
 20
559.0254383729
 10
697.9646174789
 20
559.2149491357
 10
697.4487567821
 20
559.3883532379
 10
697.1654758779
 20
559.4726408643
  0
LWPOLYLINE
  5
8B
330
1F
100
AcDbEntity
  8
0
  6
Continuous
 62
     7
370
    15
100
AcDbPolyline
 90
       25
 70
   128
 43
0.0
 10
686.7654758779
 20
559.4750185203
 10
686.7608357552
 20
559.4737290578
 10
686.2383558625
 20
559.3089394854
 10
685.7283554699
 20
559.1278505137
 10
685.2320069697
 20
558.9306291437
 10
684.7504882682
 20
558.717458529
 10
684.2849906615
 20
558.4885442197
 10
683.8367276951
 20
558.2441243086
 10
683.4069438833
 20
557.9844844468
 10
682.9969594419
 20
557.7100052232
 10
682.6081833458
 20
557.4212118181
 10
682.241976923
 20
557.1187170527
 10
681.8996986099
 20
556.8032861399
 10
681.5826626994
 20
556.4758512079
 10
681.292085043
 20
556.1375088464
 10
681.0290238459
 20
555.7894962421
 10
680.7943279014
 20
555.4331470048
 10
680.58860491
 20
555.0698344597
 10
680.4122175823
 20
554.7009144741
 10
680.2653070113
 20
554.3276792842
 10
680.1478354608
 20
553.9513287584
 10
680.0596375408
 20
553.5729591449
 10
680.0004701014
 20
553.1935648256
 10
679.9700550454
 20
552.8140472943
 10
679.9689489501
 20
552.5982767082
  0
LINE
  5
8C
330
1F
100
AcDbEntity
  8
0
  6
Continuous
 62
     7
370
    15
100
AcDbLine
 10
703.9654758779
 20
539.4110155582
 30
0.0
 11
703.9654758779
 21
552.5986779623
 31
0.0
  0
LINE
  5
8D
330
1F
100
AcDbEntity
  8
0
  6
Continuous
 62
     7
370
    15
100
AcDbLine
 10
679.9654758779
 20
552.5986779623
 30
0.0
 11
679.9654758779
 21
539.4110155582
 31
0.0
  0
LWPOLYLINE
  5
8E
330
1F
100
AcDbEntity
  8
0
  6
Continuous
 62
     7
370
    15
100
AcDbPolyline
 90
       13
 70
   128
 43
0.0
 10
697.162004715
 20
562.1114955085
 10
697.1628355889
 20
562.2101091391
 10
697.1365584384
 20
562.4388740168
 10
697.0823846936
 20
562.665255697
 10
697.0006043812
 20
562.8883434165
 10
696.8914887585
 20
563.1072075704
 10
696.7553873655
 20
563.3208039876
 10
696.5928347774
 20
563.5279643539
 10
696.404618696
 20
563.7274469279
 10
696.1917883991
 20
563.9180140666
 10
695.9556161806
 20
564.0985001644
 10
695.6975409469
 20
564.2678504461
 10
695.6010016571
 20
564.3250801806
  0
LWPOLYLINE
  5
8F
330
1F
100
AcDbEntity
  8
0
  6
Continuous
 62
     7
370
    15
100
AcDbPolyline
 90
       33
 70
   128
 43
0.0
 10
695.6010016571
 20
564.3250801806
 10
695.4526696056
 20
564.4073924274
 10
695.1576570902
 20
564.5533213314
 10
694.8454827114
 20
564.6857055702
 10
694.517875509
 20
564.803920702
 10
694.1766310832
 20
564.9074125939
 10
693.8235978073
 20
564.9956996756
 10
693.4606730618
 20
565.0683719742
 10
693.0897978465
 20
565.1250917873
 10
692.7129498124
 20
565.1655951158
 10
692.3321349681
 20
565.1896932447
 10
691.9493783786
 20
565.1972740674
 10
691.566714175
 20
565.1883029048
 10
691.1861837577
 20
565.1628234354
 10
690.8098148826
 20
565.1209576641
 10
690.4396051866
 20
565.0629032099
 10
690.0775195535
 20
564.988931191
 10
689.7254808483
 20
564.8993834128
 10
689.3853617087
 20
564.794669029
 10
689.0589778063
 20
564.675260979
 10
688.7480830249
 20
564.5416927385
 10
688.4543669785
 20
564.3945562761
 10
688.1794550935
 20
564.2345026225
 10
687.9249109193
 20
564.0622470757
 10
687.6922589257
 20
563.8785985049
 10
687.4829753026
 20
563.6844873122
 10
687.2984350814
 20
563.4809646212
 10
687.1399002268
 20
563.2692463849
 10
687.00845947
 20
563.0507258617
 10
686.9049519004
 20
562.8269473283
 10
686.8299026447
 20
562.5995280604
 10
686.7835094551
 20
562.3700428093
 10
686.7674896354
 20
562.1630145145
  0
LINE
  5
90
330
1F
100
AcDbEntity
  8
0
  6
Continuous
 62
     7
370
    15
100
AcDbLine
 10
697.1654758779
 20
557.7418284929
 30
0.0
 11
697.1654758779
 21
562.1108501286
 31
0.0
  0
LINE
  5
91
330
1F
100
AcDbEntity
  8
0
  6
Continuous
 62
     7
370
    15
100
AcDbLine
 10
686.7654758779
 20
562.1108501286
 30
0.0
 11
686.7654758779
 21
557.7418284929
 31
0.0
  0
LWPOLYLINE
  5
92
330
1F
100
AcDbEntity
  8
0
  6
Continuous
 62
     7
370
    15
100
AcDbPolyline
 90
       83
 70
   128
 43
0.0
 10
679.9654758779
 20
541.9208433046
 10
679.9549162476
 20
541.9041663547
 10
679.7689967884
 20
541.56147347
 10
679.6109501716
 20
541.2140208591
 10
679.4810776485
 20
540.86276873
 10
679.3795624819
 20
540.5086577202
 10
679.3064828648
 20
540.152585276
 10
679.261834048
 20
539.7953891632
 10
679.2455554998
 20
539.4378416296
 10
679.2575574062
 20
539.0806553389
 10
679.2977315822
 20
538.7245604194
 10
679.3659478554
 20
538.370279908
 10
679.4620800635
 20
538.0184441231
 10
679.5859965657
 20
537.6696990911
 10
679.7375404242
 20
537.3247257861
 10
679.9165045685
 20
536.9842498216
 10
680.1226075873
 20
536.6490403775
 10
680.3554751474
 20
536.3198995765
 10
680.6146301329
 20
535.9976454844
 10
680.8994921016
 20
535.683092834
 10
681.2093844312
 20
535.3770352674
 10
681.5435462484
 20
535.0802316551
 10
681.9011460552
 20
534.7933974924
 10
682.2812946266
 20
534.5172010472
 10
682.6830557511
 20
534.252263152
 10
683.10545432
 20
533.9991592932
 10
683.5474654088
 20
533.7584313707
 10
684.0080456068
 20
533.5305740773
 10
684.4861342399
 20
533.3160414548
 10
684.9806442182
 20
533.1152555864
 10
685.4904627981
 20
532.9286081734
 10
686.0144523145
 20
532.7564614894
 10
686.5514510453
 20
532.599148827
 10
687.1002742981
 20
532.4569745605
 10
687.6597157522
 20
532.3302139388
 10
688.2285490636
 20
532.2191127029
 10
688.8055297153
 20
532.1238866085
 10
689.3893970891
 20
532.0447209141
 10
689.9788767275
 20
531.9817698807
 10
690.5726827559
 20
531.9351563179
 10
691.1695204333
 20
531.9049712035
 10
691.7680888017
 20
531.891273392
 10
692.3670834081
 20
531.8940894279
 10
692.9651975834
 20
531.913413401
 10
693.5611210287
 20
531.9492064699
 10
694.1535556673
 20
532.0013975521
 10
694.7412111474
 20
532.0698836787
 10
695.3228075425
 20
532.1545304004
 10
695.8970779733
 20
532.2551723066
 10
696.4627711209
 20
532.3716136481
 10
697.0186535992
 20
532.5036290485
 10
697.5635121528
 20
532.6509642829
 10
698.0961556424
 20
532.8133370919
 10
698.61541678
 20
532.9904379865
 10
699.1201535768
 20
533.1819309834
 10
699.609250468
 20
533.3874541859
 10
700.0816190945
 20
533.606620102
 10
700.5361987405
 20
533.8390155588
 10
700.9719564675
 20
534.0842010416
 10
701.3878870445
 20
534.3417092575
 10
701.783012872
 20
534.6110427172
 10
702.1563658908
 20
534.8916556727
 10
702.5070152138
 20
535.1829647795
 10
702.83407027
 20
535.4843453852
 10
703.136679277
 20
535.7951207295
 10
703.4140380443
 20
536.1145565581
 10
703.6654022276
 20
536.4418580432
 10
703.8901026129
 20
536.7761709447
 10
704.0875618999
 20
537.116588871
 10
704.2573102147
 20
537.4621677202
 10
704.3989957153
 20
537.8119468152
 10
704.5123867444
 20
538.1649742136
 10
704.5973633948
 20
538.5203318858
 10
704.6538988588
 20
538.8771557266
 10
704.682033735
 20
539.2346461357
 10
704.6818485262
 20
539.5920669713
 10
704.6534403001
 20
539.9487323596
 10
704.5969360261
 20
540.3038482979
 10
704.5124632287
 20
540.6567836577
 10
704.40014932
 20
541.0069017737
 10
704.2601377996
 20
541.3535380698
 10
704.092611663
 20
541.6959860884
 10
703.9654758779
 20
541.9162677092
  0
LWPOLYLINE
  5
93
330
1F
100
AcDbEntity
  8
0
  6
Continuous
 62
     7
370
    15
100
AcDbPolyline
 90
        3
 70
   128
 43
0.0
 10
703.9654758779
 20
539.4110155582
 10
703.9593604915
 20
539.1898820527
 10
703.9397033914
 20
538.9572382393
  0
LWPOLYLINE
  5
94
330
1F
100
AcDbEntity
  8
0
  6
Continuous
 62
     7
370
    15
100
AcDbPolyline
 90
        3
 70
   128
 43
0.0
 10
679.9948480747
 20
538.9266199104
 10
679.977461058
 20
539.1014791423
 10
679.9654758779
 20
539.4110155582
  0
LINE
  5
95
330
1F
100
AcDbEntity
  8
0
  6
Continuous
 62
     7
370
    15
100
AcDbLine
 10
686.7654758779
 20
562.1108501286
 30
0.0
 11
686.7661526511
 21
562.159280345
 31
0.0
  0
LWPOLYLINE
  5
96
330
1F
100
AcDbEntity
  8
0
  6
Continuous
 62
     7
370
    15
100
AcDbPolyline
 90
       36
 70
   128
 43
0.0
 10
691.2583690967
 20
561.8659542351
 10
691.3959913848
 20
561.7996265935
 10
691.551917373
 20
561.7485507912
 10
691.7211354718
 20
561.7143684463
 10
691.8982068723
 20
561.6981782077
 10
692.077440354
 20
561.7005004429
 10
692.2530752054
 20
561.7212605133
 10
692.4194663777
 20
561.7597911732
 10
692.5712659218
 20
561.8148540155
 10
692.7035948754
 20
561.8846792751
 10
692.8122000772
 20
561.9670227108
 10
692.8935908664
 20
562.0592377367
 10
692.9451512763
 20
562.1583604861
 10
692.9652241129
 20
562.2612050722
 10
692.9531642185
 20
562.3644659854
 10
692.9093592082
 20
562.464824335
 10
692.8352170111
 20
562.5590545211
 10
692.7331206183
 20
562.6441279079
 10
692.6063514919
 20
562.7173101668
 10
692.458984096
 20
562.7762491598
 10
692.2957549399
 20
562.8190505392
 10
692.121910343
 20
562.8443386334
 10
691.9430378136
 20
562.8513006622
 10
691.7648864621
 20
562.8397128603
 10
691.5931822195
 20
562.8099476693
 10
691.4334438014
 20
562.7629617667
 10
691.290805332
 20
562.7002653183
 10
691.169851329
 20
562.6238734394
 10
691.0744693537
 20
562.5362414279
 10
691.0077250612
 20
562.4401858487
 10
690.971763668
 20
562.3387940072
 10
690.9677410029
 20
562.2353247206
 10
690.9957863575
 20
562.133103577
 10
691.0549983313
 20
562.0354160478
 10
691.1434738025
 20
561.9454018909
 10
691.2583690967
 20
561.8659542351
  0
ARC
  5
97
330
1F
100
AcDbEntity
  8
0
  6
Continuous
 62
     7
370
    15
100
AcDbCircle
 10
692.4441901711
 20
562.1043534403
 30
0.0
 40
0.5315883538587607
100
AcDbArc
 50
13.13621203
 51
64.5551806222
  0
LWPOLYLINE
  5
98
330
1F
100
AcDbEntity
  8
0
  6
Continuous
 62
     7
370
    15
100
AcDbPolyline
 90
       14
 70
   128
 43
0.0
 10
690.969083556
 20
562.2251658423
 10
690.9858004795
 20
562.2919711985
 10
691.0373608894
 20
562.3910939478
 10
691.1187516787
 20
562.4833089738
 10
691.2273568804
 20
562.5656524094
 10
691.3596858341
 20
562.6354776691
 10
691.5114853782
 20
562.6905405114
 10
691.6778765505
 20
562.7290711713
 10
691.8535114018
 20
562.7498312417
 10
692.0327448835
 20
562.7521534768
 10
692.2098162841
 20
562.7359632382
 10
692.3790343829
 20
562.7017808934
 10
692.5349603711
 20
562.650705091
 10
692.6725826591
 20
562.5843774495
  0
LWPOLYLINE
  5
99
330
1F
100
AcDbEntity
  8
0
  6
Continuous
 62
     7
370
    15
100
AcDbPolyline
 90
       70
 70
   128
 43
0.0
 10
703.9654758779
 20
540.8693620507
 10
704.0360943943
 20
540.5839176094
 10
704.0954925432
 20
540.2270079572
 10
704.1232448637
 20
539.8688130146
 10
704.119278953
 20
539.5102672713
 10
704.0836051578
 20
539.1523061322
 10
704.0163165469
 20
538.7958634772
 10
703.9175886687
 20
538.4418692243
 10
703.7876790928
 20
538.0912469041
 10
703.6269267387
 20
537.7449112503
 10
703.4357509907
 20
537.4037658129
 10
703.2146506046
 20
537.0687006016
 10
702.964202406
 20
536.7405897633
 10
702.6850597858
 20
536.4202893015
 10
702.3779509951
 20
536.1086348436
 10
702.0436772457
 20
535.8064394606
 10
701.6831106196
 20
535.5144915457
 10
701.2971917941
 20
535.2335527576
 10
700.8869275872
 20
534.9643560337
 10
700.4533883314
 20
534.7076036773
 10
699.9977050812
 20
534.4639655261
 10
699.521066662
 20
534.2340772042
 10
699.0247165693
 20
534.018538464
 10
698.5099497235
 20
533.8179116215
 10
697.9781090928
 20
533.6327200891
 10
697.4305821885
 20
533.4634470105
 10
696.8687974458
 20
533.3105339997
 10
696.294220497
 20
533.1743799894
 10
695.7083503478
 20
533.0553401898
 10
695.1127154664
 20
532.9537251622
 10
694.5088697962
 20
532.8698000086
 10
693.8983887018
 20
532.8037836801
 10
693.2828648585
 20
532.7558484057
 10
692.6639040977
 20
532.7261192432
 10
692.0431212175
 20
532.7146737525
 10
691.4221357694
 20
532.7215417937
 10
690.8025678337
 20
532.7467054487
 10
690.1860337923
 20
532.7900990685
 10
689.574142112
 20
532.851609444
 10
688.9684891486
 20
532.9310761018
 10
688.3706549813
 20
533.0282917224
 10
687.7821992913
 20
533.1430026813
 10
687.2046572923
 20
533.2749097107
 10
686.6395357254
 20
533.4236686803
 10
686.0883089282
 20
533.5888914949
 10
685.5524149885
 20
533.770147107
 10
685.0332519925
 20
533.9669626415
 10
684.5321743771
 20
534.178824629
 10
684.0504893966
 20
534.4051803459
 10
683.5894537121
 20
534.6454392559
 10
683.150270113
 20
534.898974551
 10
682.7340843793
 20
535.1651247865
 10
682.341982292
 20
535.4431956068
 10
681.9749868007
 20
535.732461557
 10
681.6340553546
 20
536.0321679752
 10
681.3200774051
 20
536.3415329615
 10
681.0338720847
 20
536.6597494181
 10
680.7761860705
 20
536.9859871545
 10
680.5476916358
 20
537.3193950538
 10
680.3489848965
 20
537.6591032927
 10
680.1805842558
 20
538.0042256114
 10
680.0429290518
 20
538.353861625
 10
679.9363784112
 20
538.7070991731
 10
679.8612103124
 20
539.0630166993
 10
679.8176208604
 20
539.4206856554
 10
679.8057237751
 20
539.7791729239
 10
679.8255500947
 20
540.1375432526
 10
679.8770480945
 20
540.494861694
 10
679.9600834222
 20
540.8501960452
 10
679.9654758779
 20
540.8693620507
  0
ENDSEC
  0
SECTION
  2
OBJECTS
  0
DICTIONARY
  5
C
330
0
100
AcDbDictionary
281
     1
  3
ACAD_GROUP
350
D
  3
ACAD_LAYOUT
350
1A
  3
ACAD_MLINESTYLE
350
17
  3
ACAD_PLOTSETTINGS
350
19
  3
ACAD_PLOTSTYLENAME
350
E
  3
ACAD_SCALELIST
350
47
  0
DICTIONARY
  5
D
102
{ACAD_REACTORS
330
C
102
}
330
C
100
AcDbDictionary
281
     1
  0
DICTIONARY
  5
1A
102
{ACAD_REACTORS
330
C
102
}
330
C
100
AcDbDictionary
281
     1
  3
Layout1
350
1E
  3
Layout2
350
26
  3
Model
350
22
  0
DICTIONARY
  5
17
102
{ACAD_REACTORS
330
C
102
}
330
C
100
AcDbDictionary
281
     1
  3
Standard
350
18
  0
DICTIONARY
  5
19
102
{ACAD_REACTORS
330
C
102
}
330
C
100
AcDbDictionary
281
     1
  0
ACDBDICTIONARYWDFLT
  5
E
102
{ACAD_REACTORS
330
C
102
}
330
C
100
AcDbDictionary
281
     1
  3
Normal
350
F
100
AcDbDictionaryWithDefault
340
F
  0
DICTIONARY
  5
47
102
{ACAD_REACTORS
330
C
102
}
330
C
100
AcDbDictionary
281
     1
  3
A0
350
48
  3
A1
350
49
  3
A2
350
4A
  3
A3
350
4B
  3
A4
350
4C
  3
A5
350
4D
  3
A6
350
4E
  3
A7
350
4F
  3
A8
350
50
  3
A9
350
51
  3
B0
350
52
  3
B1
350
53
  3
B2
350
54
  3
B3
350
55
  3
B4
350
56
  3
B5
350
57
  3
B6
350
58
  3
B7
350
59
  3
B8
350
5A
  3
B9
350
5B
  3
C0
350
5C
  3
C1
350
5D
  3
C2
350
5E
  3
C3
350
5F
  3
C4
350
60
  3
C5
350
61
  3
C6
350
62
  3
C7
350
63
  3
C8
350
64
  3
C9
350
65
  3
D0
350
66
  3
D1
350
67
  3
D2
350
68
  0
LAYOUT
  5
1E
102
{ACAD_REACTORS
330
1A
102
}
330
1A
100
AcDbPlotSettings
  1

  2
none_device
  4

  6

 40
0.0
 41
0.0
 42
0.0
 43
0.0
 44
0.0
 45
0.0
 46
0.0
 47
0.0
 48
0.0
 49
0.0
140
0.0
141
0.0
142
1.0
143
1.0
 70
   688
 72
     1
 73
     0
 74
     5
  7

 75
    16
147
1.0
148
0.0
149
0.0
100
AcDbLayout
  1
Layout1
 70
     1
 71
     1
 10
0.0
 20
0.0
 11
420.0
 21
297.0
 12
0.0
 22
0.0
 32
0.0
 14
1.0000000000E+20
 24
1.0000000000E+20
 34
1.0000000000E+20
 15
-1.0000000000E+20
 25
-1.0000000000E+20
 35
-1.0000000000E+20
146
0.0
 13
0.0
 23
0.0
 33
0.0
 16
1.0
 26
0.0
 36
0.0
 17
0.0
 27
1.0
 37
0.0
 76
     0
330
1B
  0
LAYOUT
  5
26
102
{ACAD_REACTORS
330
1A
102
}
330
1A
100
AcDbPlotSettings
  1

  2
none_device
  4

  6

 40
0.0
 41
0.0
 42
0.0
 43
0.0
 44
0.0
 45
0.0
 46
0.0
 47
0.0
 48
0.0
 49
0.0
140
0.0
141
0.0
142
1.0
143
1.0
 70
   688
 72
     1
 73
     0
 74
     5
  7

 75
    16
147
1.0
148
0.0
149
0.0
100
AcDbLayout
  1
Layout2
 70
     1
 71
     2
 10
0.0
 20
0.0
 11
0.0
 21
0.0
 12
0.0
 22
0.0
 32
0.0
 14
0.0
 24
0.0
 34
0.0
 15
0.0
 25
0.0
 35
0.0
146
0.0
 13
0.0
 23
0.0
 33
0.0
 16
1.0
 26
0.0
 36
0.0
 17
0.0
 27
1.0
 37
0.0
 76
     0
330
23
  0
LAYOUT
  5
22
102
{ACAD_REACTORS
330
1A
102
}
330
1A
100
AcDbPlotSettings
  1

  2
none_device
  4
Letter_(8.50_x_11.00_Inches)
  6

 40
6.35
 41
6.35
 42
6.35000508
 43
6.35000508
 44
215.9
 45
279.4
 46
0.0
 47
0.0
 48
0.0
 49
0.0
140
0.0
141
0.0
142
1.0
143
1.0
 70
  1712
 72
     1
 73
     0
 74
     0
  7

 75
     0
147
1.0
148
0.0
149
0.0
100
AcDbLayout
  1
Model
 70
     1
 71
     0
 10
0.0
 20
0.0
 11
1189.0
 21
841.0
 12
0.0
 22
0.0
 32
0.0
 14
0.0
 24
0.0
 34
0.0
 15
1189.0
 25
841.0
 35
0.0
146
0.0
 13
0.0
 23
0.0
 33
0.0
 16
1.0
 26
0.0
 36
0.0
 17
0.0
 27
1.0
 37
0.0
 76
     0
330
1F
331
29
  0
MLINESTYLE
  5
18
102
{ACAD_REACTORS
330
17
102
}
330
17
100
AcDbMlineStyle
  2
Standard
 70
     0
  3

 62
   256
 51
90.0
 52
90.0
 71
     2
 49
0.5
 62
   256
  6
BYLAYER
 49
-0.5
 62
   256
  6
BYLAYER
  0
ACDBPLACEHOLDER
  5
F
102
{ACAD_REACTORS
330
E
102
}
330
E
  0
SCALE
  5
48
102
{ACAD_REACTORS
330
47
102
}
330
47
100
AcDbScale
 70
     0
300
1:1
140
1.0
141
1.0
290
     1
  0
SCALE
  5
49
102
{ACAD_REACTORS
330
47
102
}
330
47
100
AcDbScale
 70
     0
300
1:2
140
1.0
141
2.0
290
     0
  0
SCALE
  5
4A
102
{ACAD_REACTORS
330
47
102
}
330
47
100
AcDbScale
 70
     0
300
1:4
140
1.0
141
4.0
290
     0
  0
SCALE
  5
4B
102
{ACAD_REACTORS
330
47
102
}
330
47
100
AcDbScale
 70
     0
300
1:5
140
1.0
141
5.0
290
     0
  0
SCALE
  5
4C
102
{ACAD_REACTORS
330
47
102
}
330
47
100
AcDbScale
 70
     0
300
1:8
140
1.0
141
8.0
290
     0
  0
SCALE
  5
4D
102
{ACAD_REACTORS
330
47
102
}
330
47
100
AcDbScale
 70
     0
300
1:10
140
1.0
141
10.0
290
     0
  0
SCALE
  5
4E
102
{ACAD_REACTORS
330
47
102
}
330
47
100
AcDbScale
 70
     0
300
1:16
140
1.0
141
16.0
290
     0
  0
SCALE
  5
4F
102
{ACAD_REACTORS
330
47
102
}
330
47
100
AcDbScale
 70
     0
300
1:20
140
1.0
141
20.0
290
     0
  0
SCALE
  5
50
102
{ACAD_REACTORS
330
47
102
}
330
47
100
AcDbScale
 70
     0
300
1:30
140
1.0
141
30.0
290
     0
  0
SCALE
  5
51
102
{ACAD_REACTORS
330
47
102
}
330
47
100
AcDbScale
 70
     0
300
1:40
140
1.0
141
40.0
290
     0
  0
SCALE
  5
52
102
{ACAD_REACTORS
330
47
102
}
330
47
100
AcDbScale
 70
     0
300
1:50
140
1.0
141
50.0
290
     0
  0
SCALE
  5
53
102
{ACAD_REACTORS
330
47
102
}
330
47
100
AcDbScale
 70
     0
300
1:100
140
1.0
141
100.0
290
     0
  0
SCALE
  5
54
102
{ACAD_REACTORS
330
47
102
}
330
47
100
AcDbScale
 70
     0
300
2:1
140
2.0
141
1.0
290
     0
  0
SCALE
  5
55
102
{ACAD_REACTORS
330
47
102
}
330
47
100
AcDbScale
 70
     0
300
4:1
140
4.0
141
1.0
290
     0
  0
SCALE
  5
56
102
{ACAD_REACTORS
330
47
102
}
330
47
100
AcDbScale
 70
     0
300
8:1
140
8.0
141
1.0
290
     0
  0
SCALE
  5
57
102
{ACAD_REACTORS
330
47
102
}
330
47
100
AcDbScale
 70
     0
300
10:1
140
10.0
141
1.0
290
     0
  0
SCALE
  5
58
102
{ACAD_REACTORS
330
47
102
}
330
47
100
AcDbScale
 70
     0
300
100:1
140
100.0
141
1.0
290
     0
  0
SCALE
  5
59
102
{ACAD_REACTORS
330
47
102
}
330
47
100
AcDbScale
 70
     0
300
1/128" = 1'-0"
140
0.0078125
141
12.0
290
     0
  0
SCALE
  5
5A
102
{ACAD_REACTORS
330
47
102
}
330
47
100
AcDbScale
 70
     0
300
1/64" = 1'-0"
140
0.015625
141
12.0
290
     0
  0
SCALE
  5
5B
102
{ACAD_REACTORS
330
47
102
}
330
47
100
AcDbScale
 70
     0
300
1/32" = 1'-0"
140
0.03125
141
12.0
290
     0
  0
SCALE
  5
5C
102
{ACAD_REACTORS
330
47
102
}
330
47
100
AcDbScale
 70
     0
300
1/16" = 1'-0"
140
0.0625
141
12.0
290
     0
  0
SCALE
  5
5D
102
{ACAD_REACTORS
330
47
102
}
330
47
100
AcDbScale
 70
     0
300
3/32" = 1'-0"
140
0.09375
141
12.0
290
     0
  0
SCALE
  5
5E
102
{ACAD_REACTORS
330
47
102
}
330
47
100
AcDbScale
 70
     0
300
1/8" = 1'-0"
140
0.125
141
12.0
290
     0
  0
SCALE
  5
5F
102
{ACAD_REACTORS
330
47
102
}
330
47
100
AcDbScale
 70
     0
300
3/16" = 1'-0"
140
0.1875
141
12.0
290
     0
  0
SCALE
  5
60
102
{ACAD_REACTORS
330
47
102
}
330
47
100
AcDbScale
 70
     0
300
1/4" = 1'-0"
140
0.25
141
12.0
290
     0
  0
SCALE
  5
61
102
{ACAD_REACTORS
330
47
102
}
330
47
100
AcDbScale
 70
     0
300
3/8" = 1'-0"
140
0.375
141
12.0
290
     0
  0
SCALE
  5
62
102
{ACAD_REACTORS
330
47
102
}
330
47
100
AcDbScale
 70
     0
300
1/2" = 1'-0"
140
0.5
141
12.0
290
     0
  0
SCALE
  5
63
102
{ACAD_REACTORS
330
47
102
}
330
47
100
AcDbScale
 70
     0
300
3/4" = 1'-0"
140
0.75
141
12.0
290
     0
  0
SCALE
  5
64
102
{ACAD_REACTORS
330
47
102
}
330
47
100
AcDbScale
 70
     0
300
1" = 1'-0"
140
1.0
141
12.0
290
     0
  0
SCALE
  5
65
102
{ACAD_REACTORS
330
47
102
}
330
47
100
AcDbScale
 70
     0
300
1-1/2" = 1'-0"
140
1.5
141
12.0
290
     0
  0
SCALE
  5
66
102
{ACAD_REACTORS
330
47
102
}
330
47
100
AcDbScale
 70
     0
300
3" = 1'-0"
140
3.0
141
12.0
290
     0
  0
SCALE
  5
67
102
{ACAD_REACTORS
330
47
102
}
330
47
100
AcDbScale
 70
     0
300
6" = 1'-0"
140
6.0
141
12.0
290
     0
  0
SCALE
  5
68
102
{ACAD_REACTORS
330
47
102
}
330
47
100
AcDbScale
 70
     0
300
1'-0" = 1'-0"
140
12.0
141
12.0
290
     0
  0
ENDSEC
  0
EOF
