  0
SECTION
  2
HEADER
  9
$ACADVER
  1
AC1015
  9
$ACADMAINTVER
 70
     6
  9
$DWGCODEPAGE
  3
ANSI_1252
  9
$INSBASE
 10
0.0
 20
0.0
 30
0.0
  9
$EXTMIN
 10
0.0
 20
0.0
 30
0.0
  9
$EXTMAX
 10
1189.0
 20
841.0
 30
0.0
  9
$LIMMIN
 10
0.0
 20
0.0
  9
$LIMMAX
 10
1189.0
 20
841.0
  9
$ORTHOMODE
 70
     0
  9
$REGENMODE
 70
     1
  9
$FILLMODE
 70
     1
  9
$QTEXTMODE
 70
     0
  9
$MIRRTEXT
 70
     1
  9
$LTSCALE
 40
1.0
  9
$ATTMODE
 70
     1
  9
$TEXTSIZE
 40
3.5
  9
$TRACEWID
 40
1.0
  9
$TEXTSTYLE
  7
Standard
  9
$CLAYER
  8
0
  9
$CELTYPE
  6
ByLayer
  9
$CECOLOR
 62
   256
  9
$CELTSCALE
 40
1.0
  9
$DISPSILH
 70
     0
  9
$DIMSCALE
 40
1.0
  9
$DIMASZ
 40
3.302
  9
$DIMEXO
 40
1.0
  9
$DIMDLI
 40
3.75
  9
$DIMRND
 40
0.0
  9
$DIMDLE
 40
0.0
  9
$DIMEXE
 40
1.0
  9
$DIMTP
 40
0.0
  9
$DIMTM
 40
0.0
  9
$DIMTXT
 40
3.5
  9
$DIMCEN
 40
2.5
  9
$DIMTSZ
 40
0.0
  9
$DIMTOL
 70
     0
  9
$DIMLIM
 70
     0
  9
$DIMTIH
 70
     1
  9
$DIMTOH
 70
     1
  9
$DIMSE1
 70
     0
  9
$DIMSE2
 70
     0
  9
$DIMTAD
 70
     1
  9
$DIMZIN
 70
     0
  9
$DIMBLK
  1

  9
$DIMASO
 70
     1
  9
$DIMSHO
 70
     1
  9
$DIMPOST
  1

  9
$DIMAPOST
  1

  9
$DIMALT
 70
     0
  9
$DIMALTD
 70
     3
  9
$DIMALTF
 40
0.0393700787
  9
$DIMLFAC
 40
5.0
  9
$DIMTOFL
 70
     1
  9
$DIMTVP
 40
0.0
  9
$DIMTIX
 70
     0
  9
$DIMSOXD
 70
     0
  9
$DIMSAH
 70
     0
  9
$DIMBLK1
  1

  9
$DIMBLK2
  1

  9
$DIMSTYLE
  2
ISO-25
  9
$DIMCLRD
 70
     0
  9
$DIMCLRE
 70
     0
  9
$DIMCLRT
 70
     0
  9
$DIMTFAC
 40
1.0
  9
$DIMGAP
 40
1.524
  9
$DIMJUST
 70
     0
  9
$DIMSD1
 70
     0
  9
$DIMSD2
 70
     0
  9
$DIMTOLJ
 70
     0
  9
$DIMTZIN
 70
     0
  9
$DIMALTZ
 70
     0
  9
$DIMALTTZ
 70
     0
  9
$DIMUPT
 70
     0
  9
$DIMDEC
 70
     2
  9
$DIMTDEC
 70
     2
  9
$DIMALTU
 70
     2
  9
$DIMALTTD
 70
     3
  9
$DIMTXSTY
  7
Standard
  9
$DIMAUNIT
 70
     0
  9
$DIMADEC
 70
     2
  9
$DIMALTRND
 40
0.0
  9
$DIMAZIN
 70
     0
  9
$DIMDSEP
 70
    44
  9
$DIMATFIT
 70
     3
  9
$DIMFRAC
 70
     0
  9
$DIMLDRBLK
  1

  9
$DIMLUNIT
 70
     2
  9
$DIMLWD
 70
    -2
  9
$DIMLWE
 70
    -2
  9
$DIMTMOVE
 70
     0
  9
$LUNITS
 70
     2
  9
$LUPREC
 70
     2
  9
$SKETCHINC
 40
1.0
  9
$FILLETRAD
 40
10.0
  9
$AUNITS
 70
     0
  9
$AUPREC
 70
     2
  9
$MENU
  1
.
  9
$ELEVATION
 40
0.0
  9
$PELEVATION
 40
0.0
  9
$THICKNESS
 40
0.0
  9
$LIMCHECK
 70
     0
  9
$CHAMFERA
 40
0.0
  9
$CHAMFERB
 40
0.0
  9
$CHAMFERC
 40
0.0
  9
$CHAMFERD
 40
0.0
  9
$SKPOLY
 70
     0
  9
$TDCREATE
 40
2458057.514334201
  9
$TDUCREATE
 40
2458057.514334201
  9
$TDUPDATE
 40
2458057.514334363
  9
$TDUUPDATE
 40
2458057.514334363
  9
$TDINDWG
 40
0.0000000116
  9
$TDUSRTIMER
 40
0.0000000116
  9
$USRTIMER
 70
     1
  9
$ANGBASE
 50
0.0
  9
$ANGDIR
 70
     0
  9
$PDMODE
 70
     0
  9
$PDSIZE
 40
-1.0
  9
$PLINEWID
 40
0.0
  9
$SPLFRAME
 70
     0
  9
$SPLINETYPE
 70
     6
  9
$SPLINESEGS
 70
     8
  9
$HANDSEED
  5
219
  9
$SURFTAB1
 70
     6
  9
$SURFTAB2
 70
     6
  9
$SURFTYPE
 70
     6
  9
$SURFU
 70
     6
  9
$SURFV
 70
     6
  9
$UCSBASE
  2

  9
$UCSNAME
  2

  9
$UCSORG
 10
0.0
 20
0.0
 30
0.0
  9
$UCSXDIR
 10
1.0
 20
0.0
 30
0.0
  9
$UCSYDIR
 10
0.0
 20
1.0
 30
0.0
  9
$UCSORTHOREF
  2

  9
$UCSORTHOVIEW
 70
     0
  9
$UCSORGTOP
 10
0.0
 20
0.0
 30
0.0
  9
$UCSORGBOTTOM
 10
0.0
 20
0.0
 30
0.0
  9
$UCSORGLEFT
 10
0.0
 20
0.0
 30
0.0
  9
$UCSORGRIGHT
 10
0.0
 20
0.0
 30
0.0
  9
$UCSORGFRONT
 10
0.0
 20
0.0
 30
0.0
  9
$UCSORGBACK
 10
0.0
 20
0.0
 30
0.0
  9
$PUCSBASE
  2

  9
$PUCSNAME
  2

  9
$PUCSORG
 10
0.0
 20
0.0
 30
0.0
  9
$PUCSXDIR
 10
1.0
 20
0.0
 30
0.0
  9
$PUCSYDIR
 10
0.0
 20
1.0
 30
0.0
  9
$PUCSORTHOREF
  2

  9
$PUCSORTHOVIEW
 70
     0
  9
$PUCSORGTOP
 10
0.0
 20
0.0
 30
0.0
  9
$PUCSORGBOTTOM
 10
0.0
 20
0.0
 30
0.0
  9
$PUCSORGLEFT
 10
0.0
 20
0.0
 30
0.0
  9
$PUCSORGRIGHT
 10
0.0
 20
0.0
 30
0.0
  9
$PUCSORGFRONT
 10
0.0
 20
0.0
 30
0.0
  9
$PUCSORGBACK
 10
0.0
 20
0.0
 30
0.0
  9
$USERI1
 70
     0
  9
$USERI2
 70
     0
  9
$USERI3
 70
     0
  9
$USERI4
 70
     0
  9
$USERI5
 70
     0
  9
$USERR1
 40
0.0
  9
$USERR2
 40
0.0
  9
$USERR3
 40
0.0
  9
$USERR4
 40
0.0
  9
$USERR5
 40
0.0
  9
$WORLDVIEW
 70
     1
  9
$SHADEDGE
 70
     3
  9
$SHADEDIF
 70
    70
  9
$TILEMODE
 70
     1
  9
$MAXACTVP
 70
    64
  9
$PINSBASE
 10
0.0
 20
0.0
 30
0.0
  9
$PLIMCHECK
 70
     0
  9
$PEXTMIN
 10
1.0000000000E+20
 20
1.0000000000E+20
 30
1.0000000000E+20
  9
$PEXTMAX
 10
-1.0000000000E+20
 20
-1.0000000000E+20
 30
-1.0000000000E+20
  9
$PLIMMIN
 10
0.0
 20
0.0
  9
$PLIMMAX
 10
420.0
 20
297.0
  9
$UNITMODE
 70
     0
  9
$VISRETAIN
 70
     1
  9
$PLINEGEN
 70
     0
  9
$PSLTSCALE
 70
     1
  9
$TREEDEPTH
 70
  3020
  9
$CMLSTYLE
  2
Standard
  9
$CMLJUST
 70
     0
  9
$CMLSCALE
 40
20.0
  9
$PROXYGRAPHICS
 70
     1
  9
$MEASUREMENT
 70
     1
  9
$CELWEIGHT
370
    -1
  9
$ENDCAPS
280
     0
  9
$JOINSTYLE
280
     0
  9
$LWDISPLAY
290
     1
  9
$INSUNITS
 70
     4
  9
$HYPERLINKBASE
  1

  9
$STYLESHEET
  1

  9
$XEDIT
290
     1
  9
$CEPSNTYPE
380
     0
  9
$PSTYLEMODE
290
     1
  9
$FINGERPRINTGUID
  2
{920BDD16-8F65-467F-837D-CE4C87A24513}
  9
$VERSIONGUID
  2
{FAEB1C32-E019-11D5-929B-00C0DF256EC4}
  9
$EXTNAMES
290
     1
  9
$PSVPSCALE
 40
0.0
  9
$OLESTARTUP
290
     0
  0
ENDSEC
  0
SECTION
  2
CLASSES
  0
CLASS
  1
ACDBDICTIONARYWDFLT
  2
AcDbDictionaryWithDefault
  3
ObjectDBX Classes
 90
        0
280
     0
281
     0
  0
CLASS
  1
VISUALSTYLE
  2
AcDbVisualStyle
  3
ObjectDBX Classes
 90
     4095
280
     0
281
     0
  0
CLASS
  1
MATERIAL
  2
AcDbMaterial
  3
ObjectDBX Classes
 90
     1153
280
     0
281
     0
  0
CLASS
  1
SCALE
  2
AcDbScale
  3
ObjectDBX Classes
 90
     1153
280
     0
281
     0
  0
CLASS
  1
TABLESTYLE
  2
AcDbTableStyle
  3
ObjectDBX Classes
 90
     4095
280
     0
281
     0
  0
CLASS
  1
MLEADERSTYLE
  2
AcDbMLeaderStyle
  3
ACDB_MLEADERSTYLE_CLASS
 90
     4095
280
     0
281
     0
  0
CLASS
  1
SUN
  2
AcDbSun
  3
SCENEOE
 90
     1153
280
     0
281
     0
  0
CLASS
  1
ACDBPLACEHOLDER
  2
AcDbPlaceHolder
  3
ObjectDBX Classes
 90
        0
280
     0
281
     0
  0
CLASS
  1
LAYOUT
  2
AcDbLayout
  3
ObjectDBX Classes
 90
        0
280
     0
281
     0
  0
ENDSEC
  0
SECTION
  2
TABLES
  0
TABLE
  2
VPORT
  5
8
330
0
100
AcDbSymbolTable
 70
     1
  0
VPORT
  5
29
330
8
100
AcDbSymbolTableRecord
100
AcDbViewportTableRecord
  2
*Active
 70
     0
 10
0.0
 20
0.0
 11
1.0
 21
1.0
 12
594.5
 22
420.5
 13
0.0
 23
0.0
 14
10.0
 24
10.0
 15
10.0
 25
10.0
 16
0.0
 26
0.0
 36
1.0
 17
0.0
 27
0.0
 37
0.0
 40
841.0
 41
1.4137931034
 42
50.0
 43
0.0
 44
0.0
 50
0.0
 51
0.0
 71
     0
 72
  2000
 73
     1
 74
     3
 75
     0
 76
     0
 77
     0
 78
     0
281
     0
 65
     1
110
0.0
120
0.0
130
0.0
111
1.0
121
0.0
131
0.0
112
0.0
122
1.0
132
0.0
 79
     0
146
0.0
  0
ENDTAB
  0
TABLE
  2
LTYPE
  5
5
330
0
100
AcDbSymbolTable
 70
     6
  0
LTYPE
  5
14
330
5
100
AcDbSymbolTableRecord
100
AcDbLinetypeTableRecord
  2
ByBlock
 70
     0
  3

 72
    65
 73
     0
 40
0.0
  0
LTYPE
  5
15
330
5
100
AcDbSymbolTableRecord
100
AcDbLinetypeTableRecord
  2
ByLayer
 70
     0
  3

 72
    65
 73
     0
 40
0.0
  0
LTYPE
  5
16
330
5
100
AcDbSymbolTableRecord
100
AcDbLinetypeTableRecord
  2
Continuous
 70
     0
  3
Solid line
 72
    65
 73
     0
 40
0.0
  0
LTYPE
  5
6E
330
5
100
AcDbSymbolTableRecord
100
AcDbLinetypeTableRecord
  2
HIDDEN
 70
     0
  3
Hidden __ __ __ __ __ __ __ __ __ __ __ __ __ __
 72
    65
 73
     2
 40
1.905
 49
1.27
 74
     0
 49
-0.635
 74
     0
  0
LTYPE
  5
6F
330
5
100
AcDbSymbolTableRecord
100
AcDbLinetypeTableRecord
  2
PHANTOM
 70
     0
  3
Phantom ______  __  __  ______  __  __  ______
 72
    65
 73
     6
 40
12.7
 49
6.35
 74
     0
 49
-1.27
 74
     0
 49
1.27
 74
     0
 49
-1.27
 74
     0
 49
1.27
 74
     0
 49
-1.27
 74
     0
  0
LTYPE
  5
70
330
5
100
AcDbSymbolTableRecord
100
AcDbLinetypeTableRecord
  2
CENTER
 70
     0
  3
Center ____ _ ____ _ ____ _ ____ _ ____ _ ____
 72
    65
 73
     4
 40
10.16
 49
6.35
 74
     0
 49
-1.27
 74
     0
 49
1.27
 74
     0
 49
-1.27
 74
     0
  0
LTYPE
  5
71
330
5
100
AcDbSymbolTableRecord
100
AcDbLinetypeTableRecord
  2
CENTERX2
 70
     0
  3
Center (2x) ________  __  ________  __  _____
 72
    65
 73
     4
 40
20.32
 49
12.7
 74
     0
 49
-2.54
 74
     0
 49
2.54
 74
     0
 49
-2.54
 74
     0
  0
LTYPE
  5
72
330
5
100
AcDbSymbolTableRecord
100
AcDbLinetypeTableRecord
  2
DOT2
 70
     0
  3
Dot (.5x) ........................................
 72
    65
 73
     2
 40
0.635
 49
0.0
 74
     0
 49
-0.635
 74
     0
  0
ENDTAB
  0
TABLE
  2
LAYER
  5
2
330
0
100
AcDbSymbolTable
 70
     2
  0
LAYER
  5
10
330
2
100
AcDbSymbolTableRecord
100
AcDbLayerTableRecord
  2
0
 70
     0
 62
     7
  6
Continuous
370
    -3
390
F
  0
LAYER
  5
73
330
2
100
AcDbSymbolTableRecord
100
AcDbLayerTableRecord
  2
FORMAT
 70
     0
 62
     7
  6
Continuous
370
    -3
390
F
  0
ENDTAB
  0
TABLE
  2
STYLE
  5
3
330
0
100
AcDbSymbolTable
 70
     1
  0
STYLE
  5
11
330
3
100
AcDbSymbolTableRecord
100
AcDbTextStyleTableRecord
  2
Standard
 70
     0
 40
0.0
 41
1.0
 50
0.0
 71
     0
 42
3.5
  3
txt
  4

  0
ENDTAB
  0
TABLE
  2
VIEW
  5
6
330
0
100
AcDbSymbolTable
 70
     0
  0
ENDTAB
  0
TABLE
  2
UCS
  5
7
330
0
100
AcDbSymbolTable
 70
     0
  0
ENDTAB
  0
TABLE
  2
APPID
  5
9
330
0
100
AcDbSymbolTable
 70
     1
  0
APPID
  5
12
330
9
100
AcDbSymbolTableRecord
100
AcDbRegAppTableRecord
  2
ACAD
 70
     0
  0
ENDTAB
  0
TABLE
  2
DIMSTYLE
  5
A
330
0
100
AcDbSymbolTable
 70
     1
100
AcDbDimStyleTable
  0
DIMSTYLE
105
27
330
A
100
AcDbSymbolTableRecord
100
AcDbDimStyleTableRecord
  2
ISO-25
 70
     0
 41
2.5
 42
0.625
 43
3.75
 44
1.25
 73
     0
 74
     0
 77
     1
 78
     8
140
2.5
141
2.5
143
0.0393700787
147
0.625
171
     3
172
     1
178
     0
271
     2
272
     2
274
     3
278
    44
283
     0
284
     8
340
11
  0
ENDTAB
  0
TABLE
  2
BLOCK_RECORD
  5
1
330
0
100
AcDbSymbolTable
 70
     1
  0
BLOCK_RECORD
  5
1F
330
1
100
AcDbSymbolTableRecord
100
AcDbBlockTableRecord
  2
*Model_Space
340
22
  0
BLOCK_RECORD
  5
1B
330
1
100
AcDbSymbolTableRecord
100
AcDbBlockTableRecord
  2
*Paper_Space
340
1E
  0
BLOCK_RECORD
  5
23
330
1
100
AcDbSymbolTableRecord
100
AcDbBlockTableRecord
  2
*Paper_Space0
340
26
  0
ENDTAB
  0
ENDSEC
  0
SECTION
  2
BLOCKS
  0
BLOCK
  5
20
330
1F
100
AcDbEntity
  8
0
100
AcDbBlockBegin
  2
*Model_Space
 70
     0
 10
0.0
 20
0.0
 30
0.0
  3
*Model_Space
  1

  0
ENDBLK
  5
21
330
1F
100
AcDbEntity
  8
0
100
AcDbBlockEnd
  0
BLOCK
  5
1C
330
1B
100
AcDbEntity
 67
     1
  8
0
100
AcDbBlockBegin
  2
*Paper_Space
 70
     0
 10
0.0
 20
0.0
 30
0.0
  3
*Paper_Space
  1

  0
ENDBLK
  5
1D
330
1B
100
AcDbEntity
 67
     1
  8
0
100
AcDbBlockEnd
  0
BLOCK
  5
24
330
23
100
AcDbEntity
  8
0
100
AcDbBlockBegin
  2
*Paper_Space0
 70
     0
 10
0.0
 20
0.0
 30
0.0
  3
*Paper_Space0
  1

  0
ENDBLK
  5
25
330
23
100
AcDbEntity
  8
0
100
AcDbBlockEnd
  0
ENDSEC
  0
SECTION
  2
ENTITIES
  0
LINE
  5
74
330
1F
100
AcDbEntity
  8
0
  6
CENTERX2
 62
     7
100
AcDbLine
 10
430.6689966258
 20
266.6452737584
 30
0.0
 11
430.6685311119
 21
266.6452737584
 31
0.0
  0
LINE
  5
75
330
1F
100
AcDbEntity
  8
0
  6
CENTERX2
 62
     7
100
AcDbLine
 10
430.6685311119
 20
266.6452737584
 30
0.0
 11
430.6685311119
 21
265.2734299778
 31
0.0
  0
LINE
  5
76
330
1F
100
AcDbEntity
  8
0
  6
Continuous
 62
     7
370
    15
100
AcDbLine
 10
453.4358394461
 20
266.1934299778
 30
0.0
 11
431.8757628155
 21
266.1934299778
 31
0.0
  0
LINE
  5
77
330
1F
100
AcDbEntity
  8
0
  6
Continuous
 62
     7
370
    15
100
AcDbLine
 10
429.4757628155
 20
266.1934299778
 30
0.0
 11
407.915686185
 21
266.1934299778
 31
0.0
  0
LINE
  5
78
330
1F
100
AcDbEntity
  8
0
  6
Continuous
 62
     7
370
    15
100
AcDbLine
 10
408.0419819084
 20
264.3534299778
 30
0.0
 11
429.4757628155
 21
264.3534299778
 31
0.0
  0
LINE
  5
79
330
1F
100
AcDbEntity
  8
0
  6
Continuous
 62
     7
370
    15
100
AcDbLine
 10
431.8757628155
 20
264.3534299778
 30
0.0
 11
453.3095437227
 21
264.3534299778
 31
0.0
  0
LINE
  5
7A
330
1F
100
AcDbEntity
  8
0
  6
Continuous
 62
     7
370
    15
100
AcDbLine
 10
445.1116961051
 20
305.9302391378
 30
0.0
 11
442.5697768308
 21
307.5319964887
 31
0.0
  0
LINE
  5
7B
330
1F
100
AcDbEntity
  8
0
  6
Continuous
 62
     7
370
    15
100
AcDbLine
 10
418.7817488002
 20
307.5319964887
 30
0.0
 11
416.239829526
 21
305.9302391378
 31
0.0
  0
ARC
  5
7C
330
1F
100
AcDbEntity
  8
0
  6
Continuous
 62
     7
370
    15
100
AcDbCircle
 10
444.2757628155
 20
310.2393220731
 30
0.0
 40
3.200000000000041
100
AcDbArc
 50
209.5230555544
 51
237.7834539414
  0
ARC
  5
7D
330
1F
100
AcDbEntity
  8
0
  6
Continuous
 62
     7
370
    15
100
AcDbCircle
 10
417.0757628155
 20
310.2393220731
 30
0.0
 40
3.20000000000005
100
AcDbArc
 50
302.2165460586
 51
330.4769444442
  0
LINE
  5
7E
330
1F
100
AcDbEntity
  8
0
  6
Continuous
 62
     7
370
    15
100
AcDbLine
 10
446.6757628155
 20
323.6734299778
 30
0.0
 11
446.6757628155
 21
326.0734299778
 31
0.0
  0
LINE
  5
7F
330
1F
100
AcDbEntity
  8
0
  6
Continuous
 62
     7
370
    15
100
AcDbLine
 10
414.6757628155
 20
326.0734299778
 30
0.0
 11
414.6757628155
 21
323.6734299778
 31
0.0
  0
LINE
  5
80
330
1F
100
AcDbEntity
  8
0
  6
Continuous
 62
     7
370
    15
100
AcDbLine
 10
446.6757628155
 20
321.2734299778
 30
0.0
 11
446.6757628155
 21
324.8734299778
 31
0.0
  0
LINE
  5
81
330
1F
100
AcDbEntity
  8
0
  6
Continuous
 62
     7
370
    15
100
AcDbLine
 10
414.6757628155
 20
324.8734299778
 30
0.0
 11
414.6757628155
 21
321.2734299778
 31
0.0
  0
LINE
  5
82
330
1F
100
AcDbEntity
  8
0
  6
Continuous
 62
     7
370
    15
100
AcDbLine
 10
432.8918955129
 20
326.0734299778
 30
0.0
 11
446.6757628155
 21
326.0734299778
 31
0.0
  0
LINE
  5
83
330
1F
100
AcDbEntity
  8
0
  6
Continuous
 62
     7
370
    15
100
AcDbLine
 10
414.6757628155
 20
326.0734299778
 30
0.0
 11
432.8918955129
 21
326.0734299778
 31
0.0
  0
LINE
  5
84
330
1F
100
AcDbEntity
  8
0
  6
Continuous
 62
     7
370
    15
100
AcDbLine
 10
432.8918955129
 20
323.6734299778
 30
0.0
 11
446.6757628155
 21
323.6734299778
 31
0.0
  0
LINE
  5
85
330
1F
100
AcDbEntity
  8
0
  6
Continuous
 62
     7
370
    15
100
AcDbLine
 10
414.6757628155
 20
323.6734299778
 30
0.0
 11
432.8918955129
 21
323.6734299778
 31
0.0
  0
LINE
  5
86
330
1F
100
AcDbEntity
  8
0
  6
Continuous
 62
     7
370
    15
100
AcDbLine
 10
430.6757628155
 20
324.8734299778
 30
0.0
 11
446.6757628155
 21
324.8734299778
 31
0.0
  0
LINE
  5
87
330
1F
100
AcDbEntity
  8
0
  6
Continuous
 62
     7
370
    15
100
AcDbLine
 10
414.6757628155
 20
324.8734299778
 30
0.0
 11
430.6757628155
 21
324.8734299778
 31
0.0
  0
LINE
  5
88
330
1F
100
AcDbEntity
  8
0
  6
Continuous
 62
     7
370
    15
100
AcDbLine
 10
417.458382456
 20
323.6734299778
 30
0.0
 11
417.458382456
 21
321.2734299778
 31
0.0
  0
LINE
  5
89
330
1F
100
AcDbEntity
  8
0
  6
Continuous
 62
     7
370
    15
100
AcDbLine
 10
416.258382456
 20
323.6734299778
 30
0.0
 11
417.458382456
 21
323.6734299778
 31
0.0
  0
LINE
  5
8A
330
1F
100
AcDbEntity
  8
0
  6
Continuous
 62
     7
370
    15
100
AcDbLine
 10
416.258382456
 20
323.6734299778
 30
0.0
 11
416.258382456
 21
321.2734299778
 31
0.0
  0
LINE
  5
8B
330
1F
100
AcDbEntity
  8
0
  6
Continuous
 62
     7
370
    15
100
AcDbLine
 10
414.6757628155
 20
321.2734299778
 30
0.0
 11
416.258382456
 21
321.2734299778
 31
0.0
  0
LINE
  5
8C
330
1F
100
AcDbEntity
  8
0
  6
Continuous
 62
     7
370
    15
100
AcDbLine
 10
445.0931431751
 20
321.2734299778
 30
0.0
 11
446.6757628155
 21
321.2734299778
 31
0.0
  0
LINE
  5
8D
330
1F
100
AcDbEntity
  8
0
  6
Continuous
 62
     7
370
    15
100
AcDbLine
 10
445.0931431751
 20
323.6734299778
 30
0.0
 11
445.0931431751
 21
321.2734299778
 31
0.0
  0
LINE
  5
8E
330
1F
100
AcDbEntity
  8
0
  6
Continuous
 62
     7
370
    15
100
AcDbLine
 10
443.8931431751
 20
323.6734299778
 30
0.0
 11
445.0931431751
 21
323.6734299778
 31
0.0
  0
LINE
  5
8F
330
1F
100
AcDbEntity
  8
0
  6
Continuous
 62
     7
370
    15
100
AcDbLine
 10
443.8931431751
 20
323.6734299778
 30
0.0
 11
443.8931431751
 21
321.2734299778
 31
0.0
  0
LINE
  5
90
330
1F
100
AcDbEntity
  8
0
  6
Continuous
 62
     7
370
    15
100
AcDbLine
 10
431.8757628155
 20
321.2734299778
 30
0.0
 11
443.8931431751
 21
321.2734299778
 31
0.0
  0
LINE
  5
91
330
1F
100
AcDbEntity
  8
0
  6
Continuous
 62
     7
370
    15
100
AcDbLine
 10
431.8757628155
 20
323.6734299778
 30
0.0
 11
431.8757628155
 21
321.2734299778
 31
0.0
  0
LINE
  5
92
330
1F
100
AcDbEntity
  8
0
  6
Continuous
 62
     7
370
    15
100
AcDbLine
 10
429.4757628155
 20
323.6734299778
 30
0.0
 11
429.4757628155
 21
321.2734299778
 31
0.0
  0
LINE
  5
93
330
1F
100
AcDbEntity
  8
0
  6
Continuous
 62
     7
370
    15
100
AcDbLine
 10
417.458382456
 20
321.2734299778
 30
0.0
 11
429.4757628155
 21
321.2734299778
 31
0.0
  0
LINE
  5
94
330
1F
100
AcDbEntity
  8
0
  6
Continuous
 62
     7
370
    15
100
AcDbLine
 10
429.4757628155
 20
323.6734299778
 30
0.0
 11
431.8757628155
 21
323.6734299778
 31
0.0
  0
LINE
  5
95
330
1F
100
AcDbEntity
  8
0
  6
Continuous
 62
     7
370
    15
100
AcDbLine
 10
429.4757628155
 20
259.8734299778
 30
0.0
 11
431.8757628155
 21
259.8734299778
 31
0.0
  0
LINE
  5
96
330
1F
100
AcDbEntity
  8
0
  6
Continuous
 62
     7
370
    15
100
AcDbLine
 10
431.8757628155
 20
259.8734299778
 30
0.0
 11
431.8757628155
 21
263.8734299778
 31
0.0
  0
LINE
  5
97
330
1F
100
AcDbEntity
  8
0
  6
Continuous
 62
     7
370
    15
100
AcDbLine
 10
429.4757628155
 20
259.8734299778
 30
0.0
 11
429.4757628155
 21
263.8734299778
 31
0.0
  0
LINE
  5
98
330
1F
100
AcDbEntity
  8
0
  6
Continuous
 62
     7
370
    15
100
AcDbLine
 10
431.8757628155
 20
299.8734299778
 30
0.0
 11
431.8757628155
 21
303.2575869583
 31
0.0
  0
LINE
  5
99
330
1F
100
AcDbEntity
  8
0
  6
Continuous
 62
     7
370
    15
100
AcDbLine
 10
429.4757628155
 20
299.8734299778
 30
0.0
 11
429.4757628155
 21
303.2575869583
 31
0.0
  0
LINE
  5
9A
330
1F
100
AcDbEntity
  8
0
  6
Continuous
 62
     7
370
    15
100
AcDbLine
 10
431.8757628155
 20
263.8734299778
 30
0.0
 11
431.8757628155
 21
299.8734299778
 31
0.0
  0
LINE
  5
9B
330
1F
100
AcDbEntity
  8
0
  6
Continuous
 62
     7
370
    15
100
AcDbLine
 10
429.4757628155
 20
263.8734299778
 30
0.0
 11
429.4757628155
 21
299.8734299778
 31
0.0
  0
LINE
  5
9C
330
1F
100
AcDbEntity
  8
0
  6
Continuous
 62
     7
370
    15
100
AcDbLine
 10
431.8757628155
 20
303.2575869583
 30
0.0
 11
431.8757628155
 21
310.3680032356
 31
0.0
  0
LINE
  5
9D
330
1F
100
AcDbEntity
  8
0
  6
Continuous
 62
     7
370
    15
100
AcDbLine
 10
429.4757628155
 20
303.2575869583
 30
0.0
 11
429.4757628155
 21
310.3680032356
 31
0.0
  0
LINE
  5
9E
330
1F
100
AcDbEntity
  8
0
  6
Continuous
 62
     7
370
    15
100
AcDbLine
 10
431.8757628155
 20
310.3680032356
 30
0.0
 11
431.8757628155
 21
313.7521602161
 31
0.0
  0
LINE
  5
9F
330
1F
100
AcDbEntity
  8
0
  6
Continuous
 62
     7
370
    15
100
AcDbLine
 10
429.4757628155
 20
310.3680032356
 30
0.0
 11
429.4757628155
 21
313.7521602161
 31
0.0
  0
LINE
  5
A0
330
1F
100
AcDbEntity
  8
0
  6
Continuous
 62
     7
370
    15
100
AcDbLine
 10
431.8757628155
 20
313.7521602161
 30
0.0
 11
431.8757628155
 21
323.6734299778
 31
0.0
  0
LINE
  5
A1
330
1F
100
AcDbEntity
  8
0
  6
Continuous
 62
     7
370
    15
100
AcDbLine
 10
429.4757628155
 20
313.7521602161
 30
0.0
 11
429.4757628155
 21
323.6734299778
 31
0.0
  0
LINE
  5
A2
330
1F
100
AcDbEntity
  8
0
  6
Continuous
 62
     7
370
    15
100
AcDbLine
 10
420.9224840711
 20
321.2734299778
 30
0.0
 11
420.9224840711
 21
311.5447950969
 31
0.0
  0
ARC
  5
A3
330
1F
100
AcDbEntity
  8
0
  6
Continuous
 62
     7
370
    15
100
AcDbCircle
 10
416.7520016407
 20
311.4593609177
 30
0.0
 40
4.171357417159873
100
AcDbArc
 50
307.7393645807
 51
1.1735652684
  0
LINE
  5
A4
330
1F
100
AcDbEntity
  8
0
  6
Continuous
 62
     7
370
    15
100
AcDbLine
 10
419.3051664576
 20
308.1606381164
 30
0.0
 11
409.5330037986
 21
301.0502218391
 31
0.0
  0
ARC
  5
A5
330
1F
100
AcDbEntity
  8
0
  6
Continuous
 62
     7
370
    15
100
AcDbCircle
 10
412.0861686154
 20
297.7514990379
 30
0.0
 40
4.171357417158006
100
AcDbArc
 50
127.7393645807
 51
181.1735652684
  0
LINE
  5
A6
330
1F
100
AcDbEntity
  8
0
  6
Continuous
 62
     7
370
    15
100
AcDbLine
 10
407.915686185
 20
297.6660648586
 30
0.0
 11
407.915686185
 21
264.8734299778
 31
0.0
  0
ARC
  5
A7
330
1F
100
AcDbEntity
  8
0
  6
Continuous
 62
     7
370
    15
100
AcDbCircle
 10
408.8538803724
 20
264.8109299778
 30
0.0
 40
0.9402736746998133
100
AcDbArc
 50
176.1887389505
 51
265.5980503477
  0
LINE
  5
A8
330
1F
100
AcDbEntity
  8
0
  6
Continuous
 62
     7
370
    15
100
AcDbLine
 10
408.7817115888
 20
263.8734299778
 30
0.0
 11
409.6477369926
 21
263.8734299778
 31
0.0
  0
ARC
  5
A9
330
1F
100
AcDbEntity
  8
0
  6
Continuous
 62
     7
370
    15
100
AcDbCircle
 10
409.6164781682
 20
264.7316030615
 30
0.0
 40
0.85874219394899
100
AcDbArc
 50
272.0860678258
 51
333.8718562684
  0
LINE
  5
AA
330
1F
100
AcDbEntity
  8
0
  6
Continuous
 62
     7
370
    15
100
AcDbLine
 10
413.9778640115
 20
264.3534299778
 30
0.0
 11
413.9778640115
 21
263.8734299778
 31
0.0
  0
LWPOLYLINE
  5
AB
330
1F
100
AcDbEntity
  8
0
  6
Continuous
 62
     7
370
    15
100
AcDbPolyline
 90
       12
 70
   128
 43
0.0
 10
413.9778640115
 20
263.8734299778
 10
413.9426044519
 20
263.3041706247
 10
413.837543556
 20
262.7464997504
 10
413.6648200606
 20
262.2117699258
 10
413.4279501182
 20
261.7108667079
 10
413.1317557175
 20
261.253987042
 10
412.7822665225
 20
260.8504316804
 10
412.3865971253
 20
260.5084158464
 10
411.9528022138
 20
260.2349019964
 10
411.4897126015
 20
260.0354580833
 10
411.0067554575
 20
259.9141442102
 10
410.5137623963
 20
259.8734299778
  0
LINE
  5
AC
330
1F
100
AcDbEntity
  8
0
  6
Continuous
 62
     7
370
    15
100
AcDbLine
 10
410.5137623963
 20
259.8734299778
 30
0.0
 11
407.915686185
 21
259.8734299778
 31
0.0
  0
LWPOLYLINE
  5
AD
330
1F
100
AcDbEntity
  8
0
  6
Continuous
 62
     7
370
    15
100
AcDbPolyline
 90
       12
 70
   128
 43
0.0
 10
407.915686185
 20
259.8734299778
 10
407.4226931239
 20
259.9141442102
 10
406.9397359798
 20
260.0354580833
 10
406.4766463675
 20
260.2349019964
 10
406.042851456
 20
260.5084158464
 10
405.6471820588
 20
260.8504316804
 10
405.2976928638
 20
261.253987042
 10
405.0014984632
 20
261.7108667079
 10
404.7646285207
 20
262.2117699258
 10
404.5919050254
 20
262.7464997504
 10
404.4868441295
 20
263.3041706247
 10
404.4515845698
 20
263.8734299778
  0
LINE
  5
AE
330
1F
100
AcDbEntity
  8
0
  6
Continuous
 62
     7
370
    15
100
AcDbLine
 10
404.4515845698
 20
263.8734299778
 30
0.0
 11
404.4515845698
 21
299.8734299778
 31
0.0
  0
ARC
  5
AF
330
1F
100
AcDbEntity
  8
0
  6
Continuous
 62
     7
370
    15
100
AcDbCircle
 10
408.6220670003
 20
299.958864157
 30
0.0
 40
4.171357417158288
100
AcDbArc
 50
127.7393645807
 51
181.1735652684
  0
LINE
  5
B0
330
1F
100
AcDbEntity
  8
0
  6
Continuous
 62
     7
370
    15
100
AcDbLine
 10
406.0689021834
 20
303.2575869583
 30
0.0
 11
415.8410648424
 21
310.3680032356
 31
0.0
  0
ARC
  5
B1
330
1F
100
AcDbEntity
  8
0
  6
Continuous
 62
     7
370
    15
100
AcDbCircle
 10
413.2879000256
 20
313.6667260368
 30
0.0
 40
4.171357417158331
100
AcDbArc
 50
307.7393645807
 51
1.1735652684
  0
LINE
  5
B2
330
1F
100
AcDbEntity
  8
0
  6
Continuous
 62
     7
370
    15
100
AcDbLine
 10
417.458382456
 20
313.7521602161
 30
0.0
 11
417.458382456
 21
323.6734299778
 31
0.0
  0
LINE
  5
B3
330
1F
100
AcDbEntity
  8
0
  6
Continuous
 62
     7
370
    15
100
AcDbLine
 10
406.715686185
 20
259.8734299778
 30
0.0
 11
407.915686185
 21
259.8734299778
 31
0.0
  0
LWPOLYLINE
  5
B4
330
1F
100
AcDbEntity
  8
0
  6
Continuous
 62
     7
370
    15
100
AcDbPolyline
 90
       12
 70
   128
 43
0.0
 10
406.715686185
 20
259.8734299778
 10
406.2226931239
 20
259.9141442102
 10
405.7397359798
 20
260.0354580833
 10
405.2766463675
 20
260.2349019964
 10
404.842851456
 20
260.5084158464
 10
404.4471820588
 20
260.8504316804
 10
404.0976928638
 20
261.253987042
 10
403.8014984632
 20
261.7108667079
 10
403.5646285207
 20
262.2117699258
 10
403.3919050254
 20
262.7464997504
 10
403.2868441295
 20
263.3041706247
 10
403.2515845698
 20
263.8734299778
  0
ARC
  5
B5
330
1F
100
AcDbEntity
  8
0
  6
Continuous
 62
     7
370
    15
100
AcDbCircle
 10
407.4220670003
 20
299.958864157
 30
0.0
 40
4.17135741715795
100
AcDbArc
 50
127.7393645807
 51
181.1735652684
  0
LINE
  5
B6
330
1F
100
AcDbEntity
  8
0
  6
Continuous
 62
     7
370
    15
100
AcDbLine
 10
403.2515845698
 20
263.8734299778
 30
0.0
 11
403.2515845698
 21
299.8734299778
 31
0.0
  0
LINE
  5
B7
330
1F
100
AcDbEntity
  8
0
  6
Continuous
 62
     7
370
    15
100
AcDbLine
 10
404.8689021834
 20
303.2575869583
 30
0.0
 11
414.6410648424
 21
310.3680032356
 31
0.0
  0
ARC
  5
B8
330
1F
100
AcDbEntity
  8
0
  6
Continuous
 62
     7
370
    15
100
AcDbCircle
 10
408.4007208763
 20
264.7441584857
 30
0.0
 40
0.8784291179988216
100
AcDbArc
 50
284.1003291572
 51
333.589220785
  0
ARC
  5
B9
330
1F
100
AcDbEntity
  8
0
  6
Continuous
 62
     7
370
    15
100
AcDbCircle
 10
412.0879000256
 20
313.6667260368
 30
0.0
 40
4.171357417154978
100
AcDbArc
 50
307.7393645807
 51
1.1735652684
  0
LINE
  5
BA
330
1F
100
AcDbEntity
  8
0
  6
Continuous
 62
     7
370
    15
100
AcDbLine
 10
416.258382456
 20
313.7521602161
 30
0.0
 11
416.258382456
 21
323.6734299778
 31
0.0
  0
LINE
  5
BB
330
1F
100
AcDbEntity
  8
0
  6
Continuous
 62
     7
370
    15
100
AcDbLine
 10
443.8931431751
 20
313.7521602161
 30
0.0
 11
443.8931431751
 21
323.6734299778
 31
0.0
  0
ARC
  5
BC
330
1F
100
AcDbEntity
  8
0
  6
Continuous
 62
     7
370
    15
100
AcDbCircle
 10
448.0636256055
 20
313.6667260368
 30
0.0
 40
4.171357417156157
100
AcDbArc
 50
178.8264347316
 51
232.2606354193
  0
LINE
  5
BD
330
1F
100
AcDbEntity
  8
0
  6
Continuous
 62
     7
370
    15
100
AcDbLine
 10
455.2826234477
 20
303.2575869583
 30
0.0
 11
445.5104607887
 21
310.3680032356
 31
0.0
  0
ARC
  5
BE
330
1F
100
AcDbEntity
  8
0
  6
Continuous
 62
     7
370
    15
100
AcDbCircle
 10
452.7294586308
 20
299.958864157
 30
0.0
 40
4.171357417158251
100
AcDbArc
 50
358.8264347316
 51
52.2606354193
  0
LINE
  5
BF
330
1F
100
AcDbEntity
  8
0
  6
Continuous
 62
     7
370
    15
100
AcDbLine
 10
456.8999410612
 20
263.8734299778
 30
0.0
 11
456.8999410612
 21
299.8734299778
 31
0.0
  0
LWPOLYLINE
  5
C0
330
1F
100
AcDbEntity
  8
0
  6
Continuous
 62
     7
370
    15
100
AcDbPolyline
 90
       12
 70
   128
 43
0.0
 10
453.4358394461
 20
259.8734299778
 10
453.9288325072
 20
259.9141442102
 10
454.4117896513
 20
260.0354580833
 10
454.8748792636
 20
260.2349019964
 10
455.3086741751
 20
260.5084158464
 10
455.7043435722
 20
260.8504316804
 10
456.0538327673
 20
261.253987042
 10
456.3500271679
 20
261.7108667079
 10
456.5868971104
 20
262.2117699258
 10
456.7596206057
 20
262.7464997504
 10
456.8646815016
 20
263.3041706247
 10
456.8999410612
 20
263.8734299778
  0
LINE
  5
C1
330
1F
100
AcDbEntity
  8
0
  6
Continuous
 62
     7
370
    15
100
AcDbLine
 10
450.8377632347
 20
259.8734299778
 30
0.0
 11
453.4358394461
 21
259.8734299778
 31
0.0
  0
LWPOLYLINE
  5
C2
330
1F
100
AcDbEntity
  8
0
  6
Continuous
 62
     7
370
    15
100
AcDbPolyline
 90
       12
 70
   128
 43
0.0
 10
447.3736616196
 20
263.8734299778
 10
447.4089211792
 20
263.3041706247
 10
447.5139820751
 20
262.7464997504
 10
447.6867055705
 20
262.2117699258
 10
447.9235755129
 20
261.7108667079
 10
448.2197699136
 20
261.253987042
 10
448.5692591086
 20
260.8504316804
 10
448.9649285058
 20
260.5084158464
 10
449.3987234173
 20
260.2349019964
 10
449.8618130296
 20
260.0354580833
 10
450.3447701736
 20
259.9141442102
 10
450.8377632347
 20
259.8734299778
  0
LINE
  5
C3
330
1F
100
AcDbEntity
  8
0
  6
Continuous
 62
     7
370
    15
100
AcDbLine
 10
447.3736616196
 20
264.3534299778
 30
0.0
 11
447.3736616196
 21
263.8734299778
 31
0.0
  0
ARC
  5
C4
330
1F
100
AcDbEntity
  8
0
  6
Continuous
 62
     7
370
    15
100
AcDbCircle
 10
451.7350474629
 20
264.7316030615
 30
0.0
 40
0.8587421939488831
100
AcDbArc
 50
206.1281437315
 51
267.9139321742
  0
LINE
  5
C5
330
1F
100
AcDbEntity
  8
0
  6
Continuous
 62
     7
370
    15
100
AcDbLine
 10
452.5698140423
 20
263.8734299778
 30
0.0
 11
451.7037886385
 21
263.8734299778
 31
0.0
  0
ARC
  5
C6
330
1F
100
AcDbEntity
  8
0
  6
Continuous
 62
     7
370
    15
100
AcDbCircle
 10
452.4976452587
 20
264.8109299778
 30
0.0
 40
0.9402736746997333
100
AcDbArc
 50
274.4019496523
 51
3.8112610495
  0
LINE
  5
C7
330
1F
100
AcDbEntity
  8
0
  6
Continuous
 62
     7
370
    15
100
AcDbLine
 10
453.4358394461
 20
297.6660648586
 30
0.0
 11
453.4358394461
 21
264.8734299778
 31
0.0
  0
ARC
  5
C8
330
1F
100
AcDbEntity
  8
0
  6
Continuous
 62
     7
370
    15
100
AcDbCircle
 10
449.2653570156
 20
297.7514990379
 30
0.0
 40
4.171357417157679
100
AcDbArc
 50
358.8264347316
 51
52.2606354193
  0
LINE
  5
C9
330
1F
100
AcDbEntity
  8
0
  6
Continuous
 62
     7
370
    15
100
AcDbLine
 10
442.0463591735
 20
308.1606381164
 30
0.0
 11
451.8185218325
 21
301.0502218391
 31
0.0
  0
ARC
  5
CA
330
1F
100
AcDbEntity
  8
0
  6
Continuous
 62
     7
370
    15
100
AcDbCircle
 10
444.5995239904
 20
311.4593609177
 30
0.0
 40
4.171357417159082
100
AcDbArc
 50
178.8264347316
 51
232.2606354193
  0
LINE
  5
CB
330
1F
100
AcDbEntity
  8
0
  6
Continuous
 62
     7
370
    15
100
AcDbLine
 10
440.4290415599
 20
321.2734299778
 30
0.0
 11
440.4290415599
 21
311.5447950969
 31
0.0
  0
ARC
  5
CC
330
1F
100
AcDbEntity
  8
0
  6
Continuous
 62
     7
370
    15
100
AcDbCircle
 10
453.9294586308
 20
299.958864157
 30
0.0
 40
4.171357417157838
100
AcDbArc
 50
358.8264347316
 51
52.2606354193
  0
LINE
  5
CD
330
1F
100
AcDbEntity
  8
0
  6
Continuous
 62
     7
370
    15
100
AcDbLine
 10
453.4358394461
 20
259.8734299778
 30
0.0
 11
454.6358394461
 21
259.8734299778
 31
0.0
  0
LWPOLYLINE
  5
CE
330
1F
100
AcDbEntity
  8
0
  6
Continuous
 62
     7
370
    15
100
AcDbPolyline
 90
       12
 70
   128
 43
0.0
 10
454.6358394461
 20
259.8734299778
 10
455.1288325072
 20
259.9141442102
 10
455.6117896513
 20
260.0354580833
 10
456.0748792636
 20
260.2349019964
 10
456.5086741751
 20
260.5084158464
 10
456.9043435722
 20
260.8504316804
 10
457.2538327673
 20
261.253987042
 10
457.5500271679
 20
261.7108667079
 10
457.7868971104
 20
262.2117699258
 10
457.9596206057
 20
262.7464997504
 10
458.0646815016
 20
263.3041706247
 10
458.0999410612
 20
263.8734299778
  0
LINE
  5
CF
330
1F
100
AcDbEntity
  8
0
  6
Continuous
 62
     7
370
    15
100
AcDbLine
 10
458.0999410612
 20
263.8734299778
 30
0.0
 11
458.0999410612
 21
299.8734299778
 31
0.0
  0
LINE
  5
D0
330
1F
100
AcDbEntity
  8
0
  6
Continuous
 62
     7
370
    15
100
AcDbLine
 10
456.4826234477
 20
303.2575869583
 30
0.0
 11
446.7104607887
 21
310.3680032356
 31
0.0
  0
ARC
  5
D1
330
1F
100
AcDbEntity
  8
0
  6
Continuous
 62
     7
370
    15
100
AcDbCircle
 10
452.9508047548
 20
264.7441584857
 30
0.0
 40
0.8784291179977404
100
AcDbArc
 50
206.410779215
 51
255.8996708432
  0
ARC
  5
D2
330
1F
100
AcDbEntity
  8
0
  6
Continuous
 62
     7
370
    15
100
AcDbCircle
 10
449.2636256055
 20
313.6667260368
 30
0.0
 40
4.171357417159639
100
AcDbArc
 50
178.8264347316
 51
232.2606354193
  0
LINE
  5
D3
330
1F
100
AcDbEntity
  8
0
  6
Continuous
 62
     7
370
    15
100
AcDbLine
 10
445.0931431751
 20
313.7521602161
 30
0.0
 11
445.0931431751
 21
323.6734299778
 31
0.0
  0
ARC
  5
D4
330
1F
100
AcDbEntity
  8
0
  6
Continuous
 62
     7
370
    15
100
AcDbCircle
 10
430.6757628155
 20
590.1760074874
 30
0.0
 40
26.71999999999993
100
AcDbArc
 50
272.574029516
 51
327.425970484
  0
ARC
  5
D5
330
1F
100
AcDbEntity
  8
0
  6
Continuous
 62
     7
370
    15
100
AcDbCircle
 10
430.6757628155
 20
590.1760074874
 30
0.0
 40
26.72000000000003
100
AcDbArc
 50
332.574029516
 51
27.425970484
  0
ARC
  5
D6
330
1F
100
AcDbEntity
  8
0
  6
Continuous
 62
     7
370
    15
100
AcDbCircle
 10
430.6757628155
 20
590.1760074874
 30
0.0
 40
26.72000000000011
100
AcDbArc
 50
32.574029516
 51
87.425970484
  0
ARC
  5
D7
330
1F
100
AcDbEntity
  8
0
  6
Continuous
 62
     7
370
    15
100
AcDbCircle
 10
430.6757628155
 20
590.1760074874
 30
0.0
 40
26.72000000000011
100
AcDbArc
 50
92.574029516
 51
147.425970484
  0
ARC
  5
D8
330
1F
100
AcDbEntity
  8
0
  6
Continuous
 62
     7
370
    15
100
AcDbCircle
 10
430.6757628155
 20
590.1760074874
 30
0.0
 40
26.71999999999992
100
AcDbArc
 50
152.574029516
 51
207.425970484
  0
ARC
  5
D9
330
1F
100
AcDbEntity
  8
0
  6
Continuous
 62
     7
370
    15
100
AcDbCircle
 10
430.6757628155
 20
590.1760074874
 30
0.0
 40
26.71999999999992
100
AcDbArc
 50
212.574029516
 51
267.425970484
  0
ARC
  5
DA
330
1F
100
AcDbEntity
  8
0
  6
Continuous
 62
     7
370
    15
100
AcDbCircle
 10
430.6757628155
 20
590.1760074874
 30
0.0
 40
25.00000000000003
100
AcDbArc
 50
32.7512545889
 51
87.2487454111
  0
ARC
  5
DB
330
1F
100
AcDbEntity
  8
0
  6
Continuous
 62
     7
370
    15
100
AcDbCircle
 10
430.6757628155
 20
590.1760074874
 30
0.0
 40
25.00000000000009
100
AcDbArc
 50
332.7512545889
 51
27.2487454111
  0
ARC
  5
DC
330
1F
100
AcDbEntity
  8
0
  6
Continuous
 62
     7
370
    15
100
AcDbCircle
 10
430.6757628155
 20
590.1760074874
 30
0.0
 40
25.00000000000004
100
AcDbArc
 50
272.7512545889
 51
327.2487454111
  0
ARC
  5
DD
330
1F
100
AcDbEntity
  8
0
  6
Continuous
 62
     7
370
    15
100
AcDbCircle
 10
430.6757628155
 20
590.1760074874
 30
0.0
 40
25.0
100
AcDbArc
 50
212.7512545889
 51
267.2487454111
  0
ARC
  5
DE
330
1F
100
AcDbEntity
  8
0
  6
Continuous
 62
     7
370
    15
100
AcDbCircle
 10
430.6757628155
 20
590.1760074874
 30
0.0
 40
25.00000000000004
100
AcDbArc
 50
152.7512545889
 51
207.2487454111
  0
ARC
  5
DF
330
1F
100
AcDbEntity
  8
0
  6
Continuous
 62
     7
370
    15
100
AcDbCircle
 10
430.6757628155
 20
590.1760074874
 30
0.0
 40
25.0
100
AcDbArc
 50
92.7512545889
 51
147.2487454111
  0
ARC
  5
E0
330
1F
100
AcDbEntity
  8
0
  6
Continuous
 62
     7
370
    15
100
AcDbCircle
 10
430.6757628155
 20
590.1760074874
 30
0.0
 40
25.11000000000008
100
AcDbArc
 50
32.7391928886
 51
87.2608071114
  0
ARC
  5
E1
330
1F
100
AcDbEntity
  8
0
  6
Continuous
 62
     7
370
    15
100
AcDbCircle
 10
430.6757628155
 20
590.1760074874
 30
0.0
 40
25.10999999999999
100
AcDbArc
 50
332.7391928886
 51
27.2608071114
  0
ARC
  5
E2
330
1F
100
AcDbEntity
  8
0
  6
Continuous
 62
     7
370
    15
100
AcDbCircle
 10
430.6757628155
 20
590.1760074874
 30
0.0
 40
25.11
100
AcDbArc
 50
272.7391928886
 51
327.2608071114
  0
ARC
  5
E3
330
1F
100
AcDbEntity
  8
0
  6
Continuous
 62
     7
370
    15
100
AcDbCircle
 10
430.6757628155
 20
590.1760074874
 30
0.0
 40
25.10999999999999
100
AcDbArc
 50
212.7391928886
 51
267.2608071114
  0
ARC
  5
E4
330
1F
100
AcDbEntity
  8
0
  6
Continuous
 62
     7
370
    15
100
AcDbCircle
 10
430.6757628155
 20
590.1760074874
 30
0.0
 40
25.11000000000005
100
AcDbArc
 50
152.7391928886
 51
207.2608071114
  0
ARC
  5
E5
330
1F
100
AcDbEntity
  8
0
  6
Continuous
 62
     7
370
    15
100
AcDbCircle
 10
430.6757628155
 20
590.1760074874
 30
0.0
 40
25.11000000000004
100
AcDbArc
 50
92.7391928886
 51
147.2608071114
  0
CIRCLE
  5
E6
330
1F
100
AcDbEntity
  8
0
  6
Continuous
 62
     7
370
    15
100
AcDbCircle
 10
430.6757628155
 20
590.1760074874
 30
0.0
 40
0.9999999999999531
  0
CIRCLE
  5
E7
330
1F
100
AcDbEntity
  8
0
  6
Continuous
 62
     7
370
    15
100
AcDbCircle
 10
430.6757628155
 20
590.1760074874
 30
0.0
 40
16.00000000000004
  0
LINE
  5
E8
330
1F
100
AcDbEntity
  8
0
  6
Continuous
 62
     7
370
    15
100
AcDbLine
 10
431.8757628155
 20
572.3535534282
 30
0.0
 11
431.8757628155
 21
574.2210709473
 31
0.0
  0
LINE
  5
E9
330
1F
100
AcDbEntity
  8
0
  6
Continuous
 62
     7
370
    15
100
AcDbLine
 10
429.4757628155
 20
572.3535534282
 30
0.0
 11
429.4757628155
 21
574.2210709473
 31
0.0
  0
LINE
  5
EA
330
1F
100
AcDbEntity
  8
0
  6
Continuous
 62
     7
370
    15
100
AcDbLine
 10
431.8757628155
 20
561.0696319447
 30
0.0
 11
431.8757628155
 21
572.3535534282
 31
0.0
  0
LINE
  5
EB
330
1F
100
AcDbEntity
  8
0
  6
Continuous
 62
     7
370
    15
100
AcDbLine
 10
429.4757628155
 20
561.0696319447
 30
0.0
 11
429.4757628155
 21
572.3535534282
 31
0.0
  0
LINE
  5
EC
330
1F
100
AcDbEntity
  8
0
  6
Continuous
 62
     7
370
    15
100
AcDbLine
 10
429.4757628155
 20
559.2021144256
 30
0.0
 11
431.8757628155
 21
559.2021144256
 31
0.0
  0
LINE
  5
ED
330
1F
100
AcDbEntity
  8
0
  6
Continuous
 62
     7
370
    15
100
AcDbLine
 10
431.8757628155
 20
559.2021144256
 30
0.0
 11
431.8757628155
 21
561.0696319447
 31
0.0
  0
LINE
  5
EE
330
1F
100
AcDbEntity
  8
0
  6
Continuous
 62
     7
370
    15
100
AcDbLine
 10
429.4757628155
 20
559.2021144256
 30
0.0
 11
429.4757628155
 21
561.0696319447
 31
0.0
  0
LINE
  5
EF
330
1F
100
AcDbEntity
  8
0
  6
Continuous
 62
     7
370
    15
100
AcDbLine
 10
415.8410648424
 20
580.2255499733
 30
0.0
 11
417.458382456
 21
581.1593087328
 31
0.0
  0
LINE
  5
F0
330
1F
100
AcDbEntity
  8
0
  6
Continuous
 62
     7
370
    15
100
AcDbLine
 10
414.6410648424
 20
582.3040109424
 30
0.0
 11
416.258382456
 21
583.2377697019
 31
0.0
  0
LINE
  5
F1
330
1F
100
AcDbEntity
  8
0
  6
Continuous
 62
     7
370
    15
100
AcDbLine
 10
406.0689021834
 20
574.5835892315
 30
0.0
 11
415.8410648424
 21
580.2255499733
 31
0.0
  0
LINE
  5
F2
330
1F
100
AcDbEntity
  8
0
  6
Continuous
 62
     7
370
    15
100
AcDbLine
 10
404.8689021834
 20
576.6620502006
 30
0.0
 11
414.6410648424
 21
582.3040109424
 31
0.0
  0
LINE
  5
F3
330
1F
100
AcDbEntity
  8
0
  6
Continuous
 62
     7
370
    15
100
AcDbLine
 10
403.2515845698
 20
575.728291441
 30
0.0
 11
404.4515845698
 21
573.649830472
 31
0.0
  0
LINE
  5
F4
330
1F
100
AcDbEntity
  8
0
  6
Continuous
 62
     7
370
    15
100
AcDbLine
 10
404.4515845698
 20
573.649830472
 30
0.0
 11
406.0689021834
 21
574.5835892315
 31
0.0
  0
LINE
  5
F5
330
1F
100
AcDbEntity
  8
0
  6
Continuous
 62
     7
370
    15
100
AcDbLine
 10
403.2515845698
 20
575.728291441
 30
0.0
 11
404.8689021834
 21
576.6620502006
 31
0.0
  0
LINE
  5
F6
330
1F
100
AcDbEntity
  8
0
  6
Continuous
 62
     7
370
    15
100
AcDbLine
 10
446.7104607886
 20
598.0480040325
 30
0.0
 11
445.0931431751
 21
597.114245273
 31
0.0
  0
LINE
  5
F7
330
1F
100
AcDbEntity
  8
0
  6
Continuous
 62
     7
370
    15
100
AcDbLine
 10
445.5104607886
 20
600.1264650016
 30
0.0
 11
443.8931431751
 21
599.1927062421
 31
0.0
  0
LINE
  5
F8
330
1F
100
AcDbEntity
  8
0
  6
Continuous
 62
     7
370
    15
100
AcDbLine
 10
456.4826234477
 20
603.6899647743
 30
0.0
 11
446.7104607886
 21
598.0480040325
 31
0.0
  0
LINE
  5
F9
330
1F
100
AcDbEntity
  8
0
  6
Continuous
 62
     7
370
    15
100
AcDbLine
 10
455.2826234477
 20
605.7684257434
 30
0.0
 11
445.5104607886
 21
600.1264650016
 31
0.0
  0
LINE
  5
FA
330
1F
100
AcDbEntity
  8
0
  6
Continuous
 62
     7
370
    15
100
AcDbLine
 10
458.0999410612
 20
604.6237235338
 30
0.0
 11
456.8999410612
 21
606.7021845029
 31
0.0
  0
LINE
  5
FB
330
1F
100
AcDbEntity
  8
0
  6
Continuous
 62
     7
370
    15
100
AcDbLine
 10
458.0999410612
 20
604.6237235338
 30
0.0
 11
456.4826234477
 21
603.6899647743
 31
0.0
  0
LINE
  5
FC
330
1F
100
AcDbEntity
  8
0
  6
Continuous
 62
     7
370
    15
100
AcDbLine
 10
456.8999410612
 20
606.7021845029
 30
0.0
 11
455.2826234477
 21
605.7684257434
 31
0.0
  0
LINE
  5
FD
330
1F
100
AcDbEntity
  8
0
  6
Continuous
 62
     7
370
    15
100
AcDbLine
 10
429.4757628155
 20
607.9984615467
 30
0.0
 11
429.4757628155
 21
606.1309440276
 31
0.0
  0
LINE
  5
FE
330
1F
100
AcDbEntity
  8
0
  6
Continuous
 62
     7
370
    15
100
AcDbLine
 10
431.8757628155
 20
607.9984615467
 30
0.0
 11
431.8757628155
 21
606.1309440276
 31
0.0
  0
LINE
  5
FF
330
1F
100
AcDbEntity
  8
0
  6
Continuous
 62
     7
370
    15
100
AcDbLine
 10
429.4757628155
 20
619.2823830302
 30
0.0
 11
429.4757628155
 21
607.9984615467
 31
0.0
  0
LINE
  5
100
330
1F
100
AcDbEntity
  8
0
  6
Continuous
 62
     7
370
    15
100
AcDbLine
 10
431.8757628155
 20
619.2823830302
 30
0.0
 11
431.8757628155
 21
607.9984615467
 31
0.0
  0
LINE
  5
101
330
1F
100
AcDbEntity
  8
0
  6
Continuous
 62
     7
370
    15
100
AcDbLine
 10
431.8757628155
 20
621.1499005493
 30
0.0
 11
429.4757628155
 21
621.1499005493
 31
0.0
  0
LINE
  5
102
330
1F
100
AcDbEntity
  8
0
  6
Continuous
 62
     7
370
    15
100
AcDbLine
 10
429.4757628155
 20
621.1499005493
 30
0.0
 11
429.4757628155
 21
619.2823830302
 31
0.0
  0
LINE
  5
103
330
1F
100
AcDbEntity
  8
0
  6
Continuous
 62
     7
370
    15
100
AcDbLine
 10
431.8757628155
 20
621.1499005493
 30
0.0
 11
431.8757628155
 21
619.2823830302
 31
0.0
  0
LINE
  5
104
330
1F
100
AcDbEntity
  8
0
  6
Continuous
 62
     7
370
    15
100
AcDbLine
 10
445.5104607887
 20
580.2255499733
 30
0.0
 11
443.8931431751
 21
581.1593087328
 31
0.0
  0
LINE
  5
105
330
1F
100
AcDbEntity
  8
0
  6
Continuous
 62
     7
370
    15
100
AcDbLine
 10
446.7104607887
 20
582.3040109424
 30
0.0
 11
445.0931431751
 21
583.2377697019
 31
0.0
  0
LINE
  5
106
330
1F
100
AcDbEntity
  8
0
  6
Continuous
 62
     7
370
    15
100
AcDbLine
 10
455.2826234477
 20
574.5835892315
 30
0.0
 11
445.5104607887
 21
580.2255499733
 31
0.0
  0
LINE
  5
107
330
1F
100
AcDbEntity
  8
0
  6
Continuous
 62
     7
370
    15
100
AcDbLine
 10
456.4826234477
 20
576.6620502006
 30
0.0
 11
446.7104607887
 21
582.3040109424
 31
0.0
  0
LINE
  5
108
330
1F
100
AcDbEntity
  8
0
  6
Continuous
 62
     7
370
    15
100
AcDbLine
 10
456.8999410612
 20
573.649830472
 30
0.0
 11
458.0999410612
 21
575.728291441
 31
0.0
  0
LINE
  5
109
330
1F
100
AcDbEntity
  8
0
  6
Continuous
 62
     7
370
    15
100
AcDbLine
 10
456.8999410612
 20
573.649830472
 30
0.0
 11
455.2826234477
 21
574.5835892315
 31
0.0
  0
LINE
  5
10A
330
1F
100
AcDbEntity
  8
0
  6
Continuous
 62
     7
370
    15
100
AcDbLine
 10
458.0999410612
 20
575.728291441
 30
0.0
 11
456.4826234477
 21
576.6620502006
 31
0.0
  0
LINE
  5
10B
330
1F
100
AcDbEntity
  8
0
  6
Continuous
 62
     7
370
    15
100
AcDbLine
 10
415.8410648424
 20
600.1264650016
 30
0.0
 11
417.458382456
 21
599.1927062421
 31
0.0
  0
LINE
  5
10C
330
1F
100
AcDbEntity
  8
0
  6
Continuous
 62
     7
370
    15
100
AcDbLine
 10
414.6410648424
 20
598.0480040325
 30
0.0
 11
416.258382456
 21
597.114245273
 31
0.0
  0
LINE
  5
10D
330
1F
100
AcDbEntity
  8
0
  6
Continuous
 62
     7
370
    15
100
AcDbLine
 10
406.0689021834
 20
605.7684257434
 30
0.0
 11
415.8410648424
 21
600.1264650016
 31
0.0
  0
LINE
  5
10E
330
1F
100
AcDbEntity
  8
0
  6
Continuous
 62
     7
370
    15
100
AcDbLine
 10
404.8689021834
 20
603.6899647743
 30
0.0
 11
414.6410648424
 21
598.0480040325
 31
0.0
  0
LINE
  5
10F
330
1F
100
AcDbEntity
  8
0
  6
Continuous
 62
     7
370
    15
100
AcDbLine
 10
404.4515845698
 20
606.7021845029
 30
0.0
 11
403.2515845698
 21
604.6237235338
 31
0.0
  0
LINE
  5
110
330
1F
100
AcDbEntity
  8
0
  6
Continuous
 62
     7
370
    15
100
AcDbLine
 10
404.4515845698
 20
606.7021845029
 30
0.0
 11
406.0689021834
 21
605.7684257434
 31
0.0
  0
LINE
  5
111
330
1F
100
AcDbEntity
  8
0
  6
Continuous
 62
     7
370
    15
100
AcDbLine
 10
403.2515845698
 20
604.6237235338
 30
0.0
 11
404.8689021834
 21
603.6899647743
 31
0.0
  0
LINE
  5
112
330
1F
100
AcDbEntity
  8
0
  6
CENTERX2
 62
     7
100
AcDbLine
 10
694.1111402994
 20
568.5751708991
 30
0.0
 11
692.8945875123
 21
567.8732499733
 31
0.0
  0
LINE
  5
113
330
1F
100
AcDbEntity
  8
0
  6
CENTERX2
 62
     7
100
AcDbLine
 10
692.8945875123
 20
567.8732499733
 30
0.0
 11
692.8945875123
 21
566.7530835389
 31
0.0
  0
LWPOLYLINE
  5
114
330
1F
100
AcDbEntity
  8
0
  6
Continuous
 62
     7
370
    15
100
AcDbPolyline
 90
       15
 70
   128
 43
0.0
 10
736.0531712877
 20
607.856525723
 10
735.9229334959
 20
608.1993754267
 10
735.5646870782
 20
608.9703938953
 10
735.1453383357
 20
609.7290345486
 10
734.6650920528
 20
610.4736297731
 10
734.1243659711
 20
611.2022959349
 10
733.5239187548
 20
611.9129373317
 10
732.8649492117
 20
612.6032956199
 10
732.1491427998
 20
613.2710385065
 10
731.3786543757
 20
613.9138691923
 10
730.5560344236
 20
614.5296316372
 10
729.68412123
 20
615.1163897152
 10
728.8132124314
 20
615.6452290458
 10
728.3031357005
 20
615.9316289367
 10
727.5154617153
 20
616.3393351874
  0
ARC
  5
115
330
1F
100
AcDbEntity
  8
0
  6
Continuous
 62
     7
370
    15
100
AcDbCircle
 10
698.1243270418
 20
603.8574047493
 30
0.0
 40
11.33065205392189
100
AcDbArc
 50
143.2384121766
 51
179.4114391305
  0
LINE
  5
116
330
1F
100
AcDbEntity
  8
0
  6
Continuous
 62
     7
370
    15
100
AcDbLine
 10
736.7935936002
 20
577.6573435026
 30
0.0
 11
736.7935936002
 21
601.4500809735
 31
0.0
  0
LINE
  5
117
330
1F
100
AcDbEntity
  8
0
  6
Continuous
 62
     7
370
    15
100
AcDbLine
 10
686.7935936002
 20
603.9778081415
 30
0.0
 11
686.7935936002
 21
577.6573435026
 31
0.0
  0
LINE
  5
118
330
1F
100
AcDbEntity
  8
0
  6
Continuous
 62
     7
370
    15
100
AcDbLine
 10
722.1935936002
 20
614.3738295413
 30
0.0
 11
722.1935936002
 21
616.3644180868
 31
0.0
  0
ARC
  5
119
330
1F
100
AcDbEntity
  8
0
  6
Continuous
 62
     7
370
    15
100
AcDbCircle
 10
714.5620516475
 20
594.7844229316
 30
0.0
 40
30.77635533171966
100
AcDbArc
 50
282.0162207417
 51
298.4445555173
  0
LWPOLYLINE
  5
11A
330
1F
100
AcDbEntity
  8
0
  6
Continuous
 62
     7
370
    15
100
AcDbPolyline
 90
       23
 70
   128
 43
0.0
 10
717.6158398537
 20
564.0802026402
 10
717.1642993383
 20
564.0166709698
 10
715.9333155978
 20
563.8804285486
 10
714.6915928004
 20
563.7795765841
 10
713.4423407401
 20
563.7144057298
 10
712.1887899052
 20
563.6851046701
 10
710.9341828416
 20
563.6917598039
 10
709.6817696178
 20
563.7343548759
 10
708.4348088176
 20
563.8127696089
 10
707.1965273861
 20
563.926781153
 10
705.9701298923
 20
564.0760644538
 10
704.7587899672
 20
564.2601925811
 10
703.565641651
 20
564.4786371923
 10
702.3937706074
 20
564.7307691512
 10
701.2462051623
 20
565.0158593402
 10
700.1259071085
 20
565.3330797171
 10
699.0357622201
 20
565.681504698
 10
697.9785704108
 20
566.0601129787
 10
696.9570354788
 20
566.4677899532
 10
695.9737543904
 20
566.9033309473
 10
695.0312060884
 20
567.3654455579
 10
694.1317398713
 20
567.8527634774
 10
693.9482751352
 20
567.9625358152
  0
LWPOLYLINE
  5
11B
330
1F
100
AcDbEntity
  8
0
  6
Continuous
 62
     7
370
    15
100
AcDbPolyline
 90
       20
 70
   128
 43
0.0
 10
686.7935936002
 20
583.269529547
 10
686.425634325
 20
582.659332131
 10
686.0436745662
 20
581.9112727013
 10
685.7244298415
 20
581.1533556149
 10
685.4684829082
 20
580.3878098699
 10
685.2761394049
 20
579.6167910572
 10
685.1474713233
 20
578.8423276724
 10
685.0823804267
 20
578.0662905941
 10
685.0806681503
 20
577.2903923305
 10
685.1420963997
 20
576.5162155534
 10
685.2663597863
 20
575.7455903315
 10
685.453153595
 20
574.9799701473
 10
685.7021795104
 20
574.2208111138
 10
686.0131043111
 20
573.4696379616
 10
686.3855003758
 20
572.728078964
 10
686.8187821689
 20
571.9978735789
 10
687.3121530912
 20
571.2808535698
 10
687.8645730163
 20
570.5789043916
 10
688.4747503075
 20
569.8939172712
 10
689.043215639
 20
569.325648648
  0
LWPOLYLINE
  5
11C
330
1F
100
AcDbEntity
  8
0
  6
Continuous
 62
     7
370
    15
100
AcDbPolyline
 90
       22
 70
   128
 43
0.0
 10
693.5686990386
 20
566.0652700667
 10
694.2123843049
 20
565.7174698623
 10
695.2157899717
 20
565.2265719694
 10
696.2580159879
 20
564.7656733299
 10
697.3365395308
 20
564.3357338542
 10
698.4487782568
 20
563.9376411375
 10
699.5920919681
 20
563.5722128292
 10
700.7637846627
 20
563.2401977043
 10
701.9611071833
 20
562.9422757697
 10
703.1812605463
 20
562.6790577045
 10
704.4213999491
 20
562.4510838873
 10
705.6786394052
 20
562.2588232106
 10
706.9500569347
 20
562.1026718374
 10
708.2327002257
 20
561.9829520153
 10
709.5235926825
 20
561.8999110342
 10
710.8197397782
 20
561.853720388
 10
712.1181356331
 20
561.8444751836
 10
713.4157697462
 20
561.8721938268
 10
714.709618091
 20
561.9368169927
 10
715.9966765044
 20
562.0382081115
 10
717.2739622374
 20
562.176154847
 10
717.6158398537
 20
562.2232546913
  0
LWPOLYLINE
  5
11D
330
1F
100
AcDbEntity
  8
0
  6
Continuous
 62
     7
370
    15
100
AcDbPolyline
 90
       22
 70
   128
 43
0.0
 10
720.9693380172
 20
562.7964284691
 10
721.0177366336
 20
562.8060897358
 10
722.2266559267
 20
563.0866578023
 10
723.4113561555
 20
563.401624804
 10
724.5690821296
 20
563.7503522103
 10
725.6971346417
 20
564.1321369959
 10
726.792873978
 20
564.5462134802
 10
727.8537225862
 20
564.9917547759
 10
728.8771668384
 20
565.4678735495
 10
729.8607578857
 20
565.9736217143
 10
730.8021117087
 20
566.5079885821
 10
731.6989086481
 20
567.0698969261
 10
732.5488929678
 20
567.6581963819
 10
733.3498196542
 20
568.2716103805
 10
734.0995492352
 20
568.9087813038
 10
734.7960303973
 20
569.5682420881
 10
735.4373070429
 20
570.2483945547
 10
736.0215429561
 20
570.9474964914
 10
736.5470555474
 20
571.6636561854
 10
737.0123567172
 20
572.3948397674
 10
737.4161955442
 20
573.1388959405
 10
737.5377906901
 20
573.4076969476
  0
ARC
  5
11E
330
1F
100
AcDbEntity
  8
0
  6
Continuous
 62
     7
370
    15
100
AcDbCircle
 10
729.620475507
 20
578.4580518035
 30
0.0
 40
8.635576402408953
100
AcDbArc
 50
23.5337073692
 51
33.8347126551
  0
LINE
  5
11F
330
1F
100
AcDbEntity
  8
0
  6
Continuous
 62
     7
370
    15
100
AcDbLine
 10
727.7935936002
 20
625.3433269167
 30
0.0
 11
727.7935936002
 21
627.3030248653
 31
0.0
  0
LINE
  5
120
330
1F
100
AcDbEntity
  8
0
  6
Continuous
 62
     7
370
    15
100
AcDbLine
 10
695.7935936002
 20
627.3030248653
 30
0.0
 11
695.7935936002
 21
625.3433269167
 31
0.0
  0
LINE
  5
121
330
1F
100
AcDbEntity
  8
0
  6
Continuous
 62
     7
370
    15
100
AcDbLine
 10
727.7935936002
 20
623.3836289682
 30
0.0
 11
727.7935936002
 21
626.323175891
 31
0.0
  0
LINE
  5
122
330
1F
100
AcDbEntity
  8
0
  6
Continuous
 62
     7
370
    15
100
AcDbLine
 10
695.7935936002
 20
626.323175891
 30
0.0
 11
695.7935936002
 21
623.3836289682
 31
0.0
  0
LINE
  5
123
330
1F
100
AcDbEntity
  8
0
  6
Continuous
 62
     7
370
    15
100
AcDbLine
 10
689.8718052985
 20
562.528983232
 30
0.0
 11
691.5688615733
 21
561.5492934978
 31
0.0
  0
LINE
  5
124
330
1F
100
AcDbEntity
  8
0
  6
Continuous
 62
     7
370
    15
100
AcDbLine
 10
682.4211752304
 20
612.2930937034
 30
0.0
 11
681.8000095222
 21
610.9548126387
 31
0.0
  0
LINE
  5
125
330
1F
100
AcDbEntity
  8
0
  6
Continuous
 62
     7
370
    15
100
AcDbLine
 10
741.1660119701
 20
570.1307482565
 30
0.0
 11
741.7871776783
 21
571.4690293212
 31
0.0
  0
LINE
  5
126
330
1F
100
AcDbEntity
  8
0
  6
Continuous
 62
     7
370
    15
100
AcDbLine
 10
733.715381902
 20
619.8948587279
 30
0.0
 11
732.0183256271
 21
620.8745484621
 31
0.0
  0
LINE
  5
127
330
1F
100
AcDbEntity
  8
0
  6
Continuous
 62
     7
370
    15
100
AcDbLine
 10
718.2273029408
 20
557.3407985542
 30
0.0
 11
720.5455249239
 21
557.6993898847
 31
0.0
  0
LWPOLYLINE
  5
128
330
1F
100
AcDbEntity
  8
0
  6
Continuous
 62
     7
370
    15
100
AcDbPolyline
 90
        3
 70
   128
 43
0.0
 10
736.7935936002
 20
577.6573435026
 10
736.7912875884
 20
577.4613245471
 10
736.7451840658
 20
576.7596410188
  0
LINE
  5
129
330
1F
100
AcDbEntity
  8
0
  6
Continuous
 62
     7
370
    15
100
AcDbLine
 10
686.7937559143
 20
577.60533736
 30
0.0
 11
686.7935936002
 21
577.6573435026
 31
0.0
  0
LWPOLYLINE
  5
12A
330
1F
100
AcDbEntity
  8
0
  6
Continuous
 62
     7
370
    15
100
AcDbPolyline
 90
       19
 70
   128
 43
0.0
 10
736.7935936002
 20
579.5095753239
 10
736.7952883231
 20
579.4991169049
 10
736.883843402
 20
578.7290460288
 10
736.9012774419
 20
577.9573457662
 10
736.8475410241
 20
577.1862035854
 10
736.7227864702
 20
576.4178053728
 10
736.5273674107
 20
575.6543292365
 10
736.2618377821
 20
574.8979393326
 10
735.926950257
 20
574.1507797304
 10
735.5236541104
 20
573.4149683351
 10
735.0530925291
 20
572.6925908839
 10
734.5165993711
 20
571.9856950343
 10
733.9156953844
 20
571.2962845594
 10
733.2520838967
 20
570.6263136679
 10
732.5276459869
 20
569.9776814652
 10
731.7444351529
 20
569.3522265698
 10
730.904671491
 20
568.7517219015
 10
730.0107354024
 20
568.1778696561
 10
729.1929183943
 20
567.7026791503
  0
LINE
  5
12B
330
1F
100
AcDbEntity
  8
0
  6
Continuous
 62
     7
370
    15
100
AcDbLine
 10
693.970821671
 20
567.9432346615
 30
0.0
 11
693.5686990386
 21
568.1825896813
 31
0.0
  0
LWPOLYLINE
  5
12C
330
1F
100
AcDbEntity
  8
0
  6
Continuous
 62
     7
370
    15
100
AcDbPolyline
 90
       12
 70
   128
 43
0.0
 10
689.043215639
 20
572.0194104182
 10
688.7887394269
 20
572.3442692031
 10
688.2857039416
 20
573.0593164973
 10
687.8493041235
 20
573.7888058695
 10
687.4807769954
 20
574.5306695028
 10
687.1811671875
 20
575.2828045041
 10
686.9513239763
 20
576.0430788649
 10
686.7918988773
 20
576.8093375052
 10
686.7033437984
 20
577.5794083813
 10
686.6859097586
 20
578.3511086439
 10
686.7396461764
 20
579.1222508247
 10
686.7935936002
 20
579.5095753239
  0
LWPOLYLINE
  5
12D
330
1F
100
AcDbEntity
  8
0
  6
Continuous
 62
     7
370
    15
100
AcDbPolyline
 90
       24
 70
   128
 43
0.0
 10
711.1912425814
 20
626.8422157293
 10
711.4289396255
 20
626.7654873936
 10
711.6936813869
 20
626.7286257531
 10
711.96583318
 20
626.734364667
 10
712.2252107514
 20
626.7822785064
 10
712.4525772532
 20
626.868813721
 10
712.6310699522
 20
626.9875523898
 10
712.7474508613
 20
627.1296882089
 10
712.793088541
 20
627.2846796148
 10
712.7645982533
 20
627.441031604
 10
712.6640929925
 20
627.5871482648
 10
712.4990267741
 20
627.7121927928
 10
712.2816418043
 20
627.8068912074
 10
712.0280605319
 20
627.8642201605
 10
711.7570899198
 20
627.8799278258
 10
711.4888266187
 20
627.8528492377
 10
711.2431664904
 20
627.7849926912
 10
711.0383290228
 20
627.6813907959
 10
710.8895060737
 20
627.5497272304
 10
710.8077351606
 20
627.3997668791
 10
710.799080858
 20
627.2426316151
 10
710.8641850159
 20
627.0899754423
 10
710.9982191567
 20
626.9531201705
 10
711.1912425814
 20
626.8422157293
  0
LWPOLYLINE
  5
12E
330
1F
100
AcDbEntity
  8
0
  6
Continuous
 62
     7
370
    15
100
AcDbPolyline
 90
       95
 70
   128
 43
0.0
 10
702.1559772983
 20
619.9300786894
 10
703.0305548271
 20
619.5749307019
 10
703.9442702143
 20
619.254298259
 10
704.8930425852
 20
618.9696133829
 10
705.872634492
 20
618.7221475455
 10
706.8786708396
 20
618.5130059893
 10
707.9066584254
 20
618.3431227912
 10
708.9520060072
 20
618.2132566908
 10
710.0100448089
 20
618.1239877016
 10
711.0760493726
 20
618.0757145206
 10
712.145258663
 20
618.0686527476
 10
713.2128973318
 20
618.1028339222
 10
714.2741970456
 20
618.1781053829
 10
715.3244177823
 20
618.2941309491
 10
716.358869001
 20
618.4503924225
 10
717.3729305916
 20
618.6461919014
 10
718.3620735087
 20
618.8806548977
 10
719.3218800001
 20
619.152734243
 10
720.2480633369
 20
619.4612147646
 10
721.1364869595
 20
619.8047187138
 10
721.9831829523
 20
620.1817119185
 10
722.7843697655
 20
620.5905106355
 10
723.5364691043
 20
621.0292890706
 10
724.2361219105
 20
621.4960875327
 10
724.8802033648
 20
621.9888211866
 10
725.465836843
 20
622.5052893642
 10
725.9904067639
 20
623.0431853932
 10
726.451570271
 20
623.6001068993
 10
726.8472676959
 20
624.173566536
 10
727.175731758
 20
624.7610030933
 10
727.435495457
 20
625.3597929369
 10
727.6253986251
 20
625.967261726
 10
727.7445931089
 20
626.5806963575
 10
727.7925465566
 20
627.1973570836
 10
727.7690447966
 20
627.8144897475
 10
727.6741927935
 20
628.4293380852
 10
727.5084141793
 20
629.0391560346
 10
727.2724493616
 20
629.6412200007
 10
726.9673522165
 20
630.2328410198
 10
726.5944853819
 20
630.8113767687
 10
726.1555141717
 20
631.3742433663
 10
725.6523991378
 20
631.9189269138
 10
725.087387314
 20
632.4429947223
 10
724.4630021805
 20
632.9441061776
 10
723.7820323926
 20
633.4200231943
 10
723.0475193269
 20
633.8686202116
 10
722.262743497
 20
634.2878936863
 10
721.4312099022
 20
634.6759710412
 10
720.5566323734
 20
635.0311190287
 10
719.6429169862
 20
635.3517514716
 10
718.6941446153
 20
635.6364363476
 10
717.7145527084
 20
635.883902185
 10
716.7085163609
 20
636.0930437412
 10
715.6805287751
 20
636.2629269394
 10
714.6351811933
 20
636.3927930398
 10
713.5771423915
 20
636.482062029
 10
712.5111378279
 20
636.5303352099
 10
711.4419285375
 20
636.5373969829
 10
710.3742898687
 20
636.5032158083
 10
709.3129901548
 20
636.4279443477
 10
708.2627694182
 20
636.3119187814
 10
707.2283181994
 20
636.1556573081
 10
706.2142566089
 20
635.9598578292
 10
705.2251136917
 20
635.7253948328
 10
704.2653072004
 20
635.4533154876
 10
703.3391238636
 20
635.1448349659
 10
702.450700241
 20
634.8013310168
 10
701.6040042482
 20
634.4243378121
 10
700.802817435
 20
634.015539095
 10
700.0507180962
 20
633.5767606599
 10
699.35106529
 20
633.1099621978
 10
698.7069838357
 20
632.6172285439
 10
698.1213503575
 20
632.1007603664
 10
697.5967804365
 20
631.5628643374
 10
697.1356169295
 20
631.0059428312
 10
696.7399195046
 20
630.4324831945
 10
696.4114554425
 20
629.8450466373
 10
696.1516917435
 20
629.2462567937
 10
695.9617885753
 20
628.6387880046
 10
695.8425940916
 20
628.025353373
 10
695.7946406439
 20
627.408692647
 10
695.8181424039
 20
626.791559983
 10
695.912994407
 20
626.1767116454
 10
696.0787730212
 20
625.566893696
 10
696.3147378389
 20
624.9648297298
 10
696.619834984
 20
624.3732087107
 10
696.9927018185
 20
623.7946729618
 10
697.4316730288
 20
623.2318063642
 10
697.9347880627
 20
622.6871228167
 10
698.4997998864
 20
622.1630550083
 10
699.12418502
 20
621.661943553
 10
699.8051548078
 20
621.1860265362
 10
700.5396678735
 20
620.7374295189
 10
701.3244437035
 20
620.3181560443
 10
702.1559772983
 20
619.9300786894
  0
LWPOLYLINE
  5
12F
330
1F
100
AcDbEntity
  8
0
  6
Continuous
 62
     7
370
    15
100
AcDbPolyline
 90
       35
 70
   128
 43
0.0
 10
702.1559772983
 20
617.9703807408
 10
703.0305548271
 20
617.6152327534
 10
703.9442702143
 20
617.2946003104
 10
704.8930425852
 20
617.0099154344
 10
705.872634492
 20
616.762449597
 10
706.8786708396
 20
616.5533080408
 10
707.9066584254
 20
616.3834248427
 10
708.9520060072
 20
616.2535587422
 10
710.0100448089
 20
616.1642897531
 10
711.0760493726
 20
616.1160165721
 10
712.145258663
 20
616.1089547991
 10
713.2128973318
 20
616.1431359737
 10
714.2741970456
 20
616.2184074344
 10
715.3244177823
 20
616.3344330006
 10
716.358869001
 20
616.490694474
 10
717.3729305916
 20
616.6864939528
 10
718.3620735087
 20
616.9209569492
 10
719.3218800001
 20
617.1930362944
 10
720.2480633369
 20
617.5015168161
 10
721.1364869595
 20
617.8450207653
 10
721.9831829523
 20
618.22201397
 10
722.7843697655
 20
618.630812687
 10
723.5364691043
 20
619.0695911221
 10
724.2361219105
 20
619.5363895842
 10
724.8802033648
 20
620.0291232381
 10
725.465836843
 20
620.5455914156
 10
725.9904067639
 20
621.0834874446
 10
726.451570271
 20
621.6404089508
 10
726.8472676959
 20
622.2138685875
 10
727.175731758
 20
622.8013051448
 10
727.435495457
 20
623.4000949883
 10
727.6253986251
 20
624.0075637775
 10
727.7445931089
 20
624.620998409
 10
727.7925465566
 20
625.237659135
 10
727.7935936002
 20
625.3433269167
  0
LWPOLYLINE
  5
130
330
1F
100
AcDbEntity
  8
0
  6
Continuous
 62
     7
370
    15
100
AcDbPolyline
 90
       15
 70
   128
 43
0.0
 10
695.7935936002
 20
625.3433269167
 10
695.8181424039
 20
624.8318620345
 10
695.912994407
 20
624.2170136968
 10
696.0787730212
 20
623.6071957474
 10
696.3147378389
 20
623.0051317813
 10
696.619834984
 20
622.4135107622
 10
696.9927018185
 20
621.8349750133
 10
697.4316730288
 20
621.2721084157
 10
697.9347880627
 20
620.7274248682
 10
698.4997998864
 20
620.2033570598
 10
699.12418502
 20
619.7022456045
 10
699.8051548078
 20
619.2263285877
 10
700.5396678735
 20
618.7777315704
 10
701.3244437035
 20
618.3584580957
 10
702.1559772983
 20
617.9703807408
  0
LWPOLYLINE
  5
131
330
1F
100
AcDbEntity
  8
0
  6
Continuous
 62
     7
370
    15
100
AcDbPolyline
 90
       37
 70
   128
 43
0.0
 10
700.4798851012
 20
619.7919109964
 10
701.2608223736
 20
619.3702557197
 10
702.0888015592
 20
618.9796538723
 10
702.9601247018
 20
618.6218499769
 10
703.870900261
 20
618.2984420725
 10
704.8170604918
 20
618.0108745774
 10
705.7943796131
 20
617.7604318379
 10
706.7984926804
 20
617.5482323919
 10
707.8249150809
 20
617.3752239737
 10
708.8690625632
 20
617.2421792809
 10
709.926271711
 20
617.1496925235
 10
710.9918207716
 20
617.0981767696
 10
712.0609507444
 20
617.0878621013
 10
713.1288866352
 20
617.1187945862
 10
714.1908587832
 20
617.1908360724
 10
715.242124163
 20
617.3036648052
 10
716.2779875681
 20
617.456776864
 10
717.2938225811
 20
617.6494884132
 10
718.2850922363
 20
617.8809387562
 10
719.2473692828
 20
618.1500941797
 10
720.1763559576
 20
618.4557525702
 10
721.0679031808
 20
618.796548783
 10
721.9180290861
 20
619.1709607396
 10
722.7229368047
 20
619.5773162254
 10
723.4790314234
 20
620.0138003579
 10
724.1829360401
 20
620.4784636932
 10
724.831506846
 20
620.9692309321
 10
725.4218471663
 20
621.4839101888
 10
725.9513203978
 20
622.0202027808
 10
726.4175617846
 20
622.5757134954
 10
726.8184889795
 20
623.1479612867
 10
727.1523113443
 20
623.7343903572
 10
727.4175379472
 20
624.3323815724
 10
727.612984222
 20
624.9392641583
 10
727.7377772579
 20
625.5523276299
 10
727.7913596992
 20
626.168833897
 10
727.7935936002
 20
626.323175891
  0
LWPOLYLINE
  5
132
330
1F
100
AcDbEntity
  8
0
  6
Continuous
 62
     7
370
    15
100
AcDbPolyline
 90
       13
 70
   128
 43
0.0
 10
695.7935936002
 20
626.323175891
 10
695.8136949669
 20
625.8603222892
 10
695.902932539
 20
625.2451939098
 10
696.063141661
 20
624.6348800597
 10
696.2936067999
 20
624.0321065486
 10
696.5932986426
 20
623.4395655093
 10
696.9608786924
 20
622.8599033741
 10
697.3947052478
 20
622.2957090546
 10
697.8928407339
 20
621.7495023796
 10
698.4530603567
 20
621.2237228409
 10
699.0728620395
 20
620.7207186974
 10
699.7494775975
 20
620.2427364877
 10
700.4798851012
 20
619.7919109964
  0
ARC
  5
133
330
1F
100
AcDbEntity
  8
0
  6
Continuous
 62
     7
370
    15
100
AcDbCircle
 10
722.3061271354
 20
623.3937775889
 30
0.0
 40
5.487475849370011
100
AcDbArc
 50
341.6795670924
 51
359.8940362597
  0
LINE
  5
134
330
1F
100
AcDbEntity
  8
0
  6
Continuous
 62
     7
370
    15
100
AcDbLine
 10
727.5154617153
 20
623.628591648
 30
0.0
 11
727.5154617153
 21
621.6688936995
 31
0.0
  0
ARC
  5
135
330
1F
100
AcDbEntity
  8
0
  6
Continuous
 62
     7
370
    15
100
AcDbCircle
 10
721.3910537319
 20
625.6579491362
 30
0.0
 40
6.451872980930205
100
AcDbArc
 50
328.5359864108
 51
341.6670907003
  0
LINE
  5
136
330
1F
100
AcDbEntity
  8
0
  6
Continuous
 62
     7
370
    15
100
AcDbLine
 10
726.894296007
 20
622.2903105833
 30
0.0
 11
726.894296007
 21
620.3306126348
 31
0.0
  0
LWPOLYLINE
  5
137
330
1F
100
AcDbEntity
  8
0
  6
Continuous
 62
     7
370
    15
100
AcDbPolyline
 90
       14
 70
   128
 43
0.0
 10
717.0821460318
 20
614.6661790249
 10
718.1107474706
 20
614.897429561
 10
719.1092810801
 20
615.1690719573
 10
720.0729941283
 20
615.4798132743
 10
720.9972996193
 20
615.8281744732
 10
721.8777981257
 20
616.2124974551
 10
722.7102987287
 20
616.6309529535
 10
723.4908389656
 20
617.0815492411
 10
724.2157036902
 20
617.5621416095
 10
724.8814427556
 20
618.0704425777
 10
725.4848874359
 20
618.6040327799
 10
726.0231655087
 20
619.1603724806
 10
726.4937149255
 20
619.7368136635
 10
726.894296007
 20
620.3306126348
  0
LINE
  5
138
330
1F
100
AcDbEntity
  8
0
  6
Continuous
 62
     7
370
    15
100
AcDbLine
 10
717.0821460318
 20
616.6258769734
 30
0.0
 11
717.0821460318
 21
614.6661790249
 31
0.0
  0
ARC
  5
139
330
1F
100
AcDbEntity
  8
0
  6
Continuous
 62
     7
370
    15
100
AcDbCircle
 10
711.9752211415
 20
641.9684168514
 30
0.0
 40
25.85198269578381
100
AcDbArc
 50
276.1926553375
 51
281.3934225283
  0
LINE
  5
13A
330
1F
100
AcDbEntity
  8
0
  6
Continuous
 62
     7
370
    15
100
AcDbLine
 10
714.7639240487
 20
616.2672856429
 30
0.0
 11
714.7639240487
 21
614.3075876944
 31
0.0
  0
LWPOLYLINE
  5
13B
330
1F
100
AcDbEntity
  8
0
  6
Continuous
 62
     7
370
    15
100
AcDbPolyline
 90
       14
 70
   128
 43
0.0
 10
701.3602779167
 20
616.3809142936
 10
702.221492029
 20
615.9822945678
 10
703.1282665825
 20
615.6189030578
 10
704.0762855919
 20
615.2924694024
 10
705.0610367603
 20
615.0045473315
 10
706.0778329564
 20
614.7565072712
 10
707.1218345237
 20
614.5495298205
 10
708.1880723161
 20
614.3846001324
 10
709.2714713492
 20
614.2625032246
 10
710.3668749564
 20
614.1838202432
 10
711.4690693326
 20
614.1489256963
 10
712.5728083507
 20
614.1579856721
 10
713.6728385315
 20
614.2109570476
 10
714.7639240487
 20
614.3075876944
  0
LINE
  5
13C
330
1F
100
AcDbEntity
  8
0
  6
Continuous
 62
     7
370
    15
100
AcDbLine
 10
701.3602779167
 20
618.3406122422
 30
0.0
 11
701.3602779167
 21
616.3809142936
 31
0.0
  0
ARC
  5
13D
330
1F
100
AcDbEntity
  8
0
  6
Continuous
 62
     7
370
    15
100
AcDbCircle
 10
708.0325715449
 20
631.8583141174
 30
0.0
 40
15.07473934261924
100
AcDbArc
 50
236.2761729668
 51
243.7292035659
  0
LINE
  5
13E
330
1F
100
AcDbEntity
  8
0
  6
Continuous
 62
     7
370
    15
100
AcDbLine
 10
699.6632216419
 20
619.3203019763
 30
0.0
 11
699.6632216419
 21
617.3606040278
 31
0.0
  0
LWPOLYLINE
  5
13F
330
1F
100
AcDbEntity
  8
0
  6
Continuous
 62
     7
370
    15
100
AcDbPolyline
 90
       12
 70
   128
 43
0.0
 10
695.7935936002
 20
623.3836289682
 10
695.7968850638
 20
623.1962850963
 10
695.8573307412
 20
622.5600018265
 10
695.9936284309
 20
621.9276387843
 10
696.2051293953
 20
621.3022058352
 10
696.4908269507
 20
620.6866798595
 10
696.8493612592
 20
620.0839905833
 10
697.279025801
 20
619.4970066336
 10
697.7777754969
 20
618.9285218846
 10
698.3432364423
 20
618.3812421597
 10
698.9727172062
 20
617.8577723523
 10
699.6632216419
 20
617.3606040278
  0
ARC
  5
140
330
1F
100
AcDbEntity
  8
0
  6
Continuous
 62
     7
370
    15
100
AcDbCircle
 10
711.7935936002
 20
625.2904938018
 30
0.0
 40
1.611861255735095
100
AcDbArc
 50
70.8435954375
 51
109.1564045625
  0
LINE
  5
141
330
1F
100
AcDbEntity
  8
0
  6
Continuous
 62
     7
370
    15
100
AcDbLine
 10
704.1887050415
 20
615.2570731375
 30
0.0
 11
704.1887050415
 21
610.0699030931
 31
0.0
  0
ARC
  5
142
330
1F
100
AcDbEntity
  8
0
  6
Continuous
 62
     7
370
    15
100
AcDbCircle
 10
698.0953374042
 20
610.3420700976
 30
0.0
 40
6.099442928733285
100
AcDbArc
 50
321.4903367329
 51
357.4425205142
  0
LINE
  5
143
330
1F
100
AcDbEntity
  8
0
  6
Continuous
 62
     7
370
    15
100
AcDbLine
 10
702.8681707397
 20
606.5442725789
 30
0.0
 11
694.8892333404
 21
596.1321849829
 31
0.0
  0
ARC
  5
144
330
1F
100
AcDbEntity
  8
0
  6
Continuous
 62
     7
370
    15
100
AcDbCircle
 10
699.6620666758
 20
592.3343874643
 30
0.0
 40
6.099442928730189
100
AcDbArc
 50
141.4903367329
 51
177.4425205142
  0
LINE
  5
145
330
1F
100
AcDbEntity
  8
0
  6
Continuous
 62
     7
370
    15
100
AcDbLine
 10
693.5686990386
 20
592.6065544687
 30
0.0
 11
693.5686990386
 21
565.8300297592
 31
0.0
  0
ARC
  5
146
330
1F
100
AcDbEntity
  8
0
  6
Continuous
 62
     7
370
    15
100
AcDbCircle
 10
693.999773406
 20
565.7601025623
 30
0.0
 40
0.4367091974285072
100
AcDbArc
 50
170.7859630095
 51
309.2032852357
  0
LINE
  5
147
330
1F
100
AcDbEntity
  8
0
  6
Continuous
 62
     7
370
    15
100
AcDbLine
 10
694.2758058198
 20
565.4216930032
 30
0.0
 11
694.5240423079
 21
565.5649968775
 31
0.0
  0
ARC
  5
148
330
1F
100
AcDbEntity
  8
0
  6
Continuous
 62
     7
370
    15
100
AcDbCircle
 10
692.8798005843
 20
567.5738064237
 30
0.0
 40
5.39207973795403
100
AcDbArc
 50
301.4111216475
 51
323.617609315
  0
LINE
  5
149
330
1F
100
AcDbEntity
  8
0
  6
Continuous
 62
     7
370
    15
100
AcDbLine
 10
695.6900193822
 20
562.9719378675
 30
0.0
 11
693.5686990386
 21
561.7473256998
 31
0.0
  0
LWPOLYLINE
  5
14A
330
1F
100
AcDbEntity
  8
0
  6
Continuous
 62
     7
370
    15
100
AcDbPolyline
 90
       12
 70
   128
 43
0.0
 10
693.5686990386
 20
561.7473256998
 10
693.1661718898
 20
561.5481965554
 10
692.7718390329
 20
561.4196107711
 10
692.3937279478
 20
561.3641859825
 10
692.0395358858
 20
561.3830504786
 10
691.7164731758
 20
561.4758202326
 10
691.431116443
 20
561.6406067198
 10
691.1892747276
 20
561.8740553626
 10
690.9958712294
 20
562.1714138198
 10
690.854843086
 20
562.5266287307
 10
690.7690612237
 20
562.9324689441
 10
690.7402719139
 20
563.3806727237
  0
LINE
  5
14B
330
1F
100
AcDbEntity
  8
0
  6
Continuous
 62
     7
370
    15
100
AcDbLine
 10
690.7402719139
 20
563.3806727237
 30
0.0
 11
690.7402719139
 21
592.7761419516
 31
0.0
  0
ARC
  5
14C
330
1F
100
AcDbEntity
  8
0
  6
Continuous
 62
     7
370
    15
100
AcDbCircle
 10
696.8336395511
 20
592.5039749471
 30
0.0
 40
6.099442928731107
100
AcDbArc
 50
141.4903367329
 51
177.4425205142
  0
LINE
  5
14D
330
1F
100
AcDbEntity
  8
0
  6
Continuous
 62
     7
370
    15
100
AcDbLine
 10
692.0608062156
 20
596.3017724658
 30
0.0
 11
700.039743615
 21
606.7138600618
 31
0.0
  0
ARC
  5
14E
330
1F
100
AcDbEntity
  8
0
  6
Continuous
 62
     7
370
    15
100
AcDbCircle
 10
695.2669102795
 20
610.5116575804
 30
0.0
 40
6.099442928730322
100
AcDbArc
 50
321.4903367329
 51
357.4425205142
  0
LINE
  5
14F
330
1F
100
AcDbEntity
  8
0
  6
Continuous
 62
     7
370
    15
100
AcDbLine
 10
701.3602779167
 20
610.239490576
 30
0.0
 11
701.3602779167
 21
618.3406122422
 31
0.0
  0
LINE
  5
150
330
1F
100
AcDbEntity
  8
0
  6
Continuous
 62
     7
370
    15
100
AcDbLine
 10
699.6632216419
 20
611.2191803102
 30
0.0
 11
699.6632216419
 21
619.3203019763
 31
0.0
  0
LINE
  5
151
330
1F
100
AcDbEntity
  8
0
  6
Continuous
 62
     7
370
    15
100
AcDbLine
 10
690.3637499408
 20
597.2814621999
 30
0.0
 11
698.3426873401
 21
607.693549796
 31
0.0
  0
ARC
  5
152
330
1F
100
AcDbEntity
  8
0
  6
Continuous
 62
     7
370
    15
100
AcDbCircle
 10
695.1365832762
 20
593.4836646813
 30
0.0
 40
6.099442928730659
100
AcDbArc
 50
141.4903367329
 51
177.4425205142
  0
ARC
  5
153
330
1F
100
AcDbEntity
  8
0
  6
Continuous
 62
     7
370
    15
100
AcDbCircle
 10
693.5698540046
 20
611.4913473146
 30
0.0
 40
6.099442928723589
100
AcDbArc
 50
321.4903367328
 51
357.4425205143
  0
LINE
  5
154
330
1F
100
AcDbEntity
  8
0
  6
Continuous
 62
     7
370
    15
100
AcDbLine
 10
689.043215639
 20
564.3603624579
 30
0.0
 11
689.043215639
 21
593.7558316857
 31
0.0
  0
LWPOLYLINE
  5
155
330
1F
100
AcDbEntity
  8
0
  6
Continuous
 62
     7
370
    15
100
AcDbPolyline
 90
        7
 70
   128
 43
0.0
 10
689.8718052985
 20
562.528983232
 10
689.7340601681
 20
562.620296454
 10
689.4922184527
 20
562.8537450968
 10
689.2988149546
 20
563.151103554
 10
689.1577868112
 20
563.5063184649
 10
689.0720049489
 20
563.9121586783
 10
689.043215639
 20
564.3603624579
  0
ARC
  5
156
330
1F
100
AcDbEntity
  8
0
  6
Continuous
 62
     7
370
    15
100
AcDbCircle
 10
697.2206851358
 20
616.6761141227
 30
0.0
 40
2.75823862468286
100
AcDbArc
 50
289.2828926329
 51
332.318309969
  0
LINE
  5
157
330
1F
100
AcDbEntity
  8
0
  6
Continuous
 62
     7
370
    15
100
AcDbLine
 10
698.1315453876
 20
614.0726138035
 30
0.0
 11
687.2321142049
 21
609.9526338979
 31
0.0
  0
ARC
  5
158
330
1F
100
AcDbEntity
  8
0
  6
Continuous
 62
     7
370
    15
100
AcDbCircle
 10
688.0699384483
 20
607.4472163659
 30
0.0
 40
2.641792284190587
100
AcDbArc
 50
108.4901947507
 51
179.5413598883
  0
LINE
  5
159
330
1F
100
AcDbEntity
  8
0
  6
Continuous
 62
     7
370
    15
100
AcDbLine
 10
685.4282308021
 20
607.4683631062
 30
0.0
 11
685.4282308021
 21
580.6918383967
 31
0.0
  0
LWPOLYLINE
  5
15A
330
1F
100
AcDbEntity
  8
0
  6
Continuous
 62
     7
370
    15
100
AcDbPolyline
 90
        3
 70
   128
 43
0.0
 10
685.4282308021
 20
580.6918383967
 10
685.446790796
 20
580.5296682568
 10
685.4725619406
 20
580.4404498203
  0
LWPOLYLINE
  5
15B
330
1F
100
AcDbEntity
  8
0
  6
Continuous
 62
     7
370
    15
100
AcDbPolyline
 90
       12
 70
   128
 43
0.0
 10
685.1251440772
 20
576.6660817062
 10
684.8783684911
 20
576.7274339484
 10
684.339699791
 20
576.9098149855
 10
683.8231904433
 20
577.1525646965
 10
683.3393550888
 20
577.4507413975
 10
682.8980432199
 20
577.7982750706
 10
682.5082386738
 20
578.1880909324
 10
682.1778767468
 20
578.6122534562
 10
681.9136826552
 20
579.0621279161
 10
681.7210346287
 20
579.5285561654
 10
681.6038544256
 20
580.0020430702
 10
681.5645274969
 20
580.4729498024
  0
LINE
  5
15C
330
1F
100
AcDbEntity
  8
0
  6
Continuous
 62
     7
370
    15
100
AcDbLine
 10
681.5645274969
 20
580.4729498024
 30
0.0
 11
681.5645274969
 21
609.8684190303
 31
0.0
  0
ARC
  5
15D
330
1F
100
AcDbEntity
  8
0
  6
Continuous
 62
     7
370
    15
100
AcDbCircle
 10
684.2062351432
 20
609.84727229
 30
0.0
 40
2.64179228419116
100
AcDbArc
 50
108.4901947507
 51
179.5413598883
  0
LINE
  5
15E
330
1F
100
AcDbEntity
  8
0
  6
Continuous
 62
     7
370
    15
100
AcDbLine
 10
683.3684108997
 20
612.352689822
 30
0.0
 11
694.2678420824
 21
616.4726697276
 31
0.0
  0
ARC
  5
15F
330
1F
100
AcDbEntity
  8
0
  6
Continuous
 62
     7
370
    15
100
AcDbCircle
 10
693.4300178389
 20
618.9780872596
 30
0.0
 40
2.641792284191617
100
AcDbArc
 50
288.4901947507
 51
359.5413598883
  0
LINE
  5
160
330
1F
100
AcDbEntity
  8
0
  6
Continuous
 62
     7
370
    15
100
AcDbLine
 10
696.0717254852
 20
618.9569405193
 30
0.0
 11
696.0717254852
 21
621.6688936995
 31
0.0
  0
ARC
  5
161
330
1F
100
AcDbEntity
  8
0
  6
Continuous
 62
     7
370
    15
100
AcDbCircle
 10
693.894982062
 20
620.5456605873
 30
0.0
 40
2.909763703855554
100
AcDbArc
 50
289.9754416654
 51
317.6739196448
  0
LINE
  5
162
330
1F
100
AcDbEntity
  8
0
  6
Continuous
 62
     7
370
    15
100
AcDbLine
 10
683.9895766079
 20
613.6909708868
 30
0.0
 11
694.8890077907
 21
617.8109507923
 31
0.0
  0
ARC
  5
163
330
1F
100
AcDbEntity
  8
0
  6
Continuous
 62
     7
370
    15
100
AcDbCircle
 10
684.8953490409
 20
611.0959027898
 30
0.0
 40
2.748600030608773
100
AcDbArc
 50
109.24083079
 51
154.178819679
  0
LINE
  5
164
330
1F
100
AcDbEntity
  8
0
  6
Continuous
 62
     7
370
    15
100
AcDbLine
 10
686.0748798402
 20
609.1772109178
 30
0.0
 11
686.0493965103
 21
608.8066441709
 31
0.0
  0
LINE
  5
165
330
1F
100
AcDbEntity
  8
0
  6
Continuous
 62
     7
370
    15
100
AcDbLine
 10
686.0493965103
 20
608.8066441709
 30
0.0
 11
686.0493965103
 21
582.0301194614
 31
0.0
  0
LINE
  5
166
330
1F
100
AcDbEntity
  8
0
  6
Continuous
 62
     7
370
    15
100
AcDbLine
 10
686.0493965103
 20
582.0301194614
 30
0.0
 11
686.0532906505
 21
581.9562703039
 31
0.0
  0
LINE
  5
167
330
1F
100
AcDbEntity
  8
0
  6
Continuous
 62
     7
370
    15
100
AcDbLine
 10
726.894296007
 20
614.1891889171
 30
0.0
 11
726.894296007
 21
622.2903105833
 31
0.0
  0
ARC
  5
168
330
1F
100
AcDbEntity
  8
0
  6
Continuous
 62
     7
370
    15
100
AcDbCircle
 10
730.7335055308
 20
614.4096089275
 30
0.0
 40
3.845531790103426
100
AcDbArc
 50
183.2859075304
 51
238.0438285465
  0
LINE
  5
169
330
1F
100
AcDbEntity
  8
0
  6
Continuous
 62
     7
370
    15
100
AcDbLine
 10
739.5976105925
 20
603.6549448778
 30
0.0
 11
728.6981794098
 21
611.1468551321
 31
0.0
  0
ARC
  5
16A
330
1F
100
AcDbEntity
  8
0
  6
Continuous
 62
     7
370
    15
100
AcDbCircle
 10
737.5622844715
 20
600.3921910824
 30
0.0
 40
3.845531790106257
100
AcDbArc
 50
3.2859075305
 51
58.0438285465
  0
LINE
  5
16B
330
1F
100
AcDbEntity
  8
0
  6
Continuous
 62
     7
370
    15
100
AcDbLine
 10
741.4014939953
 20
571.2171418648
 30
0.0
 11
741.4014939953
 21
600.6126110927
 31
0.0
  0
LWPOLYLINE
  5
16C
330
1F
100
AcDbEntity
  8
0
  6
Continuous
 62
     7
370
    15
100
AcDbPolyline
 90
       12
 70
   128
 43
0.0
 10
737.5377906901
 20
568.5486308349
 10
738.0876530012
 20
568.4968208886
 10
738.6263217012
 20
568.5125553084
 10
739.1428310489
 20
568.5955137867
 10
739.6266664034
 20
568.7440075282
 10
740.0679782723
 20
568.9550136285
 10
740.4577828184
 20
569.2242366119
 10
740.7881447454
 20
569.5461958749
 10
741.0523388371
 20
569.9143372553
 10
741.2449868636
 20
570.3211664562
 10
741.3621670667
 20
570.7584016083
 10
741.4014939953
 20
571.2171418648
  0
LINE
  5
16D
330
1F
100
AcDbEntity
  8
0
  6
Continuous
 62
     7
370
    15
100
AcDbLine
 10
734.6400132113
 20
568.996869998
 30
0.0
 11
737.5377906901
 21
568.5486308349
 31
0.0
  0
LINE
  5
16E
330
1F
100
AcDbEntity
  8
0
  6
Continuous
 62
     7
370
    15
100
AcDbLine
 10
734.2857627474
 20
569.0654242119
 30
0.0
 11
734.6400132113
 21
568.996869998
 31
0.0
  0
ARC
  5
16F
330
1F
100
AcDbEntity
  8
0
  6
Continuous
 62
     7
370
    15
100
AcDbCircle
 10
736.8073821128
 20
572.6797030263
 30
0.0
 40
0.7320083100778539
100
AcDbArc
 50
264.843220852
 51
356.2113676176
  0
LINE
  5
170
330
1F
100
AcDbEntity
  8
0
  6
Continuous
 62
     7
370
    15
100
AcDbLine
 10
737.5377906901
 20
599.4078596038
 30
0.0
 11
737.5377906901
 21
572.6313348943
 31
0.0
  0
ARC
  5
171
330
1F
100
AcDbEntity
  8
0
  6
Continuous
 62
     7
370
    15
100
AcDbCircle
 10
733.6985811663
 20
599.1874395934
 30
0.0
 40
3.845531790106136
100
AcDbArc
 50
3.2859075305
 51
58.0438285465
  0
LINE
  5
172
330
1F
100
AcDbEntity
  8
0
  6
Continuous
 62
     7
370
    15
100
AcDbLine
 10
724.8344761047
 20
609.9421036431
 30
0.0
 11
735.7339072874
 21
602.4501933889
 31
0.0
  0
ARC
  5
173
330
1F
100
AcDbEntity
  8
0
  6
Continuous
 62
     7
370
    15
100
AcDbCircle
 10
726.8698022257
 20
613.2048574386
 30
0.0
 40
3.845531790107177
100
AcDbArc
 50
183.2859075305
 51
238.0438285465
  0
LINE
  5
174
330
1F
100
AcDbEntity
  8
0
  6
Continuous
 62
     7
370
    15
100
AcDbLine
 10
723.0305927019
 20
616.8083789169
 30
0.0
 11
723.0305927019
 21
612.9844374282
 31
0.0
  0
LINE
  5
175
330
1F
100
AcDbEntity
  8
0
  6
Continuous
 62
     7
370
    15
100
AcDbLine
 10
727.5154617153
 20
615.5274699819
 30
0.0
 11
727.5154617153
 21
623.628591648
 31
0.0
  0
LINE
  5
176
330
1F
100
AcDbEntity
  8
0
  6
Continuous
 62
     7
370
    15
100
AcDbLine
 10
740.2187763008
 20
604.9932259425
 30
0.0
 11
729.3193451181
 21
612.4851361968
 31
0.0
  0
ARC
  5
177
330
1F
100
AcDbEntity
  8
0
  6
Continuous
 62
     7
370
    15
100
AcDbCircle
 10
731.3546712391
 20
615.7478899922
 30
0.0
 40
3.84553179010767
100
AcDbArc
 50
183.2859075305
 51
238.0438285465
  0
ARC
  5
178
330
1F
100
AcDbEntity
  8
0
  6
Continuous
 62
     7
370
    15
100
AcDbCircle
 10
738.1834501797
 20
601.7304721471
 30
0.0
 40
3.845531790106727
100
AcDbArc
 50
3.2859075305
 51
58.0438285465
  0
LINE
  5
179
330
1F
100
AcDbEntity
  8
0
  6
Continuous
 62
     7
370
    15
100
AcDbLine
 10
742.0226597035
 20
572.5554229296
 30
0.0
 11
742.0226597035
 21
601.9508921575
 31
0.0
  0
ARC
  5
17A
330
1F
100
AcDbEntity
  8
0
  6
Continuous
 62
     7
370
    15
100
AcDbCircle
 10
739.4619658916
 20
572.5417501103
 30
0.0
 40
2.560730314710414
100
AcDbArc
 50
335.2340802149
 51
0.3059277872
  0
LINE
  5
17B
330
1F
100
AcDbEntity
  8
0
  6
Continuous
 62
     7
370
    15
100
AcDbLine
 10
737.5377906901
 20
573.3029415068
 30
0.0
 11
737.4924390279
 21
573.296392314
 31
0.0
  0
LINE
  5
17C
330
1F
100
AcDbEntity
  8
0
  6
Continuous
 62
     7
370
    15
100
AcDbLine
 10
733.2234372597
 20
620.0644535646
 30
0.0
 11
727.5154617153
 21
620.9227688201
 31
0.0
  0
LWPOLYLINE
  5
17D
330
1F
100
AcDbEntity
  8
0
  6
Continuous
 62
     7
370
    15
100
AcDbPolyline
 90
        9
 70
   128
 43
0.0
 10
734.5439715615
 20
618.063479502
 10
734.5215264626
 20
618.4611779136
 10
734.4545473938
 20
618.8266498616
 10
734.3440973856
 20
619.154094911
 10
734.1919293989
 20
619.4383161545
 10
734.0004585043
 20
619.6748026938
 10
733.772723552
 20
619.8598012315
 10
733.512338942
 20
619.9903756408
 10
733.2234372597
 20
620.0644535646
  0
LINE
  5
17E
330
1F
100
AcDbEntity
  8
0
  6
Continuous
 62
     7
370
    15
100
AcDbLine
 10
734.5439715615
 20
610.6368480948
 30
0.0
 11
734.5439715615
 21
618.063479502
 31
0.0
  0
LINE
  5
17F
330
1F
100
AcDbEntity
  8
0
  6
Continuous
 62
     7
370
    15
100
AcDbLine
 10
731.7155444367
 20
614.6282595718
 30
0.0
 11
731.7155444367
 21
613.6327964829
 31
0.0
  0
LWPOLYLINE
  5
180
330
1F
100
AcDbEntity
  8
0
  6
Continuous
 62
     7
370
    15
100
AcDbPolyline
 90
        9
 70
   128
 43
0.0
 10
730.395010135
 20
616.6292336345
 10
730.6839118172
 20
616.5551557107
 10
730.9442964272
 20
616.4245813013
 10
731.1720313795
 20
616.2395827636
 10
731.3635022741
 20
616.0030962244
 10
731.5156702608
 20
615.7188749808
 10
731.6261202691
 20
615.3914299314
 10
731.6930993378
 20
615.0259579834
 10
731.7155444367
 20
614.6282595718
  0
LINE
  5
181
330
1F
100
AcDbEntity
  8
0
  6
Continuous
 62
     7
370
    15
100
AcDbLine
 10
727.5154617153
 20
617.062234848
 30
0.0
 11
730.395010135
 21
616.6292336345
 31
0.0
  0
LINE
  5
182
330
1F
100
AcDbEntity
  8
0
  6
Continuous
 62
     7
370
    15
100
AcDbLine
 10
731.5263809849
 20
621.0441432988
 30
0.0
 11
727.5154617153
 21
621.6472701291
 31
0.0
  0
ARC
  5
183
330
1F
100
AcDbEntity
  8
0
  6
Continuous
 62
     7
370
    15
100
AcDbCircle
 10
727.3514080772
 20
615.6819923098
 30
0.0
 40
2.668107671098403
100
AcDbArc
 50
358.4097731981
 51
22.827868915
  0
LWPOLYLINE
  5
184
330
1F
100
AcDbEntity
  8
0
  6
Continuous
 62
     7
370
    15
100
AcDbPolyline
 90
        3
 70
   128
 43
0.0
 10
732.0183256271
 20
620.8745484621
 10
731.8152826671
 20
620.970065375
 10
731.5263809849
 20
621.0441432988
  0
LINE
  5
185
330
1F
100
AcDbEntity
  8
0
  6
Continuous
 62
     7
370
    15
100
AcDbLine
 10
730.0184881619
 20
615.607949306
 30
0.0
 11
730.0184881619
 21
614.8913759182
 31
0.0
  0
LINE
  5
186
330
1F
100
AcDbEntity
  8
0
  6
Continuous
 62
     7
370
    15
100
AcDbLine
 10
714.7639240487
 20
608.1661639767
 30
0.0
 11
714.7639240487
 21
616.2672856429
 31
0.0
  0
ARC
  5
187
330
1F
100
AcDbEntity
  8
0
  6
Continuous
 62
     7
370
    15
100
AcDbCircle
 10
731.9552551365
 20
608.4171388961
 30
0.0
 40
17.19316297200982
100
AcDbArc
 50
180.8363972584
 51
193.6438911567
  0
LINE
  5
188
330
1F
100
AcDbEntity
  8
0
  6
Continuous
 62
     7
370
    15
100
AcDbLine
 10
718.1677669331
 20
592.2634491955
 30
0.0
 11
715.2472731497
 21
604.3615019659
 31
0.0
  0
ARC
  5
189
330
1F
100
AcDbEntity
  8
0
  6
Continuous
 62
     7
370
    15
100
AcDbCircle
 10
701.4597849462
 20
588.2078122653
 30
0.0
 40
17.19316297199747
100
AcDbArc
 50
0.8363972584
 51
13.6438911567
  0
LINE
  5
18A
330
1F
100
AcDbEntity
  8
0
  6
Continuous
 62
     7
370
    15
100
AcDbLine
 10
718.6511160341
 20
559.0633179567
 30
0.0
 11
718.6511160341
 21
588.4587871846
 31
0.0
  0
LWPOLYLINE
  5
18B
330
1F
100
AcDbEntity
  8
0
  6
Continuous
 62
     7
370
    15
100
AcDbPolyline
 90
       12
 70
   128
 43
0.0
 10
717.6158398537
 20
558.0276231504
 10
717.7631750158
 20
557.7434392273
 10
717.907510859
 20
557.5315301343
 10
718.0459091216
 20
557.3962097294
 10
718.1755524141
 20
557.3402327458
 10
718.293801573
 20
557.3647387134
 10
718.3982493863
 20
557.4692287614
 10
718.4867695979
 20
557.6515757738
 10
718.5575601914
 20
557.9080676912
 10
718.6091800745
 20
558.2334830779
 10
718.6405784153
 20
558.621197415
 10
718.6511160341
 20
559.0633179567
  0
LINE
  5
18C
330
1F
100
AcDbEntity
  8
0
  6
Continuous
 62
     7
370
    15
100
AcDbLine
 10
716.8393827184
 20
559.7004744813
 30
0.0
 11
717.6158398537
 21
558.0276231504
 31
0.0
  0
ARC
  5
18D
330
1F
100
AcDbEntity
  8
0
  6
Continuous
 62
     7
370
    15
100
AcDbCircle
 10
727.3742658078
 20
564.1007022061
 30
0.0
 40
11.41690701277336
100
AcDbArc
 50
190.3513489601
 51
202.6694003753
  0
LINE
  5
18E
330
1F
100
AcDbEntity
  8
0
  6
Continuous
 62
     7
370
    15
100
AcDbLine
 10
717.3570208086
 20
561.8514035082
 30
0.0
 11
717.2095173709
 21
562.1691948077
 31
0.0
  0
LWPOLYLINE
  5
18F
330
1F
100
AcDbEntity
  8
0
  6
Continuous
 62
     7
370
    15
100
AcDbPolyline
 90
        9
 70
   128
 43
0.0
 10
717.6158398537
 20
562.1103272098
 10
717.6108667183
 20
561.9617424563
 10
717.596138427
 20
561.8402966444
 10
717.5722209796
 20
561.7506568685
 10
717.5400335105
 20
561.6962679349
 10
717.5008129658
 20
561.6792199799
 10
717.4560665691
 20
561.7001681468
 10
717.4075138994
 20
561.7583074094
 10
717.3570208086
 20
561.8514035082
  0
LINE
  5
190
330
1F
100
AcDbEntity
  8
0
  6
Continuous
 62
     7
370
    15
100
AcDbLine
 10
717.6158398537
 20
588.8868519193
 30
0.0
 11
717.6158398537
 21
562.1103272098
 31
0.0
  0
ARC
  5
191
330
1F
100
AcDbEntity
  8
0
  6
Continuous
 62
     7
370
    15
100
AcDbCircle
 10
700.4245087658
 20
588.635877
 30
0.0
 40
17.19316297200433
100
AcDbArc
 50
0.8363972584
 51
13.6438911567
  0
LINE
  5
192
330
1F
100
AcDbEntity
  8
0
  6
Continuous
 62
     7
370
    15
100
AcDbLine
 10
714.2119969693
 20
604.7895667006
 30
0.0
 11
717.1324907526
 21
592.6915139302
 31
0.0
  0
ARC
  5
193
330
1F
100
AcDbEntity
  8
0
  6
Continuous
 62
     7
370
    15
100
AcDbCircle
 10
730.9199789561
 20
608.8452036308
 30
0.0
 40
17.19316297202345
100
AcDbArc
 50
180.8363972584
 51
193.6438911566
  0
LINE
  5
194
330
1F
100
AcDbEntity
  8
0
  6
Continuous
 62
     7
370
    15
100
AcDbLine
 10
713.7286478683
 20
614.2148249184
 30
0.0
 11
713.7286478683
 21
608.5942287114
 31
0.0
  0
LINE
  5
195
330
1F
100
AcDbEntity
  8
0
  6
Continuous
 62
     7
370
    15
100
AcDbLine
 10
720.4859889162
 20
592.622040526
 30
0.0
 11
717.5654951328
 21
604.7200932964
 31
0.0
  0
ARC
  5
196
330
1F
100
AcDbEntity
  8
0
  6
Continuous
 62
     7
370
    15
100
AcDbCircle
 10
703.7780069293
 20
588.5664035958
 30
0.0
 40
17.19316297199816
100
AcDbArc
 50
0.8363972584
 51
13.6438911567
  0
LINE
  5
197
330
1F
100
AcDbEntity
  8
0
  6
Continuous
 62
     7
370
    15
100
AcDbLine
 10
717.0821460318
 20
608.5247553073
 30
0.0
 11
717.0821460318
 21
616.6258769734
 31
0.0
  0
LINE
  5
198
330
1F
100
AcDbEntity
  8
0
  6
Continuous
 62
     7
370
    15
100
AcDbLine
 10
720.9693380172
 20
559.4219092873
 30
0.0
 11
720.9693380172
 21
588.8173785151
 31
0.0
  0
ARC
  5
199
330
1F
100
AcDbEntity
  8
0
  6
Continuous
 62
     7
370
    15
100
AcDbCircle
 10
734.2734771196
 20
608.7757302266
 30
0.0
 40
17.19316297202084
100
AcDbArc
 50
180.8363972584
 51
193.6438911567
  0
LWPOLYLINE
  5
19A
330
1F
100
AcDbEntity
  8
0
  6
Continuous
 62
     7
370
    15
100
AcDbPolyline
 90
        8
 70
   128
 43
0.0
 10
720.5455249239
 20
557.6993898847
 10
720.6120235561
 20
557.7233300439
 10
720.7164713694
 20
557.8278200919
 10
720.804991581
 20
558.0101671043
 10
720.8757821745
 20
558.2666590218
 10
720.9274020576
 20
558.5920744085
 10
720.9588003984
 20
558.9797887456
 10
720.9693380172
 20
559.4219092873
  0
LINE
  5
19B
330
1F
100
AcDbEntity
  8
0
  6
CENTERX2
 62
     7
100
AcDbLine
 10
693.6578998302
 20
266.6452737584
 30
0.0
 11
691.9378998931
 21
266.6452737584
 31
0.0
  0
LINE
  5
19C
330
1F
100
AcDbEntity
  8
0
  6
CENTERX2
 62
     7
100
AcDbLine
 10
691.9378998931
 20
266.6452737584
 30
0.0
 11
691.9378998931
 21
265.2734299778
 31
0.0
  0
ARC
  5
19D
330
1F
100
AcDbEntity
  8
0
  6
Continuous
 62
     7
370
    15
100
AcDbCircle
 10
744.4578989145
 20
265.2734299778
 30
0.0
 40
0.9200000000000159
100
AcDbArc
 50
270.0
 51
90.0
  0
ARC
  5
19E
330
1F
100
AcDbEntity
  8
0
  6
Continuous
 62
     7
370
    15
100
AcDbCircle
 10
692.8578989145
 20
265.2734299778
 30
0.0
 40
0.9200000000000159
100
AcDbArc
 50
90.0
 51
270.0
  0
LINE
  5
19F
330
1F
100
AcDbEntity
  8
0
  6
Continuous
 62
     7
370
    15
100
AcDbLine
 10
744.4578989145
 20
266.1934299778
 30
0.0
 11
735.18407593
 21
266.1934299778
 31
0.0
  0
LINE
  5
1A0
330
1F
100
AcDbEntity
  8
0
  6
Continuous
 62
     7
370
    15
100
AcDbLine
 10
731.1056149609
 20
266.1934299778
 30
0.0
 11
706.2101828681
 21
266.1934299778
 31
0.0
  0
LINE
  5
1A1
330
1F
100
AcDbEntity
  8
0
  6
Continuous
 62
     7
370
    15
100
AcDbLine
 10
702.131721899
 20
266.1934299778
 30
0.0
 11
692.8578989145
 21
266.1934299778
 31
0.0
  0
LINE
  5
1A2
330
1F
100
AcDbEntity
  8
0
  6
Continuous
 62
     7
370
    15
100
AcDbLine
 10
692.8578989145
 20
264.3534299778
 30
0.0
 11
702.131721899
 21
264.3534299778
 31
0.0
  0
LINE
  5
1A3
330
1F
100
AcDbEntity
  8
0
  6
Continuous
 62
     7
370
    15
100
AcDbLine
 10
706.283099738
 20
264.3534299778
 30
0.0
 11
731.032698091
 21
264.3534299778
 31
0.0
  0
LINE
  5
1A4
330
1F
100
AcDbEntity
  8
0
  6
Continuous
 62
     7
370
    15
100
AcDbLine
 10
735.18407593
 20
264.3534299778
 30
0.0
 11
744.4578989145
 21
264.3534299778
 31
0.0
  0
LINE
  5
1A5
330
1F
100
AcDbEntity
  8
0
  6
Continuous
 62
     7
370
    15
100
AcDbLine
 10
743.6578989145
 20
266.1934299778
 30
0.0
 11
743.6578989145
 21
297.5075378825
 31
0.0
  0
LINE
  5
1A6
330
1F
100
AcDbEntity
  8
0
  6
Continuous
 62
     7
370
    15
100
AcDbLine
 10
693.6578989145
 20
297.5075378825
 30
0.0
 11
693.6578989145
 21
266.1934299778
 31
0.0
  0
ARC
  5
1A7
330
1F
100
AcDbEntity
  8
0
  6
Continuous
 62
     7
370
    15
100
AcDbCircle
 10
740.4578989145
 20
297.5075378825
 30
0.0
 40
3.19999999999995
100
AcDbArc
 50
0.0
 51
57.7834539414
  0
ARC
  5
1A8
330
1F
100
AcDbEntity
  8
0
  6
Continuous
 62
     7
370
    15
100
AcDbCircle
 10
696.8578989145
 20
297.5075378825
 30
0.0
 40
3.199999999999963
100
AcDbArc
 50
122.2165460586
 51
180.0
  0
LINE
  5
1A9
330
1F
100
AcDbEntity
  8
0
  6
Continuous
 62
     7
370
    15
100
AcDbLine
 10
742.1638848992
 20
300.2148634669
 30
0.0
 11
731.1654193302
 21
307.1454034145
 31
0.0
  0
LINE
  5
1AA
330
1F
100
AcDbEntity
  8
0
  6
Continuous
 62
     7
370
    15
100
AcDbLine
 10
706.1503784988
 20
307.1454034145
 30
0.0
 11
695.1519129298
 21
300.2148634669
 31
0.0
  0
LWPOLYLINE
  5
1AB
330
1F
100
AcDbEntity
  8
0
  6
Continuous
 62
     7
370
    15
100
AcDbPolyline
 90
        3
 70
   128
 43
0.0
 10
729.0947627881
 20
309.7549979607
 10
729.0832926451
 20
309.8369851068
 10
729.0578989145
 20
310.2393220731
  0
LWPOLYLINE
  5
1AC
330
1F
100
AcDbEntity
  8
0
  6
Continuous
 62
     7
370
    15
100
AcDbPolyline
 90
        3
 70
   128
 43
0.0
 10
708.2578989145
 20
310.2393220731
 10
708.2325051839
 20
309.8369851068
 10
708.2210350409
 20
309.7549979607
  0
ARC
  5
1AD
330
1F
100
AcDbEntity
  8
0
  6
Continuous
 62
     7
370
    15
100
AcDbCircle
 10
728.6578989145
 20
320.8734299778
 30
0.0
 40
0.4000000000000909
100
AcDbArc
 50
0.0
 51
90.0
  0
ARC
  5
1AE
330
1F
100
AcDbEntity
  8
0
  6
Continuous
 62
     7
370
    15
100
AcDbCircle
 10
708.6578989145
 20
320.8734299778
 30
0.0
 40
0.4000000000000341
100
AcDbArc
 50
90.0
 51
180.0
  0
LINE
  5
1AF
330
1F
100
AcDbEntity
  8
0
  6
Continuous
 62
     7
370
    15
100
AcDbLine
 10
729.0578989145
 20
310.2393220731
 30
0.0
 11
729.0578989145
 21
320.8734299778
 31
0.0
  0
LINE
  5
1B0
330
1F
100
AcDbEntity
  8
0
  6
Continuous
 62
     7
370
    15
100
AcDbLine
 10
708.2578989145
 20
320.8734299778
 30
0.0
 11
708.2578989145
 21
310.2393220731
 31
0.0
  0
LINE
  5
1B1
330
1F
100
AcDbEntity
  8
0
  6
Continuous
 62
     7
370
    15
100
AcDbLine
 10
734.6578989145
 20
323.6734299778
 30
0.0
 11
734.6578989145
 21
326.0734299778
 31
0.0
  0
LINE
  5
1B2
330
1F
100
AcDbEntity
  8
0
  6
Continuous
 62
     7
370
    15
100
AcDbLine
 10
702.6578989145
 20
326.0734299778
 30
0.0
 11
702.6578989145
 21
323.6734299778
 31
0.0
  0
LINE
  5
1B3
330
1F
100
AcDbEntity
  8
0
  6
Continuous
 62
     7
370
    15
100
AcDbLine
 10
734.6578989145
 20
323.6734299778
 30
0.0
 11
734.6578989145
 21
324.8734299778
 31
0.0
  0
LINE
  5
1B4
330
1F
100
AcDbEntity
  8
0
  6
Continuous
 62
     7
370
    15
100
AcDbLine
 10
702.6578989145
 20
324.8734299778
 30
0.0
 11
702.6578989145
 21
323.6734299778
 31
0.0
  0
LINE
  5
1B5
330
1F
100
AcDbEntity
  8
0
  6
Continuous
 62
     7
370
    15
100
AcDbLine
 10
702.812118534
 20
323.6734299778
 30
0.0
 11
734.6578989145
 21
323.6734299778
 31
0.0
  0
LINE
  5
1B6
330
1F
100
AcDbEntity
  8
0
  6
Continuous
 62
     7
370
    15
100
AcDbLine
 10
702.6578989145
 20
323.6734299778
 30
0.0
 11
702.812118534
 21
323.6734299778
 31
0.0
  0
LINE
  5
1B7
330
1F
100
AcDbEntity
  8
0
  6
Continuous
 62
     7
370
    15
100
AcDbLine
 10
702.812118534
 20
326.0734299778
 30
0.0
 11
734.6578989145
 21
326.0734299778
 31
0.0
  0
LINE
  5
1B8
330
1F
100
AcDbEntity
  8
0
  6
Continuous
 62
     7
370
    15
100
AcDbLine
 10
702.6578989145
 20
326.0734299778
 30
0.0
 11
702.812118534
 21
326.0734299778
 31
0.0
  0
LINE
  5
1B9
330
1F
100
AcDbEntity
  8
0
  6
Continuous
 62
     7
370
    15
100
AcDbLine
 10
702.6578989145
 20
324.8734299778
 30
0.0
 11
734.6578989145
 21
324.8734299778
 31
0.0
  0
LINE
  5
1BA
330
1F
100
AcDbEntity
  8
0
  6
Continuous
 62
     7
370
    15
100
AcDbLine
 10
734.6128354547
 20
323.6734299778
 30
0.0
 11
734.6578989145
 21
323.6734299778
 31
0.0
  0
LINE
  5
1BB
330
1F
100
AcDbEntity
  8
0
  6
Continuous
 62
     7
370
    15
100
AcDbLine
 10
734.6128354547
 20
323.6734299778
 30
0.0
 11
734.6128354547
 21
321.2734299778
 31
0.0
  0
LINE
  5
1BC
330
1F
100
AcDbEntity
  8
0
  6
Continuous
 62
     7
370
    15
100
AcDbLine
 10
727.6745976691
 20
321.2734299778
 30
0.0
 11
734.6128354547
 21
321.2734299778
 31
0.0
  0
LINE
  5
1BD
330
1F
100
AcDbEntity
  8
0
  6
Continuous
 62
     7
370
    15
100
AcDbLine
 10
727.6745976691
 20
323.6734299778
 30
0.0
 11
727.6745976691
 21
321.2734299778
 31
0.0
  0
LINE
  5
1BE
330
1F
100
AcDbEntity
  8
0
  6
Continuous
 62
     7
370
    15
100
AcDbLine
 10
725.5961367001
 20
323.6734299778
 30
0.0
 11
727.6745976691
 21
323.6734299778
 31
0.0
  0
LINE
  5
1BF
330
1F
100
AcDbEntity
  8
0
  6
Continuous
 62
     7
370
    15
100
AcDbLine
 10
725.5961367001
 20
323.6734299778
 30
0.0
 11
725.5961367001
 21
321.2734299778
 31
0.0
  0
LINE
  5
1C0
330
1F
100
AcDbEntity
  8
0
  6
Continuous
 62
     7
370
    15
100
AcDbLine
 10
711.719661129
 20
321.2734299778
 30
0.0
 11
725.5961367001
 21
321.2734299778
 31
0.0
  0
LINE
  5
1C1
330
1F
100
AcDbEntity
  8
0
  6
Continuous
 62
     7
370
    15
100
AcDbLine
 10
711.719661129
 20
323.6734299778
 30
0.0
 11
711.719661129
 21
321.2734299778
 31
0.0
  0
LINE
  5
1C2
330
1F
100
AcDbEntity
  8
0
  6
Continuous
 62
     7
370
    15
100
AcDbLine
 10
709.6412001599
 20
323.6734299778
 30
0.0
 11
711.719661129
 21
323.6734299778
 31
0.0
  0
LINE
  5
1C3
330
1F
100
AcDbEntity
  8
0
  6
Continuous
 62
     7
370
    15
100
AcDbLine
 10
709.6412001599
 20
323.6734299778
 30
0.0
 11
709.6412001599
 21
321.2734299778
 31
0.0
  0
LINE
  5
1C4
330
1F
100
AcDbEntity
  8
0
  6
Continuous
 62
     7
370
    15
100
AcDbLine
 10
702.7029623744
 20
321.2734299778
 30
0.0
 11
709.6412001599
 21
321.2734299778
 31
0.0
  0
LINE
  5
1C5
330
1F
100
AcDbEntity
  8
0
  6
Continuous
 62
     7
370
    15
100
AcDbLine
 10
702.7029623744
 20
323.6734299778
 30
0.0
 11
702.7029623744
 21
321.2734299778
 31
0.0
  0
LINE
  5
1C6
330
1F
100
AcDbEntity
  8
0
  6
Continuous
 62
     7
370
    15
100
AcDbLine
 10
702.6578989145
 20
323.6734299778
 30
0.0
 11
702.7029623744
 21
323.6734299778
 31
0.0
  0
LINE
  5
1C7
330
1F
100
AcDbEntity
  8
0
  6
Continuous
 62
     7
370
    15
100
AcDbLine
 10
706.7029623744
 20
321.2734299778
 30
0.0
 11
706.7029623744
 21
311.5447950969
 31
0.0
  0
ARC
  5
1C8
330
1F
100
AcDbEntity
  8
0
  6
Continuous
 62
     7
370
    15
100
AcDbCircle
 10
702.7029623744
 20
311.5447950969
 30
0.0
 40
4.00000000000011
100
AcDbArc
 50
302.2165460586
 51
0.0
  0
LINE
  5
1C9
330
1F
100
AcDbEntity
  8
0
  6
Continuous
 62
     7
370
    15
100
AcDbLine
 10
704.8354448553
 20
308.1606381164
 30
0.0
 11
693.5515233718
 21
301.0502218391
 31
0.0
  0
ARC
  5
1CA
330
1F
100
AcDbEntity
  8
0
  6
Continuous
 62
     7
370
    15
100
AcDbCircle
 10
695.6840058526
 20
297.6660648586
 30
0.0
 40
4.000000000000098
100
AcDbArc
 50
122.2165460586
 51
180.0
  0
LINE
  5
1CB
330
1F
100
AcDbEntity
  8
0
  6
Continuous
 62
     7
370
    15
100
AcDbLine
 10
691.6840058526
 20
297.6660648586
 30
0.0
 11
691.6840058526
 21
264.8734299778
 31
0.0
  0
ARC
  5
1CC
330
1F
100
AcDbEntity
  8
0
  6
Continuous
 62
     7
370
    15
100
AcDbCircle
 10
692.6840058526
 20
264.8734299778
 30
0.0
 40
1.0
100
AcDbArc
 50
180.0
 51
270.0
  0
LINE
  5
1CD
330
1F
100
AcDbEntity
  8
0
  6
Continuous
 62
     7
370
    15
100
AcDbLine
 10
692.6840058526
 20
263.8734299778
 30
0.0
 11
693.6840058526
 21
263.8734299778
 31
0.0
  0
ARC
  5
1CE
330
1F
100
AcDbEntity
  8
0
  6
Continuous
 62
     7
370
    15
100
AcDbCircle
 10
693.6840058526
 20
264.8734299778
 30
0.0
 40
1.0
100
AcDbArc
 50
270.0
 51
328.6677485024
  0
LINE
  5
1CF
330
1F
100
AcDbEntity
  8
0
  6
Continuous
 62
     7
370
    15
100
AcDbLine
 10
698.6840058526
 20
264.3534299778
 30
0.0
 11
698.6840058526
 21
263.8734299778
 31
0.0
  0
ARC
  5
1D0
330
1F
100
AcDbEntity
  8
0
  6
Continuous
 62
     7
370
    15
100
AcDbCircle
 10
694.6840058526
 20
263.8734299778
 30
0.0
 40
4.0
100
AcDbArc
 50
270.0
 51
0.0
  0
LINE
  5
1D1
330
1F
100
AcDbEntity
  8
0
  6
Continuous
 62
     7
370
    15
100
AcDbLine
 10
694.6840058526
 20
259.8734299778
 30
0.0
 11
691.6840058526
 21
259.8734299778
 31
0.0
  0
ARC
  5
1D2
330
1F
100
AcDbEntity
  8
0
  6
Continuous
 62
     7
370
    15
100
AcDbCircle
 10
691.6840058526
 20
263.8734299778
 30
0.0
 40
4.0
100
AcDbArc
 50
180.0
 51
270.0
  0
LINE
  5
1D3
330
1F
100
AcDbEntity
  8
0
  6
Continuous
 62
     7
370
    15
100
AcDbLine
 10
687.6840058526
 20
263.8734299778
 30
0.0
 11
687.6840058526
 21
299.8734299778
 31
0.0
  0
ARC
  5
1D4
330
1F
100
AcDbEntity
  8
0
  6
Continuous
 62
     7
370
    15
100
AcDbCircle
 10
691.6840058526
 20
299.8734299778
 30
0.0
 40
4.000000000000114
100
AcDbArc
 50
122.2165460586
 51
180.0
  0
LINE
  5
1D5
330
1F
100
AcDbEntity
  8
0
  6
Continuous
 62
     7
370
    15
100
AcDbLine
 10
689.5515233718
 20
303.2575869583
 30
0.0
 11
700.8354448553
 21
310.3680032356
 31
0.0
  0
ARC
  5
1D6
330
1F
100
AcDbEntity
  8
0
  6
Continuous
 62
     7
370
    15
100
AcDbCircle
 10
698.7029623744
 20
313.7521602161
 30
0.0
 40
4.000000000000341
100
AcDbArc
 50
302.2165460586
 51
0.0
  0
LINE
  5
1D7
330
1F
100
AcDbEntity
  8
0
  6
Continuous
 62
     7
370
    15
100
AcDbLine
 10
702.7029623744
 20
313.7521602161
 30
0.0
 11
702.7029623744
 21
323.6734299778
 31
0.0
  0
LINE
  5
1D8
330
1F
100
AcDbEntity
  8
0
  6
Continuous
 62
     7
370
    15
100
AcDbLine
 10
725.5961367001
 20
313.7521602161
 30
0.0
 11
725.5961367001
 21
323.6734299778
 31
0.0
  0
LWPOLYLINE
  5
1D9
330
1F
100
AcDbEntity
  8
0
  6
Continuous
 62
     7
370
    15
100
AcDbPolyline
 90
        9
 70
   128
 43
0.0
 10
726.5298954596
 20
310.3680032356
 10
726.325611121
 20
310.6629760177
 10
726.1414913975
 20
311.0069774944
 10
725.9804584684
 20
311.3945479902
 10
725.8450681005
 20
311.8195363421
 10
725.7374690852
 20
312.2751975253
 10
725.6593691354
 20
312.7542997039
 10
725.6120077817
 20
313.2492390082
 10
725.5961367001
 20
313.7521602161
  0
LINE
  5
1DA
330
1F
100
AcDbEntity
  8
0
  6
Continuous
 62
     7
370
    15
100
AcDbLine
 10
732.1718562014
 20
303.2575869583
 30
0.0
 11
726.5298954596
 21
310.3680032356
 31
0.0
  0
LWPOLYLINE
  5
1DB
330
1F
100
AcDbEntity
  8
0
  6
Continuous
 62
     7
370
    15
100
AcDbPolyline
 90
        9
 70
   128
 43
0.0
 10
733.1056149609
 20
299.8734299778
 10
733.0897438793
 20
300.3763511856
 10
733.0423825256
 20
300.8712904899
 10
732.9642825758
 20
301.3503926685
 10
732.8566835605
 20
301.8060538517
 10
732.7212931925
 20
302.2310422037
 10
732.5602602634
 20
302.6186126995
 10
732.37614054
 20
302.9626141762
 10
732.1718562014
 20
303.2575869583
  0
LINE
  5
1DC
330
1F
100
AcDbEntity
  8
0
  6
Continuous
 62
     7
370
    15
100
AcDbLine
 10
733.1056149609
 20
263.8734299778
 30
0.0
 11
733.1056149609
 21
299.8734299778
 31
0.0
  0
LWPOLYLINE
  5
1DD
330
1F
100
AcDbEntity
  8
0
  6
Continuous
 62
     7
370
    15
100
AcDbPolyline
 90
       12
 70
   128
 43
0.0
 10
731.1056149609
 20
259.8734299778
 10
731.3902446375
 20
259.9141442102
 10
731.6690800746
 20
260.0354580833
 10
731.9364449869
 20
260.2349019964
 10
732.1868965958
 20
260.5084158464
 10
732.4153364288
 20
260.8504316804
 10
732.6171141096
 20
261.253987042
 10
732.7881220266
 20
261.7108667079
 10
732.9248789516
 20
262.2117699258
 10
733.0246009082
 20
262.7464997504
 10
733.0852578447
 20
263.3041706247
 10
733.1056149609
 20
263.8734299778
  0
LINE
  5
1DE
330
1F
100
AcDbEntity
  8
0
  6
Continuous
 62
     7
370
    15
100
AcDbLine
 10
729.6056149609
 20
259.8734299778
 30
0.0
 11
731.1056149609
 21
259.8734299778
 31
0.0
  0
LWPOLYLINE
  5
1DF
330
1F
100
AcDbEntity
  8
0
  6
Continuous
 62
     7
370
    15
100
AcDbPolyline
 90
       12
 70
   128
 43
0.0
 10
727.6056149609
 20
263.8734299778
 10
727.6259720772
 20
263.3041706247
 10
727.6866290137
 20
262.7464997504
 10
727.7863509702
 20
262.2117699258
 10
727.9231078953
 20
261.7108667079
 10
728.0941158122
 20
261.253987042
 10
728.295893493
 20
260.8504316804
 10
728.524333326
 20
260.5084158464
 10
728.7747849349
 20
260.2349019964
 10
729.0421498472
 20
260.0354580833
 10
729.3209852844
 20
259.9141442102
 10
729.6056149609
 20
259.8734299778
  0
LINE
  5
1E0
330
1F
100
AcDbEntity
  8
0
  6
Continuous
 62
     7
370
    15
100
AcDbLine
 10
727.6056149609
 20
264.3534299778
 30
0.0
 11
727.6056149609
 21
263.8734299778
 31
0.0
  0
ARC
  5
1E1
330
1F
100
AcDbEntity
  8
0
  6
Continuous
 62
     7
370
    15
100
AcDbCircle
 10
730.268040577
 20
264.4479492288
 30
0.0
 40
0.597038064610532
100
AcDbArc
 50
189.1090256294
 51
254.2135690434
  0
LINE
  5
1E2
330
1F
100
AcDbEntity
  8
0
  6
Continuous
 62
     7
370
    15
100
AcDbLine
 10
730.6056149609
 20
263.8734299778
 30
0.0
 11
730.1056149609
 21
263.8734299778
 31
0.0
  0
LWPOLYLINE
  5
1E3
330
1F
100
AcDbEntity
  8
0
  6
Continuous
 62
     7
370
    15
100
AcDbPolyline
 90
        9
 70
   128
 43
0.0
 10
731.1056149609
 20
264.8734299778
 10
731.0960076011
 20
264.6783396558
 10
731.0675547272
 20
264.4907465454
 10
731.0213497671
 20
264.3178597448
 10
730.9591683515
 20
264.1663231966
 10
730.8834000774
 20
264.0419603655
 10
730.7969566771
 20
263.9495504453
 10
730.7031601219
 20
263.8926446974
 10
730.6056149609
 20
263.8734299778
  0
LINE
  5
1E4
330
1F
100
AcDbEntity
  8
0
  6
Continuous
 62
     7
370
    15
100
AcDbLine
 10
731.1056149609
 20
297.6660648586
 30
0.0
 11
731.1056149609
 21
264.8734299778
 31
0.0
  0
LWPOLYLINE
  5
1E5
330
1F
100
AcDbEntity
  8
0
  6
Continuous
 62
     7
370
    15
100
AcDbPolyline
 90
        9
 70
   128
 43
0.0
 10
730.1718562014
 20
301.0502218391
 10
730.37614054
 20
300.755249057
 10
730.5602602634
 20
300.4112475803
 10
730.7212931925
 20
300.0236770845
 10
730.8566835605
 20
299.5986887326
 10
730.9642825758
 20
299.1430275494
 10
731.0423825256
 20
298.6639253708
 10
731.0897438793
 20
298.1689860665
 10
731.1056149609
 20
297.6660648586
  0
LINE
  5
1E6
330
1F
100
AcDbEntity
  8
0
  6
Continuous
 62
     7
370
    15
100
AcDbLine
 10
724.5298954596
 20
308.1606381164
 30
0.0
 11
730.1718562014
 21
301.0502218391
 31
0.0
  0
LWPOLYLINE
  5
1E7
330
1F
100
AcDbEntity
  8
0
  6
Continuous
 62
     7
370
    15
100
AcDbPolyline
 90
        9
 70
   128
 43
0.0
 10
723.5961367001
 20
311.5447950969
 10
723.6120077817
 20
311.0418738891
 10
723.6593691354
 20
310.5469345848
 10
723.7374690852
 20
310.0678324061
 10
723.8450681005
 20
309.6121712229
 10
723.9804584684
 20
309.187182871
 10
724.1414913975
 20
308.7996123752
 10
724.325611121
 20
308.4556108985
 10
724.5298954596
 20
308.1606381164
  0
LINE
  5
1E8
330
1F
100
AcDbEntity
  8
0
  6
Continuous
 62
     7
370
    15
100
AcDbLine
 10
723.5961367001
 20
321.2734299778
 30
0.0
 11
723.5961367001
 21
311.5447950969
 31
0.0
  0
LINE
  5
1E9
330
1F
100
AcDbEntity
  8
0
  6
Continuous
 62
     7
370
    15
100
AcDbLine
 10
731.1056149609
 20
259.8734299778
 30
0.0
 11
733.18407593
 21
259.8734299778
 31
0.0
  0
LWPOLYLINE
  5
1EA
330
1F
100
AcDbEntity
  8
0
  6
Continuous
 62
     7
370
    15
100
AcDbPolyline
 90
       12
 70
   128
 43
0.0
 10
733.18407593
 20
259.8734299778
 10
733.4687056066
 20
259.9141442102
 10
733.7475410437
 20
260.0354580833
 10
734.014905956
 20
260.2349019964
 10
734.2653575649
 20
260.5084158464
 10
734.4937973979
 20
260.8504316804
 10
734.6955750787
 20
261.253987042
 10
734.8665829957
 20
261.7108667079
 10
735.0033399207
 20
262.2117699258
 10
735.1030618772
 20
262.7464997504
 10
735.1637188138
 20
263.3041706247
 10
735.18407593
 20
263.8734299778
  0
LWPOLYLINE
  5
1EB
330
1F
100
AcDbEntity
  8
0
  6
Continuous
 62
     7
370
    15
100
AcDbPolyline
 90
        9
 70
   128
 43
0.0
 10
735.18407593
 20
299.8734299778
 10
735.1682048484
 20
300.3763511856
 10
735.1208434947
 20
300.8712904899
 10
735.0427435449
 20
301.3503926685
 10
734.9351445296
 20
301.8060538517
 10
734.7997541616
 20
302.2310422037
 10
734.6387212325
 20
302.6186126995
 10
734.4546015091
 20
302.9626141762
 10
734.2503171704
 20
303.2575869583
  0
LINE
  5
1EC
330
1F
100
AcDbEntity
  8
0
  6
Continuous
 62
     7
370
    15
100
AcDbLine
 10
735.18407593
 20
263.8734299778
 30
0.0
 11
735.18407593
 21
299.8734299778
 31
0.0
  0
LINE
  5
1ED
330
1F
100
AcDbEntity
  8
0
  6
Continuous
 62
     7
370
    15
100
AcDbLine
 10
734.2503171704
 20
303.2575869583
 30
0.0
 11
728.6083564287
 21
310.3680032356
 31
0.0
  0
LWPOLYLINE
  5
1EE
330
1F
100
AcDbEntity
  8
0
  6
Continuous
 62
     7
370
    15
100
AcDbPolyline
 90
        9
 70
   128
 43
0.0
 10
728.6083564287
 20
310.3680032356
 10
728.4040720901
 20
310.6629760177
 10
728.2199523666
 20
311.0069774944
 10
728.0589194375
 20
311.3945479902
 10
727.9235290696
 20
311.8195363421
 10
727.8159300543
 20
312.2751975253
 10
727.7378301045
 20
312.7542997039
 10
727.6904687508
 20
313.2492390082
 10
727.6745976691
 20
313.7521602161
  0
LINE
  5
1EF
330
1F
100
AcDbEntity
  8
0
  6
Continuous
 62
     7
370
    15
100
AcDbLine
 10
727.6745976691
 20
313.7521602161
 30
0.0
 11
727.6745976691
 21
323.6734299778
 31
0.0
  0
LINE
  5
1F0
330
1F
100
AcDbEntity
  8
0
  6
Continuous
 62
     7
370
    15
100
AcDbLine
 10
734.6128354547
 20
313.7521602161
 30
0.0
 11
734.6128354547
 21
323.6734299778
 31
0.0
  0
ARC
  5
1F1
330
1F
100
AcDbEntity
  8
0
  6
Continuous
 62
     7
370
    15
100
AcDbCircle
 10
738.6128354547
 20
313.7521602161
 30
0.0
 40
4.000000000000158
100
AcDbArc
 50
180.0
 51
237.7834539414
  0
LINE
  5
1F2
330
1F
100
AcDbEntity
  8
0
  6
Continuous
 62
     7
370
    15
100
AcDbLine
 10
747.7642744573
 20
303.2575869583
 30
0.0
 11
736.4803529738
 21
310.3680032356
 31
0.0
  0
ARC
  5
1F3
330
1F
100
AcDbEntity
  8
0
  6
Continuous
 62
     7
370
    15
100
AcDbCircle
 10
745.6317919764
 20
299.8734299778
 30
0.0
 40
4.000000000000014
100
AcDbArc
 50
0.0
 51
57.7834539414
  0
LINE
  5
1F4
330
1F
100
AcDbEntity
  8
0
  6
Continuous
 62
     7
370
    15
100
AcDbLine
 10
749.6317919764
 20
263.8734299778
 30
0.0
 11
749.6317919764
 21
299.8734299778
 31
0.0
  0
ARC
  5
1F5
330
1F
100
AcDbEntity
  8
0
  6
Continuous
 62
     7
370
    15
100
AcDbCircle
 10
745.6317919764
 20
263.8734299778
 30
0.0
 40
4.0
100
AcDbArc
 50
270.0
 51
0.0
  0
LINE
  5
1F6
330
1F
100
AcDbEntity
  8
0
  6
Continuous
 62
     7
370
    15
100
AcDbLine
 10
742.6317919764
 20
259.8734299778
 30
0.0
 11
745.6317919764
 21
259.8734299778
 31
0.0
  0
ARC
  5
1F7
330
1F
100
AcDbEntity
  8
0
  6
Continuous
 62
     7
370
    15
100
AcDbCircle
 10
742.6317919764
 20
263.8734299778
 30
0.0
 40
4.0
100
AcDbArc
 50
180.0
 51
270.0
  0
LINE
  5
1F8
330
1F
100
AcDbEntity
  8
0
  6
Continuous
 62
     7
370
    15
100
AcDbLine
 10
738.6317919764
 20
264.3534299778
 30
0.0
 11
738.6317919764
 21
263.8734299778
 31
0.0
  0
ARC
  5
1F9
330
1F
100
AcDbEntity
  8
0
  6
Continuous
 62
     7
370
    15
100
AcDbCircle
 10
743.6317919764
 20
264.8734299778
 30
0.0
 40
1.0
100
AcDbArc
 50
211.3322514976
 51
270.0
  0
LINE
  5
1FA
330
1F
100
AcDbEntity
  8
0
  6
Continuous
 62
     7
370
    15
100
AcDbLine
 10
744.6317919764
 20
263.8734299778
 30
0.0
 11
743.6317919764
 21
263.8734299778
 31
0.0
  0
ARC
  5
1FB
330
1F
100
AcDbEntity
  8
0
  6
Continuous
 62
     7
370
    15
100
AcDbCircle
 10
744.6317919764
 20
264.8734299778
 30
0.0
 40
1.0
100
AcDbArc
 50
270.0
 51
0.0
  0
LINE
  5
1FC
330
1F
100
AcDbEntity
  8
0
  6
Continuous
 62
     7
370
    15
100
AcDbLine
 10
745.6317919764
 20
297.6660648586
 30
0.0
 11
745.6317919764
 21
264.8734299778
 31
0.0
  0
ARC
  5
1FD
330
1F
100
AcDbEntity
  8
0
  6
Continuous
 62
     7
370
    15
100
AcDbCircle
 10
741.6317919764
 20
297.6660648586
 30
0.0
 40
4.000000000000158
100
AcDbArc
 50
0.0
 51
57.7834539414
  0
LINE
  5
1FE
330
1F
100
AcDbEntity
  8
0
  6
Continuous
 62
     7
370
    15
100
AcDbLine
 10
732.4803529738
 20
308.1606381164
 30
0.0
 11
743.7642744573
 21
301.0502218391
 31
0.0
  0
ARC
  5
1FF
330
1F
100
AcDbEntity
  8
0
  6
Continuous
 62
     7
370
    15
100
AcDbCircle
 10
734.6128354547
 20
311.5447950969
 30
0.0
 40
4.00000000000005
100
AcDbArc
 50
180.0
 51
237.7834539414
  0
LINE
  5
200
330
1F
100
AcDbEntity
  8
0
  6
Continuous
 62
     7
370
    15
100
AcDbLine
 10
730.6128354547
 20
321.2734299778
 30
0.0
 11
730.6128354547
 21
311.5447950969
 31
0.0
  0
LINE
  5
201
330
1F
100
AcDbEntity
  8
0
  6
Continuous
 62
     7
370
    15
100
AcDbLine
 10
713.719661129
 20
321.2734299778
 30
0.0
 11
713.719661129
 21
311.5447950969
 31
0.0
  0
LWPOLYLINE
  5
202
330
1F
100
AcDbEntity
  8
0
  6
Continuous
 62
     7
370
    15
100
AcDbPolyline
 90
        9
 70
   128
 43
0.0
 10
713.719661129
 20
311.5447950969
 10
713.7037900474
 20
311.0418738891
 10
713.6564286937
 20
310.5469345848
 10
713.5783287438
 20
310.0678324061
 10
713.4707297286
 20
309.6121712229
 10
713.3353393606
 20
309.187182871
 10
713.1743064315
 20
308.7996123752
 10
712.9901867081
 20
308.4556108985
 10
712.7859023694
 20
308.1606381164
  0
LINE
  5
203
330
1F
100
AcDbEntity
  8
0
  6
Continuous
 62
     7
370
    15
100
AcDbLine
 10
712.7859023694
 20
308.1606381164
 30
0.0
 11
707.1439416277
 21
301.0502218391
 31
0.0
  0
LWPOLYLINE
  5
204
330
1F
100
AcDbEntity
  8
0
  6
Continuous
 62
     7
370
    15
100
AcDbPolyline
 90
        9
 70
   128
 43
0.0
 10
707.1439416277
 20
301.0502218391
 10
706.9396572891
 20
300.755249057
 10
706.7555375656
 20
300.4112475803
 10
706.5945046365
 20
300.0236770845
 10
706.4591142685
 20
299.5986887326
 10
706.3515152533
 20
299.1430275494
 10
706.2734153034
 20
298.6639253708
 10
706.2260539498
 20
298.1689860665
 10
706.2101828681
 20
297.6660648586
  0
LINE
  5
205
330
1F
100
AcDbEntity
  8
0
  6
Continuous
 62
     7
370
    15
100
AcDbLine
 10
706.2101828681
 20
297.6660648586
 30
0.0
 11
706.2101828681
 21
264.8734299778
 31
0.0
  0
LWPOLYLINE
  5
206
330
1F
100
AcDbEntity
  8
0
  6
Continuous
 62
     7
370
    15
100
AcDbPolyline
 90
        9
 70
   128
 43
0.0
 10
706.2101828681
 20
264.8734299778
 10
706.2197902279
 20
264.6783396558
 10
706.2482431019
 20
264.4907465454
 10
706.294448062
 20
264.3178597448
 10
706.3566294775
 20
264.1663231966
 10
706.4323977516
 20
264.0419603655
 10
706.5188411519
 20
263.9495504453
 10
706.6126377071
 20
263.8926446974
 10
706.7101828681
 20
263.8734299778
  0
LINE
  5
207
330
1F
100
AcDbEntity
  8
0
  6
Continuous
 62
     7
370
    15
100
AcDbLine
 10
706.7101828681
 20
263.8734299778
 30
0.0
 11
707.2101828681
 21
263.8734299778
 31
0.0
  0
ARC
  5
208
330
1F
100
AcDbEntity
  8
0
  6
Continuous
 62
     7
370
    15
100
AcDbCircle
 10
707.0477572521
 20
264.4479492288
 30
0.0
 40
0.5970380646106105
100
AcDbArc
 50
285.7864309566
 51
350.8909743706
  0
LINE
  5
209
330
1F
100
AcDbEntity
  8
0
  6
Continuous
 62
     7
370
    15
100
AcDbLine
 10
709.7101828681
 20
264.3534299778
 30
0.0
 11
709.7101828681
 21
263.8734299778
 31
0.0
  0
LWPOLYLINE
  5
20A
330
1F
100
AcDbEntity
  8
0
  6
Continuous
 62
     7
370
    15
100
AcDbPolyline
 90
       12
 70
   128
 43
0.0
 10
709.7101828681
 20
263.8734299778
 10
709.6898257519
 20
263.3041706247
 10
709.6291688154
 20
262.7464997504
 10
709.5294468588
 20
262.2117699258
 10
709.3926899338
 20
261.7108667079
 10
709.2216820168
 20
261.253987042
 10
709.019904336
 20
260.8504316804
 10
708.791464503
 20
260.5084158464
 10
708.5410128941
 20
260.2349019964
 10
708.2736479818
 20
260.0354580833
 10
707.9948125447
 20
259.9141442102
 10
707.7101828681
 20
259.8734299778
  0
LINE
  5
20B
330
1F
100
AcDbEntity
  8
0
  6
Continuous
 62
     7
370
    15
100
AcDbLine
 10
707.7101828681
 20
259.8734299778
 30
0.0
 11
706.2101828681
 21
259.8734299778
 31
0.0
  0
LWPOLYLINE
  5
20C
330
1F
100
AcDbEntity
  8
0
  6
Continuous
 62
     7
370
    15
100
AcDbPolyline
 90
       12
 70
   128
 43
0.0
 10
706.2101828681
 20
259.8734299778
 10
705.9255531916
 20
259.9141442102
 10
705.6467177544
 20
260.0354580833
 10
705.3793528421
 20
260.2349019964
 10
705.1289012332
 20
260.5084158464
 10
704.9004614002
 20
260.8504316804
 10
704.6986837194
 20
261.253987042
 10
704.5276758025
 20
261.7108667079
 10
704.3909188774
 20
262.2117699258
 10
704.2911969209
 20
262.7464997504
 10
704.2305399844
 20
263.3041706247
 10
704.2101828681
 20
263.8734299778
  0
LINE
  5
20D
330
1F
100
AcDbEntity
  8
0
  6
Continuous
 62
     7
370
    15
100
AcDbLine
 10
704.2101828681
 20
263.8734299778
 30
0.0
 11
704.2101828681
 21
299.8734299778
 31
0.0
  0
LWPOLYLINE
  5
20E
330
1F
100
AcDbEntity
  8
0
  6
Continuous
 62
     7
370
    15
100
AcDbPolyline
 90
        9
 70
   128
 43
0.0
 10
704.2101828681
 20
299.8734299778
 10
704.2260539498
 20
300.3763511856
 10
704.2734153034
 20
300.8712904899
 10
704.3515152533
 20
301.3503926685
 10
704.4591142685
 20
301.8060538517
 10
704.5945046365
 20
302.2310422037
 10
704.7555375656
 20
302.6186126995
 10
704.9396572891
 20
302.9626141762
 10
705.1439416277
 20
303.2575869583
  0
LINE
  5
20F
330
1F
100
AcDbEntity
  8
0
  6
Continuous
 62
     7
370
    15
100
AcDbLine
 10
705.1439416277
 20
303.2575869583
 30
0.0
 11
710.7859023694
 21
310.3680032356
 31
0.0
  0
LWPOLYLINE
  5
210
330
1F
100
AcDbEntity
  8
0
  6
Continuous
 62
     7
370
    15
100
AcDbPolyline
 90
        9
 70
   128
 43
0.0
 10
710.7859023694
 20
310.3680032356
 10
710.9901867081
 20
310.6629760177
 10
711.1743064315
 20
311.0069774944
 10
711.3353393606
 20
311.3945479902
 10
711.4707297286
 20
311.8195363421
 10
711.5783287438
 20
312.2751975253
 10
711.6564286937
 20
312.7542997039
 10
711.7037900474
 20
313.2492390082
 10
711.719661129
 20
313.7521602161
  0
LINE
  5
211
330
1F
100
AcDbEntity
  8
0
  6
Continuous
 62
     7
370
    15
100
AcDbLine
 10
711.719661129
 20
313.7521602161
 30
0.0
 11
711.719661129
 21
323.6734299778
 31
0.0
  0
LINE
  5
212
330
1F
100
AcDbEntity
  8
0
  6
Continuous
 62
     7
370
    15
100
AcDbLine
 10
704.131721899
 20
259.8734299778
 30
0.0
 11
706.2101828681
 21
259.8734299778
 31
0.0
  0
LWPOLYLINE
  5
213
330
1F
100
AcDbEntity
  8
0
  6
Continuous
 62
     7
370
    15
100
AcDbPolyline
 90
       12
 70
   128
 43
0.0
 10
704.131721899
 20
259.8734299778
 10
703.8470922225
 20
259.9141442102
 10
703.5682567854
 20
260.0354580833
 10
703.300891873
 20
260.2349019964
 10
703.0504402641
 20
260.5084158464
 10
702.8220004312
 20
260.8504316804
 10
702.6202227503
 20
261.253987042
 10
702.4492148334
 20
261.7108667079
 10
702.3124579083
 20
262.2117699258
 10
702.2127359518
 20
262.7464997504
 10
702.1520790153
 20
263.3041706247
 10
702.131721899
 20
263.8734299778
  0
LWPOLYLINE
  5
214
330
1F
100
AcDbEntity
  8
0
  6
Continuous
 62
     7
370
    15
100
AcDbPolyline
 90
        9
 70
   128
 43
0.0
 10
702.131721899
 20
299.8734299778
 10
702.1475929807
 20
300.3763511856
 10
702.1949543344
 20
300.8712904899
 10
702.2730542842
 20
301.3503926685
 10
702.3806532995
 20
301.8060538517
 10
702.5160436674
 20
302.2310422037
 10
702.6770765965
 20
302.6186126995
 10
702.86119632
 20
302.9626141762
 10
703.0654806586
 20
303.2575869583
  0
LINE
  5
215
330
1F
100
AcDbEntity
  8
0
  6
Continuous
 62
     7
370
    15
100
AcDbLine
 10
702.131721899
 20
263.8734299778
 30
0.0
 11
702.131721899
 21
299.8734299778
 31
0.0
  0
LINE
  5
216
330
1F
100
AcDbEntity
  8
0
  6
Continuous
 62
     7
370
    15
100
AcDbLine
 10
703.0654806586
 20
303.2575869583
 30
0.0
 11
708.7074414003
 21
310.3680032356
 31
0.0
  0
LWPOLYLINE
  5
217
330
1F
100
AcDbEntity
  8
0
  6
Continuous
 62
     7
370
    15
100
AcDbPolyline
 90
        9
 70
   128
 43
0.0
 10
708.7074414003
 20
310.3680032356
 10
708.911725739
 20
310.6629760177
 10
709.0958454624
 20
311.0069774944
 10
709.2568783915
 20
311.3945479902
 10
709.3922687595
 20
311.8195363421
 10
709.4998677748
 20
312.2751975253
 10
709.5779677246
 20
312.7542997039
 10
709.6253290783
 20
313.2492390082
 10
709.6412001599
 20
313.7521602161
  0
LINE
  5
218
330
1F
100
AcDbEntity
  8
0
  6
Continuous
 62
     7
370
    15
100
AcDbLine
 10
709.6412001599
 20
313.7521602161
 30
0.0
 11
709.6412001599
 21
323.6734299778
 31
0.0
  0
ENDSEC
  0
SECTION
  2
OBJECTS
  0
DICTIONARY
  5
C
330
0
100
AcDbDictionary
281
     1
  3
ACAD_GROUP
350
D
  3
ACAD_LAYOUT
350
1A
  3
ACAD_MLINESTYLE
350
17
  3
ACAD_PLOTSETTINGS
350
19
  3
ACAD_PLOTSTYLENAME
350
E
  3
ACAD_SCALELIST
350
47
  0
DICTIONARY
  5
D
102
{ACAD_REACTORS
330
C
102
}
330
C
100
AcDbDictionary
281
     1
  0
DICTIONARY
  5
1A
102
{ACAD_REACTORS
330
C
102
}
330
C
100
AcDbDictionary
281
     1
  3
Layout1
350
1E
  3
Layout2
350
26
  3
Model
350
22
  0
DICTIONARY
  5
17
102
{ACAD_REACTORS
330
C
102
}
330
C
100
AcDbDictionary
281
     1
  3
Standard
350
18
  0
DICTIONARY
  5
19
102
{ACAD_REACTORS
330
C
102
}
330
C
100
AcDbDictionary
281
     1
  0
ACDBDICTIONARYWDFLT
  5
E
102
{ACAD_REACTORS
330
C
102
}
330
C
100
AcDbDictionary
281
     1
  3
Normal
350
F
100
AcDbDictionaryWithDefault
340
F
  0
DICTIONARY
  5
47
102
{ACAD_REACTORS
330
C
102
}
330
C
100
AcDbDictionary
281
     1
  3
A0
350
48
  3
A1
350
49
  3
A2
350
4A
  3
A3
350
4B
  3
A4
350
4C
  3
A5
350
4D
  3
A6
350
4E
  3
A7
350
4F
  3
A8
350
50
  3
A9
350
51
  3
B0
350
52
  3
B1
350
53
  3
B2
350
54
  3
B3
350
55
  3
B4
350
56
  3
B5
350
57
  3
B6
350
58
  3
B7
350
59
  3
B8
350
5A
  3
B9
350
5B
  3
C0
350
5C
  3
C1
350
5D
  3
C2
350
5E
  3
C3
350
5F
  3
C4
350
60
  3
C5
350
61
  3
C6
350
62
  3
C7
350
63
  3
C8
350
64
  3
C9
350
65
  3
D0
350
66
  3
D1
350
67
  3
D2
350
68
  0
LAYOUT
  5
1E
102
{ACAD_REACTORS
330
1A
102
}
330
1A
100
AcDbPlotSettings
  1

  2
none_device
  4

  6

 40
0.0
 41
0.0
 42
0.0
 43
0.0
 44
0.0
 45
0.0
 46
0.0
 47
0.0
 48
0.0
 49
0.0
140
0.0
141
0.0
142
1.0
143
1.0
 70
   688
 72
     1
 73
     0
 74
     5
  7

 75
    16
147
1.0
148
0.0
149
0.0
100
AcDbLayout
  1
Layout1
 70
     1
 71
     1
 10
0.0
 20
0.0
 11
420.0
 21
297.0
 12
0.0
 22
0.0
 32
0.0
 14
1.0000000000E+20
 24
1.0000000000E+20
 34
1.0000000000E+20
 15
-1.0000000000E+20
 25
-1.0000000000E+20
 35
-1.0000000000E+20
146
0.0
 13
0.0
 23
0.0
 33
0.0
 16
1.0
 26
0.0
 36
0.0
 17
0.0
 27
1.0
 37
0.0
 76
     0
330
1B
  0
LAYOUT
  5
26
102
{ACAD_REACTORS
330
1A
102
}
330
1A
100
AcDbPlotSettings
  1

  2
none_device
  4

  6

 40
0.0
 41
0.0
 42
0.0
 43
0.0
 44
0.0
 45
0.0
 46
0.0
 47
0.0
 48
0.0
 49
0.0
140
0.0
141
0.0
142
1.0
143
1.0
 70
   688
 72
     1
 73
     0
 74
     5
  7

 75
    16
147
1.0
148
0.0
149
0.0
100
AcDbLayout
  1
Layout2
 70
     1
 71
     2
 10
0.0
 20
0.0
 11
0.0
 21
0.0
 12
0.0
 22
0.0
 32
0.0
 14
0.0
 24
0.0
 34
0.0
 15
0.0
 25
0.0
 35
0.0
146
0.0
 13
0.0
 23
0.0
 33
0.0
 16
1.0
 26
0.0
 36
0.0
 17
0.0
 27
1.0
 37
0.0
 76
     0
330
23
  0
LAYOUT
  5
22
102
{ACAD_REACTORS
330
1A
102
}
330
1A
100
AcDbPlotSettings
  1

  2
none_device
  4
Letter_(8.50_x_11.00_Inches)
  6

 40
6.35
 41
6.35
 42
6.35000508
 43
6.35000508
 44
215.9
 45
279.4
 46
0.0
 47
0.0
 48
0.0
 49
0.0
140
0.0
141
0.0
142
1.0
143
1.0
 70
  1712
 72
     1
 73
     0
 74
     0
  7

 75
     0
147
1.0
148
0.0
149
0.0
100
AcDbLayout
  1
Model
 70
     1
 71
     0
 10
0.0
 20
0.0
 11
1189.0
 21
841.0
 12
0.0
 22
0.0
 32
0.0
 14
0.0
 24
0.0
 34
0.0
 15
1189.0
 25
841.0
 35
0.0
146
0.0
 13
0.0
 23
0.0
 33
0.0
 16
1.0
 26
0.0
 36
0.0
 17
0.0
 27
1.0
 37
0.0
 76
     0
330
1F
331
29
  0
MLINESTYLE
  5
18
102
{ACAD_REACTORS
330
17
102
}
330
17
100
AcDbMlineStyle
  2
Standard
 70
     0
  3

 62
   256
 51
90.0
 52
90.0
 71
     2
 49
0.5
 62
   256
  6
BYLAYER
 49
-0.5
 62
   256
  6
BYLAYER
  0
ACDBPLACEHOLDER
  5
F
102
{ACAD_REACTORS
330
E
102
}
330
E
  0
SCALE
  5
48
102
{ACAD_REACTORS
330
47
102
}
330
47
100
AcDbScale
 70
     0
300
1:1
140
1.0
141
1.0
290
     1
  0
SCALE
  5
49
102
{ACAD_REACTORS
330
47
102
}
330
47
100
AcDbScale
 70
     0
300
1:2
140
1.0
141
2.0
290
     0
  0
SCALE
  5
4A
102
{ACAD_REACTORS
330
47
102
}
330
47
100
AcDbScale
 70
     0
300
1:4
140
1.0
141
4.0
290
     0
  0
SCALE
  5
4B
102
{ACAD_REACTORS
330
47
102
}
330
47
100
AcDbScale
 70
     0
300
1:5
140
1.0
141
5.0
290
     0
  0
SCALE
  5
4C
102
{ACAD_REACTORS
330
47
102
}
330
47
100
AcDbScale
 70
     0
300
1:8
140
1.0
141
8.0
290
     0
  0
SCALE
  5
4D
102
{ACAD_REACTORS
330
47
102
}
330
47
100
AcDbScale
 70
     0
300
1:10
140
1.0
141
10.0
290
     0
  0
SCALE
  5
4E
102
{ACAD_REACTORS
330
47
102
}
330
47
100
AcDbScale
 70
     0
300
1:16
140
1.0
141
16.0
290
     0
  0
SCALE
  5
4F
102
{ACAD_REACTORS
330
47
102
}
330
47
100
AcDbScale
 70
     0
300
1:20
140
1.0
141
20.0
290
     0
  0
SCALE
  5
50
102
{ACAD_REACTORS
330
47
102
}
330
47
100
AcDbScale
 70
     0
300
1:30
140
1.0
141
30.0
290
     0
  0
SCALE
  5
51
102
{ACAD_REACTORS
330
47
102
}
330
47
100
AcDbScale
 70
     0
300
1:40
140
1.0
141
40.0
290
     0
  0
SCALE
  5
52
102
{ACAD_REACTORS
330
47
102
}
330
47
100
AcDbScale
 70
     0
300
1:50
140
1.0
141
50.0
290
     0
  0
SCALE
  5
53
102
{ACAD_REACTORS
330
47
102
}
330
47
100
AcDbScale
 70
     0
300
1:100
140
1.0
141
100.0
290
     0
  0
SCALE
  5
54
102
{ACAD_REACTORS
330
47
102
}
330
47
100
AcDbScale
 70
     0
300
2:1
140
2.0
141
1.0
290
     0
  0
SCALE
  5
55
102
{ACAD_REACTORS
330
47
102
}
330
47
100
AcDbScale
 70
     0
300
4:1
140
4.0
141
1.0
290
     0
  0
SCALE
  5
56
102
{ACAD_REACTORS
330
47
102
}
330
47
100
AcDbScale
 70
     0
300
8:1
140
8.0
141
1.0
290
     0
  0
SCALE
  5
57
102
{ACAD_REACTORS
330
47
102
}
330
47
100
AcDbScale
 70
     0
300
10:1
140
10.0
141
1.0
290
     0
  0
SCALE
  5
58
102
{ACAD_REACTORS
330
47
102
}
330
47
100
AcDbScale
 70
     0
300
100:1
140
100.0
141
1.0
290
     0
  0
SCALE
  5
59
102
{ACAD_REACTORS
330
47
102
}
330
47
100
AcDbScale
 70
     0
300
1/128" = 1'-0"
140
0.0078125
141
12.0
290
     0
  0
SCALE
  5
5A
102
{ACAD_REACTORS
330
47
102
}
330
47
100
AcDbScale
 70
     0
300
1/64" = 1'-0"
140
0.015625
141
12.0
290
     0
  0
SCALE
  5
5B
102
{ACAD_REACTORS
330
47
102
}
330
47
100
AcDbScale
 70
     0
300
1/32" = 1'-0"
140
0.03125
141
12.0
290
     0
  0
SCALE
  5
5C
102
{ACAD_REACTORS
330
47
102
}
330
47
100
AcDbScale
 70
     0
300
1/16" = 1'-0"
140
0.0625
141
12.0
290
     0
  0
SCALE
  5
5D
102
{ACAD_REACTORS
330
47
102
}
330
47
100
AcDbScale
 70
     0
300
3/32" = 1'-0"
140
0.09375
141
12.0
290
     0
  0
SCALE
  5
5E
102
{ACAD_REACTORS
330
47
102
}
330
47
100
AcDbScale
 70
     0
300
1/8" = 1'-0"
140
0.125
141
12.0
290
     0
  0
SCALE
  5
5F
102
{ACAD_REACTORS
330
47
102
}
330
47
100
AcDbScale
 70
     0
300
3/16" = 1'-0"
140
0.1875
141
12.0
290
     0
  0
SCALE
  5
60
102
{ACAD_REACTORS
330
47
102
}
330
47
100
AcDbScale
 70
     0
300
1/4" = 1'-0"
140
0.25
141
12.0
290
     0
  0
SCALE
  5
61
102
{ACAD_REACTORS
330
47
102
}
330
47
100
AcDbScale
 70
     0
300
3/8" = 1'-0"
140
0.375
141
12.0
290
     0
  0
SCALE
  5
62
102
{ACAD_REACTORS
330
47
102
}
330
47
100
AcDbScale
 70
     0
300
1/2" = 1'-0"
140
0.5
141
12.0
290
     0
  0
SCALE
  5
63
102
{ACAD_REACTORS
330
47
102
}
330
47
100
AcDbScale
 70
     0
300
3/4" = 1'-0"
140
0.75
141
12.0
290
     0
  0
SCALE
  5
64
102
{ACAD_REACTORS
330
47
102
}
330
47
100
AcDbScale
 70
     0
300
1" = 1'-0"
140
1.0
141
12.0
290
     0
  0
SCALE
  5
65
102
{ACAD_REACTORS
330
47
102
}
330
47
100
AcDbScale
 70
     0
300
1-1/2" = 1'-0"
140
1.5
141
12.0
290
     0
  0
SCALE
  5
66
102
{ACAD_REACTORS
330
47
102
}
330
47
100
AcDbScale
 70
     0
300
3" = 1'-0"
140
3.0
141
12.0
290
     0
  0
SCALE
  5
67
102
{ACAD_REACTORS
330
47
102
}
330
47
100
AcDbScale
 70
     0
300
6" = 1'-0"
140
6.0
141
12.0
290
     0
  0
SCALE
  5
68
102
{ACAD_REACTORS
330
47
102
}
330
47
100
AcDbScale
 70
     0
300
1'-0" = 1'-0"
140
12.0
141
12.0
290
     0
  0
ENDSEC
  0
EOF
