  0
SECTION
  2
HEADER
  9
$ACADVER
  1
AC1015
  9
$ACADMAINTVER
 70
     6
  9
$DWGCODEPAGE
  3
ANSI_1252
  9
$INSBASE
 10
0.0
 20
0.0
 30
0.0
  9
$EXTMIN
 10
0.0
 20
0.0
 30
0.0
  9
$EXTMAX
 10
1189.0
 20
841.0
 30
0.0
  9
$LIMMIN
 10
0.0
 20
0.0
  9
$LIMMAX
 10
1189.0
 20
841.0
  9
$ORTHOMODE
 70
     0
  9
$REGENMODE
 70
     1
  9
$FILLMODE
 70
     1
  9
$QTEXTMODE
 70
     0
  9
$MIRRTEXT
 70
     1
  9
$LTSCALE
 40
1.0
  9
$ATTMODE
 70
     1
  9
$TEXTSIZE
 40
3.5
  9
$TRACEWID
 40
1.0
  9
$TEXTSTYLE
  7
Standard
  9
$CLAYER
  8
0
  9
$CELTYPE
  6
ByLayer
  9
$CECOLOR
 62
   256
  9
$CELTSCALE
 40
1.0
  9
$DISPSILH
 70
     0
  9
$DIMSCALE
 40
1.0
  9
$DIMASZ
 40
3.302
  9
$DIMEXO
 40
1.0
  9
$DIMDLI
 40
3.75
  9
$DIMRND
 40
0.0
  9
$DIMDLE
 40
0.0
  9
$DIMEXE
 40
1.0
  9
$DIMTP
 40
0.0
  9
$DIMTM
 40
0.0
  9
$DIMTXT
 40
3.5
  9
$DIMCEN
 40
2.5
  9
$DIMTSZ
 40
0.0
  9
$DIMTOL
 70
     0
  9
$DIMLIM
 70
     0
  9
$DIMTIH
 70
     1
  9
$DIMTOH
 70
     1
  9
$DIMSE1
 70
     0
  9
$DIMSE2
 70
     0
  9
$DIMTAD
 70
     1
  9
$DIMZIN
 70
     0
  9
$DIMBLK
  1

  9
$DIMASO
 70
     1
  9
$DIMSHO
 70
     1
  9
$DIMPOST
  1

  9
$DIMAPOST
  1

  9
$DIMALT
 70
     0
  9
$DIMALTD
 70
     3
  9
$DIMALTF
 40
0.0393700787
  9
$DIMLFAC
 40
5.0
  9
$DIMTOFL
 70
     1
  9
$DIMTVP
 40
0.0
  9
$DIMTIX
 70
     0
  9
$DIMSOXD
 70
     0
  9
$DIMSAH
 70
     0
  9
$DIMBLK1
  1

  9
$DIMBLK2
  1

  9
$DIMSTYLE
  2
ISO-25
  9
$DIMCLRD
 70
     0
  9
$DIMCLRE
 70
     0
  9
$DIMCLRT
 70
     0
  9
$DIMTFAC
 40
1.0
  9
$DIMGAP
 40
1.524
  9
$DIMJUST
 70
     0
  9
$DIMSD1
 70
     0
  9
$DIMSD2
 70
     0
  9
$DIMTOLJ
 70
     0
  9
$DIMTZIN
 70
     0
  9
$DIMALTZ
 70
     0
  9
$DIMALTTZ
 70
     0
  9
$DIMUPT
 70
     0
  9
$DIMDEC
 70
     2
  9
$DIMTDEC
 70
     2
  9
$DIMALTU
 70
     2
  9
$DIMALTTD
 70
     3
  9
$DIMTXSTY
  7
Standard
  9
$DIMAUNIT
 70
     0
  9
$DIMADEC
 70
     2
  9
$DIMALTRND
 40
0.0
  9
$DIMAZIN
 70
     0
  9
$DIMDSEP
 70
    44
  9
$DIMATFIT
 70
     3
  9
$DIMFRAC
 70
     0
  9
$DIMLDRBLK
  1

  9
$DIMLUNIT
 70
     2
  9
$DIMLWD
 70
    -2
  9
$DIMLWE
 70
    -2
  9
$DIMTMOVE
 70
     0
  9
$LUNITS
 70
     2
  9
$LUPREC
 70
     2
  9
$SKETCHINC
 40
1.0
  9
$FILLETRAD
 40
10.0
  9
$AUNITS
 70
     0
  9
$AUPREC
 70
     2
  9
$MENU
  1
.
  9
$ELEVATION
 40
0.0
  9
$PELEVATION
 40
0.0
  9
$THICKNESS
 40
0.0
  9
$LIMCHECK
 70
     0
  9
$CHAMFERA
 40
0.0
  9
$CHAMFERB
 40
0.0
  9
$CHAMFERC
 40
0.0
  9
$CHAMFERD
 40
0.0
  9
$SKPOLY
 70
     0
  9
$TDCREATE
 40
2458057.529917512
  9
$TDUCREATE
 40
2458057.529917512
  9
$TDUPDATE
 40
2458057.52991772
  9
$TDUUPDATE
 40
2458057.52991772
  9
$TDINDWG
 40
0.0000000116
  9
$TDUSRTIMER
 40
0.0000000116
  9
$USRTIMER
 70
     1
  9
$ANGBASE
 50
0.0
  9
$ANGDIR
 70
     0
  9
$PDMODE
 70
     0
  9
$PDSIZE
 40
-1.0
  9
$PLINEWID
 40
0.0
  9
$SPLFRAME
 70
     0
  9
$SPLINETYPE
 70
     6
  9
$SPLINESEGS
 70
     8
  9
$HANDSEED
  5
3BD
  9
$SURFTAB1
 70
     6
  9
$SURFTAB2
 70
     6
  9
$SURFTYPE
 70
     6
  9
$SURFU
 70
     6
  9
$SURFV
 70
     6
  9
$UCSBASE
  2

  9
$UCSNAME
  2

  9
$UCSORG
 10
0.0
 20
0.0
 30
0.0
  9
$UCSXDIR
 10
1.0
 20
0.0
 30
0.0
  9
$UCSYDIR
 10
0.0
 20
1.0
 30
0.0
  9
$UCSORTHOREF
  2

  9
$UCSORTHOVIEW
 70
     0
  9
$UCSORGTOP
 10
0.0
 20
0.0
 30
0.0
  9
$UCSORGBOTTOM
 10
0.0
 20
0.0
 30
0.0
  9
$UCSORGLEFT
 10
0.0
 20
0.0
 30
0.0
  9
$UCSORGRIGHT
 10
0.0
 20
0.0
 30
0.0
  9
$UCSORGFRONT
 10
0.0
 20
0.0
 30
0.0
  9
$UCSORGBACK
 10
0.0
 20
0.0
 30
0.0
  9
$PUCSBASE
  2

  9
$PUCSNAME
  2

  9
$PUCSORG
 10
0.0
 20
0.0
 30
0.0
  9
$PUCSXDIR
 10
1.0
 20
0.0
 30
0.0
  9
$PUCSYDIR
 10
0.0
 20
1.0
 30
0.0
  9
$PUCSORTHOREF
  2

  9
$PUCSORTHOVIEW
 70
     0
  9
$PUCSORGTOP
 10
0.0
 20
0.0
 30
0.0
  9
$PUCSORGBOTTOM
 10
0.0
 20
0.0
 30
0.0
  9
$PUCSORGLEFT
 10
0.0
 20
0.0
 30
0.0
  9
$PUCSORGRIGHT
 10
0.0
 20
0.0
 30
0.0
  9
$PUCSORGFRONT
 10
0.0
 20
0.0
 30
0.0
  9
$PUCSORGBACK
 10
0.0
 20
0.0
 30
0.0
  9
$USERI1
 70
     0
  9
$USERI2
 70
     0
  9
$USERI3
 70
     0
  9
$USERI4
 70
     0
  9
$USERI5
 70
     0
  9
$USERR1
 40
0.0
  9
$USERR2
 40
0.0
  9
$USERR3
 40
0.0
  9
$USERR4
 40
0.0
  9
$USERR5
 40
0.0
  9
$WORLDVIEW
 70
     1
  9
$SHADEDGE
 70
     3
  9
$SHADEDIF
 70
    70
  9
$TILEMODE
 70
     1
  9
$MAXACTVP
 70
    64
  9
$PINSBASE
 10
0.0
 20
0.0
 30
0.0
  9
$PLIMCHECK
 70
     0
  9
$PEXTMIN
 10
1.0000000000E+20
 20
1.0000000000E+20
 30
1.0000000000E+20
  9
$PEXTMAX
 10
-1.0000000000E+20
 20
-1.0000000000E+20
 30
-1.0000000000E+20
  9
$PLIMMIN
 10
0.0
 20
0.0
  9
$PLIMMAX
 10
420.0
 20
297.0
  9
$UNITMODE
 70
     0
  9
$VISRETAIN
 70
     1
  9
$PLINEGEN
 70
     0
  9
$PSLTSCALE
 70
     1
  9
$TREEDEPTH
 70
  3020
  9
$CMLSTYLE
  2
Standard
  9
$CMLJUST
 70
     0
  9
$CMLSCALE
 40
20.0
  9
$PROXYGRAPHICS
 70
     1
  9
$MEASUREMENT
 70
     1
  9
$CELWEIGHT
370
    -1
  9
$ENDCAPS
280
     0
  9
$JOINSTYLE
280
     0
  9
$LWDISPLAY
290
     1
  9
$INSUNITS
 70
     4
  9
$HYPERLINKBASE
  1

  9
$STYLESHEET
  1

  9
$XEDIT
290
     1
  9
$CEPSNTYPE
380
     0
  9
$PSTYLEMODE
290
     1
  9
$FINGERPRINTGUID
  2
{CC10B607-4FC9-4735-93DE-99C7442B9B2D}
  9
$VERSIONGUID
  2
{FAEB1C32-E019-11D5-929B-00C0DF256EC4}
  9
$EXTNAMES
290
     1
  9
$PSVPSCALE
 40
0.0
  9
$OLESTARTUP
290
     0
  0
ENDSEC
  0
SECTION
  2
CLASSES
  0
CLASS
  1
ACDBDICTIONARYWDFLT
  2
AcDbDictionaryWithDefault
  3
ObjectDBX Classes
 90
        0
280
     0
281
     0
  0
CLASS
  1
VISUALSTYLE
  2
AcDbVisualStyle
  3
ObjectDBX Classes
 90
     4095
280
     0
281
     0
  0
CLASS
  1
MATERIAL
  2
AcDbMaterial
  3
ObjectDBX Classes
 90
     1153
280
     0
281
     0
  0
CLASS
  1
SCALE
  2
AcDbScale
  3
ObjectDBX Classes
 90
     1153
280
     0
281
     0
  0
CLASS
  1
TABLESTYLE
  2
AcDbTableStyle
  3
ObjectDBX Classes
 90
     4095
280
     0
281
     0
  0
CLASS
  1
MLEADERSTYLE
  2
AcDbMLeaderStyle
  3
ACDB_MLEADERSTYLE_CLASS
 90
     4095
280
     0
281
     0
  0
CLASS
  1
SUN
  2
AcDbSun
  3
SCENEOE
 90
     1153
280
     0
281
     0
  0
CLASS
  1
ACDBPLACEHOLDER
  2
AcDbPlaceHolder
  3
ObjectDBX Classes
 90
        0
280
     0
281
     0
  0
CLASS
  1
LAYOUT
  2
AcDbLayout
  3
ObjectDBX Classes
 90
        0
280
     0
281
     0
  0
ENDSEC
  0
SECTION
  2
TABLES
  0
TABLE
  2
VPORT
  5
8
330
0
100
AcDbSymbolTable
 70
     1
  0
VPORT
  5
29
330
8
100
AcDbSymbolTableRecord
100
AcDbViewportTableRecord
  2
*Active
 70
     0
 10
0.0
 20
0.0
 11
1.0
 21
1.0
 12
594.5
 22
420.5
 13
0.0
 23
0.0
 14
10.0
 24
10.0
 15
10.0
 25
10.0
 16
0.0
 26
0.0
 36
1.0
 17
0.0
 27
0.0
 37
0.0
 40
841.0
 41
1.4137931034
 42
50.0
 43
0.0
 44
0.0
 50
0.0
 51
0.0
 71
     0
 72
  2000
 73
     1
 74
     3
 75
     0
 76
     0
 77
     0
 78
     0
281
     0
 65
     1
110
0.0
120
0.0
130
0.0
111
1.0
121
0.0
131
0.0
112
0.0
122
1.0
132
0.0
 79
     0
146
0.0
  0
ENDTAB
  0
TABLE
  2
LTYPE
  5
5
330
0
100
AcDbSymbolTable
 70
     6
  0
LTYPE
  5
14
330
5
100
AcDbSymbolTableRecord
100
AcDbLinetypeTableRecord
  2
ByBlock
 70
     0
  3

 72
    65
 73
     0
 40
0.0
  0
LTYPE
  5
15
330
5
100
AcDbSymbolTableRecord
100
AcDbLinetypeTableRecord
  2
ByLayer
 70
     0
  3

 72
    65
 73
     0
 40
0.0
  0
LTYPE
  5
16
330
5
100
AcDbSymbolTableRecord
100
AcDbLinetypeTableRecord
  2
Continuous
 70
     0
  3
Solid line
 72
    65
 73
     0
 40
0.0
  0
LTYPE
  5
6E
330
5
100
AcDbSymbolTableRecord
100
AcDbLinetypeTableRecord
  2
HIDDEN
 70
     0
  3
Hidden __ __ __ __ __ __ __ __ __ __ __ __ __ __
 72
    65
 73
     2
 40
1.905
 49
1.27
 74
     0
 49
-0.635
 74
     0
  0
LTYPE
  5
6F
330
5
100
AcDbSymbolTableRecord
100
AcDbLinetypeTableRecord
  2
PHANTOM
 70
     0
  3
Phantom ______  __  __  ______  __  __  ______
 72
    65
 73
     6
 40
12.7
 49
6.35
 74
     0
 49
-1.27
 74
     0
 49
1.27
 74
     0
 49
-1.27
 74
     0
 49
1.27
 74
     0
 49
-1.27
 74
     0
  0
LTYPE
  5
70
330
5
100
AcDbSymbolTableRecord
100
AcDbLinetypeTableRecord
  2
CENTER
 70
     0
  3
Center ____ _ ____ _ ____ _ ____ _ ____ _ ____
 72
    65
 73
     4
 40
10.16
 49
6.35
 74
     0
 49
-1.27
 74
     0
 49
1.27
 74
     0
 49
-1.27
 74
     0
  0
LTYPE
  5
71
330
5
100
AcDbSymbolTableRecord
100
AcDbLinetypeTableRecord
  2
CENTERX2
 70
     0
  3
Center (2x) ________  __  ________  __  _____
 72
    65
 73
     4
 40
20.32
 49
12.7
 74
     0
 49
-2.54
 74
     0
 49
2.54
 74
     0
 49
-2.54
 74
     0
  0
LTYPE
  5
72
330
5
100
AcDbSymbolTableRecord
100
AcDbLinetypeTableRecord
  2
DOT2
 70
     0
  3
Dot (.5x) ........................................
 72
    65
 73
     2
 40
0.635
 49
0.0
 74
     0
 49
-0.635
 74
     0
  0
ENDTAB
  0
TABLE
  2
LAYER
  5
2
330
0
100
AcDbSymbolTable
 70
     2
  0
LAYER
  5
10
330
2
100
AcDbSymbolTableRecord
100
AcDbLayerTableRecord
  2
0
 70
     0
 62
     7
  6
Continuous
370
    -3
390
F
  0
LAYER
  5
73
330
2
100
AcDbSymbolTableRecord
100
AcDbLayerTableRecord
  2
FORMAT
 70
     0
 62
     7
  6
Continuous
370
    -3
390
F
  0
ENDTAB
  0
TABLE
  2
STYLE
  5
3
330
0
100
AcDbSymbolTable
 70
     1
  0
STYLE
  5
11
330
3
100
AcDbSymbolTableRecord
100
AcDbTextStyleTableRecord
  2
Standard
 70
     0
 40
0.0
 41
1.0
 50
0.0
 71
     0
 42
3.5
  3
txt
  4

  0
ENDTAB
  0
TABLE
  2
VIEW
  5
6
330
0
100
AcDbSymbolTable
 70
     0
  0
ENDTAB
  0
TABLE
  2
UCS
  5
7
330
0
100
AcDbSymbolTable
 70
     0
  0
ENDTAB
  0
TABLE
  2
APPID
  5
9
330
0
100
AcDbSymbolTable
 70
     1
  0
APPID
  5
12
330
9
100
AcDbSymbolTableRecord
100
AcDbRegAppTableRecord
  2
ACAD
 70
     0
  0
ENDTAB
  0
TABLE
  2
DIMSTYLE
  5
A
330
0
100
AcDbSymbolTable
 70
     1
100
AcDbDimStyleTable
  0
DIMSTYLE
105
27
330
A
100
AcDbSymbolTableRecord
100
AcDbDimStyleTableRecord
  2
ISO-25
 70
     0
 41
2.5
 42
0.625
 43
3.75
 44
1.25
 73
     0
 74
     0
 77
     1
 78
     8
140
2.5
141
2.5
143
0.0393700787
147
0.625
171
     3
172
     1
178
     0
271
     2
272
     2
274
     3
278
    44
283
     0
284
     8
340
11
  0
ENDTAB
  0
TABLE
  2
BLOCK_RECORD
  5
1
330
0
100
AcDbSymbolTable
 70
     1
  0
BLOCK_RECORD
  5
1F
330
1
100
AcDbSymbolTableRecord
100
AcDbBlockTableRecord
  2
*Model_Space
340
22
  0
BLOCK_RECORD
  5
1B
330
1
100
AcDbSymbolTableRecord
100
AcDbBlockTableRecord
  2
*Paper_Space
340
1E
  0
BLOCK_RECORD
  5
23
330
1
100
AcDbSymbolTableRecord
100
AcDbBlockTableRecord
  2
*Paper_Space0
340
26
  0
ENDTAB
  0
ENDSEC
  0
SECTION
  2
BLOCKS
  0
BLOCK
  5
20
330
1F
100
AcDbEntity
  8
0
100
AcDbBlockBegin
  2
*Model_Space
 70
     0
 10
0.0
 20
0.0
 30
0.0
  3
*Model_Space
  1

  0
ENDBLK
  5
21
330
1F
100
AcDbEntity
  8
0
100
AcDbBlockEnd
  0
BLOCK
  5
1C
330
1B
100
AcDbEntity
 67
     1
  8
0
100
AcDbBlockBegin
  2
*Paper_Space
 70
     0
 10
0.0
 20
0.0
 30
0.0
  3
*Paper_Space
  1

  0
ENDBLK
  5
1D
330
1B
100
AcDbEntity
 67
     1
  8
0
100
AcDbBlockEnd
  0
BLOCK
  5
24
330
23
100
AcDbEntity
  8
0
100
AcDbBlockBegin
  2
*Paper_Space0
 70
     0
 10
0.0
 20
0.0
 30
0.0
  3
*Paper_Space0
  1

  0
ENDBLK
  5
25
330
23
100
AcDbEntity
  8
0
100
AcDbBlockEnd
  0
ENDSEC
  0
SECTION
  2
ENTITIES
  0
LINE
  5
74
330
1F
100
AcDbEntity
  8
0
  6
Continuous
 62
     7
370
    15
100
AcDbLine
 10
461.9468941829
 20
309.2970693214
 30
0.0
 11
461.9468941829
 21
310.6370692803
 31
0.0
  0
LINE
  5
75
330
1F
100
AcDbEntity
  8
0
  6
Continuous
 62
     7
370
    15
100
AcDbLine
 10
371.946895077
 20
310.6370692803
 30
0.0
 11
371.946895077
 21
309.2970693214
 31
0.0
  0
LINE
  5
76
330
1F
100
AcDbEntity
  8
0
  6
Continuous
 62
     7
370
    15
100
AcDbLine
 10
461.9468941829
 20
307.9570693625
 30
0.0
 11
461.9468941829
 21
309.2970693214
 31
0.0
  0
LINE
  5
77
330
1F
100
AcDbEntity
  8
0
  6
Continuous
 62
     7
370
    15
100
AcDbLine
 10
371.946895077
 20
309.2970693214
 30
0.0
 11
371.946895077
 21
307.9570693625
 31
0.0
  0
LINE
  5
78
330
1F
100
AcDbEntity
  8
0
  6
Continuous
 62
     7
370
    15
100
AcDbLine
 10
408.9468940637
 20
307.9570693625
 30
0.0
 11
408.9468940637
 21
306.6170690311
 31
0.0
  0
LINE
  5
79
330
1F
100
AcDbEntity
  8
0
  6
Continuous
 62
     7
370
    15
100
AcDbLine
 10
424.9468937061
 20
306.6170690311
 30
0.0
 11
424.9468937061
 21
307.9570693625
 31
0.0
  0
LINE
  5
7A
330
1F
100
AcDbEntity
  8
0
  6
Continuous
 62
     7
370
    15
100
AcDbLine
 10
371.946895077
 20
307.9570693625
 30
0.0
 11
371.946895077
 21
306.6170690311
 31
0.0
  0
LINE
  5
7B
330
1F
100
AcDbEntity
  8
0
  6
Continuous
 62
     7
370
    15
100
AcDbLine
 10
387.9468947194
 20
306.6170690311
 30
0.0
 11
387.9468947194
 21
307.9570693625
 31
0.0
  0
LINE
  5
7C
330
1F
100
AcDbEntity
  8
0
  6
Continuous
 62
     7
370
    15
100
AcDbLine
 10
445.9468975208
 20
307.9570693625
 30
0.0
 11
445.9468975208
 21
306.6170690311
 31
0.0
  0
LINE
  5
7D
330
1F
100
AcDbEntity
  8
0
  6
Continuous
 62
     7
370
    15
100
AcDbLine
 10
461.9468941829
 20
306.6170690311
 30
0.0
 11
461.9468941829
 21
307.9570693625
 31
0.0
  0
LINE
  5
7E
330
1F
100
AcDbEntity
  8
0
  6
Continuous
 62
     7
370
    15
100
AcDbLine
 10
427.6970192335
 20
279.0370700611
 30
0.0
 11
417.6168962858
 21
279.0370700611
 31
0.0
  0
LINE
  5
7F
330
1F
100
AcDbEntity
  8
0
  6
Continuous
 62
     7
370
    15
100
AcDbLine
 10
416.2768944643
 20
279.0370700611
 30
0.0
 11
406.1967685364
 21
279.0370700611
 31
0.0
  0
LINE
  5
80
330
1F
100
AcDbEntity
  8
0
  6
Continuous
 62
     7
370
    15
100
AcDbLine
 10
406.1967685364
 20
278.197070743
 30
0.0
 11
416.2768944643
 21
278.197070743
 31
0.0
  0
LINE
  5
81
330
1F
100
AcDbEntity
  8
0
  6
Continuous
 62
     7
370
    15
100
AcDbLine
 10
417.6168962858
 20
278.197070743
 30
0.0
 11
427.6970192335
 21
278.197070743
 31
0.0
  0
LINE
  5
82
330
1F
100
AcDbEntity
  8
0
  6
Continuous
 62
     7
370
    15
100
AcDbLine
 10
464.6970226906
 20
279.0370700611
 30
0.0
 11
454.6168937824
 21
279.0370700611
 31
0.0
  0
LINE
  5
83
330
1F
100
AcDbEntity
  8
0
  6
Continuous
 62
     7
370
    15
100
AcDbLine
 10
453.2768919609
 20
279.0370700611
 30
0.0
 11
443.1967690132
 21
279.0370700611
 31
0.0
  0
LINE
  5
84
330
1F
100
AcDbEntity
  8
0
  6
Continuous
 62
     7
370
    15
100
AcDbLine
 10
443.1967690132
 20
278.197070743
 30
0.0
 11
453.2768919609
 21
278.197070743
 31
0.0
  0
LINE
  5
85
330
1F
100
AcDbEntity
  8
0
  6
Continuous
 62
     7
370
    15
100
AcDbLine
 10
454.6168937824
 20
278.197070743
 30
0.0
 11
464.6970226906
 21
278.197070743
 31
0.0
  0
LINE
  5
86
330
1F
100
AcDbEntity
  8
0
  6
Continuous
 62
     7
370
    15
100
AcDbLine
 10
390.6970202468
 20
279.0370700611
 30
0.0
 11
380.6168948776
 21
279.0370700611
 31
0.0
  0
LINE
  5
87
330
1F
100
AcDbEntity
  8
0
  6
Continuous
 62
     7
370
    15
100
AcDbLine
 10
379.2768949188
 20
279.0370700611
 30
0.0
 11
369.1967695496
 21
279.0370700611
 31
0.0
  0
LINE
  5
88
330
1F
100
AcDbEntity
  8
0
  6
Continuous
 62
     7
370
    15
100
AcDbLine
 10
369.1967695496
 20
278.197070743
 30
0.0
 11
379.2768949188
 21
278.197070743
 31
0.0
  0
LINE
  5
89
330
1F
100
AcDbEntity
  8
0
  6
Continuous
 62
     7
370
    15
100
AcDbLine
 10
380.6168948776
 20
278.197070743
 30
0.0
 11
390.6970202468
 21
278.197070743
 31
0.0
  0
LINE
  5
8A
330
1F
100
AcDbEntity
  8
0
  6
Continuous
 62
     7
370
    15
100
AcDbLine
 10
453.9468958519
 20
310.6370692803
 30
0.0
 11
461.9468941829
 21
310.6370692803
 31
0.0
  0
LINE
  5
8B
330
1F
100
AcDbEntity
  8
0
  6
Continuous
 62
     7
370
    15
100
AcDbLine
 10
453.9468958519
 20
309.2970693214
 30
0.0
 11
461.9468941829
 21
309.2970693214
 31
0.0
  0
LINE
  5
8C
330
1F
100
AcDbEntity
  8
0
  6
Continuous
 62
     7
370
    15
100
AcDbLine
 10
371.946895077
 20
310.6370692803
 30
0.0
 11
379.9468948982
 21
310.6370692803
 31
0.0
  0
LINE
  5
8D
330
1F
100
AcDbEntity
  8
0
  6
Continuous
 62
     7
370
    15
100
AcDbLine
 10
371.946895077
 20
309.2970693214
 30
0.0
 11
379.9468948982
 21
309.2970693214
 31
0.0
  0
LINE
  5
8E
330
1F
100
AcDbEntity
  8
0
  6
Continuous
 62
     7
370
    15
100
AcDbLine
 10
379.9468948982
 20
309.2970693214
 30
0.0
 11
453.9468958519
 21
309.2970693214
 31
0.0
  0
LINE
  5
8F
330
1F
100
AcDbEntity
  8
0
  6
Continuous
 62
     7
370
    15
100
AcDbLine
 10
379.9468948982
 20
310.6370692803
 30
0.0
 11
453.9468958519
 21
310.6370692803
 31
0.0
  0
LINE
  5
90
330
1F
100
AcDbEntity
  8
0
  6
Continuous
 62
     7
370
    15
100
AcDbLine
 10
453.9468958519
 20
307.9570693625
 30
0.0
 11
461.9468941829
 21
307.9570693625
 31
0.0
  0
LINE
  5
91
330
1F
100
AcDbEntity
  8
0
  6
Continuous
 62
     7
370
    15
100
AcDbLine
 10
371.946895077
 20
307.9570693625
 30
0.0
 11
379.9468948982
 21
307.9570693625
 31
0.0
  0
LINE
  5
92
330
1F
100
AcDbEntity
  8
0
  6
Continuous
 62
     7
370
    15
100
AcDbLine
 10
379.9468948982
 20
307.9570693625
 30
0.0
 11
453.9468958519
 21
307.9570693625
 31
0.0
  0
LINE
  5
93
330
1F
100
AcDbEntity
  8
0
  6
Continuous
 62
     7
370
    15
100
AcDbLine
 10
453.2768919609
 20
295.6417454137
 30
0.0
 11
453.2768919609
 21
297.2983119739
 31
0.0
  0
LINE
  5
94
330
1F
100
AcDbEntity
  8
0
  6
Continuous
 62
     7
370
    15
100
AcDbLine
 10
454.6168937824
 20
295.6417454137
 30
0.0
 11
454.6168937824
 21
297.2983119739
 31
0.0
  0
LINE
  5
95
330
1F
100
AcDbEntity
  8
0
  6
Continuous
 62
     7
370
    15
100
AcDbLine
 10
453.2768919609
 20
275.6417451156
 30
0.0
 11
454.6168937824
 21
275.6417451156
 31
0.0
  0
LINE
  5
96
330
1F
100
AcDbEntity
  8
0
  6
Continuous
 62
     7
370
    15
100
AcDbLine
 10
453.2768919609
 20
275.6417451156
 30
0.0
 11
453.2768919609
 21
277.6417461885
 31
0.0
  0
LINE
  5
97
330
1F
100
AcDbEntity
  8
0
  6
Continuous
 62
     7
370
    15
100
AcDbLine
 10
454.6168937824
 20
275.6417451156
 30
0.0
 11
454.6168937824
 21
277.6417461885
 31
0.0
  0
LINE
  5
98
330
1F
100
AcDbEntity
  8
0
  6
Continuous
 62
     7
370
    15
100
AcDbLine
 10
453.2768919609
 20
277.6417461885
 30
0.0
 11
453.2768919609
 21
295.6417454137
 31
0.0
  0
LINE
  5
99
330
1F
100
AcDbEntity
  8
0
  6
Continuous
 62
     7
370
    15
100
AcDbLine
 10
454.6168937824
 20
277.6417461885
 30
0.0
 11
454.6168937824
 21
295.6417454137
 31
0.0
  0
LINE
  5
9A
330
1F
100
AcDbEntity
  8
0
  6
Continuous
 62
     7
370
    15
100
AcDbLine
 10
453.2768919609
 20
297.2983119739
 30
0.0
 11
453.2768919609
 21
300.727574314
 31
0.0
  0
LINE
  5
9B
330
1F
100
AcDbEntity
  8
0
  6
Continuous
 62
     7
370
    15
100
AcDbLine
 10
454.6168937824
 20
297.2983119739
 30
0.0
 11
454.6168937824
 21
300.727574314
 31
0.0
  0
LINE
  5
9C
330
1F
100
AcDbEntity
  8
0
  6
Continuous
 62
     7
370
    15
100
AcDbLine
 10
453.2768919609
 20
300.727574314
 30
0.0
 11
453.2768919609
 21
302.3841408743
 31
0.0
  0
LINE
  5
9D
330
1F
100
AcDbEntity
  8
0
  6
Continuous
 62
     7
370
    15
100
AcDbLine
 10
454.6168937824
 20
300.727574314
 30
0.0
 11
454.6168937824
 21
302.3841408743
 31
0.0
  0
LINE
  5
9E
330
1F
100
AcDbEntity
  8
0
  6
Continuous
 62
     7
370
    15
100
AcDbLine
 10
453.2768919609
 20
302.3841408743
 30
0.0
 11
453.2768919609
 21
307.9570693625
 31
0.0
  0
LINE
  5
9F
330
1F
100
AcDbEntity
  8
0
  6
Continuous
 62
     7
370
    15
100
AcDbLine
 10
454.6168937824
 20
302.3841408743
 30
0.0
 11
454.6168937824
 21
307.9570693625
 31
0.0
  0
LINE
  5
A0
330
1F
100
AcDbEntity
  8
0
  6
Continuous
 62
     7
370
    15
100
AcDbLine
 10
386.5157581411
 20
302.3841408743
 30
0.0
 11
386.5157581411
 21
307.9570693625
 31
0.0
  0
ARC
  5
A1
330
1F
100
AcDbEntity
  8
0
  6
Continuous
 62
     7
370
    15
100
AcDbCircle
 10
388.6130610234
 20
302.3449859199
 30
0.0
 40
2.09766834618879
100
AcDbArc
 50
178.9304582255
 51
230.4484617066
  0
LINE
  5
A2
330
1F
100
AcDbEntity
  8
0
  6
Continuous
 62
     7
370
    15
100
AcDbLine
 10
391.6675045631
 20
297.2983119739
 30
0.0
 11
387.2773244522
 21
300.727574314
 31
0.0
  0
ARC
  5
A3
330
1F
100
AcDbEntity
  8
0
  6
Continuous
 62
     7
370
    15
100
AcDbCircle
 10
390.3317686706
 20
295.68090068
 30
0.0
 40
2.097667673417751
100
AcDbArc
 50
358.9304493584
 51
50.4484705737
  0
LINE
  5
A4
330
1F
100
AcDbEntity
  8
0
  6
Continuous
 62
     7
370
    15
100
AcDbLine
 10
392.4290708742
 20
277.6417461885
 30
0.0
 11
392.4290708742
 21
295.6417454137
 31
0.0
  0
LWPOLYLINE
  5
A5
330
1F
100
AcDbEntity
  8
0
  6
Continuous
 62
     7
370
    15
100
AcDbPolyline
 90
        9
 70
   128
 43
0.0
 10
390.6970202468
 20
275.6417451156
 10
391.0349264286
 20
275.6801752104
 10
391.3598469935
 20
275.7939872993
 10
391.6592962585
 20
275.9788064016
 10
391.9217645667
 20
276.227533604
 10
392.1371675573
 20
276.5306053413
 10
392.2972261451
 20
276.8763778461
 10
392.3957898758
 20
277.2515652431
 10
392.4290708742
 20
277.6417461885
  0
LINE
  5
A6
330
1F
100
AcDbEntity
  8
0
  6
Continuous
 62
     7
370
    15
100
AcDbLine
 10
389.6577894233
 20
275.6417451156
 30
0.0
 11
390.6970202468
 21
275.6417451156
 31
0.0
  0
LWPOLYLINE
  5
A7
330
1F
100
AcDbEntity
  8
0
  6
Continuous
 62
     7
370
    15
100
AcDbPolyline
 90
        9
 70
   128
 43
0.0
 10
387.9257387958
 20
277.6417461885
 10
387.9590197942
 20
277.2515652431
 10
388.057583525
 20
276.8763778461
 10
388.2176421128
 20
276.5306053413
 10
388.4330443583
 20
276.227533604
 10
388.6955134115
 20
275.9788064016
 10
388.9949626765
 20
275.7939872993
 10
389.3198832414
 20
275.6801752104
 10
389.6577894233
 20
275.6417451156
  0
LINE
  5
A8
330
1F
100
AcDbEntity
  8
0
  6
Continuous
 62
     7
370
    15
100
AcDbLine
 10
387.9257387958
 20
278.197070743
 30
0.0
 11
387.9257387958
 21
277.6417461885
 31
0.0
  0
LINE
  5
A9
330
1F
100
AcDbEntity
  8
0
  6
Continuous
 62
     7
370
    15
100
AcDbLine
 10
389.6577894233
 20
278.1417457117
 30
0.0
 11
389.6577894233
 21
278.197070743
 31
0.0
  0
ARC
  5
AA
330
1F
100
AcDbEntity
  8
0
  6
Continuous
 62
     7
370
    15
100
AcDbCircle
 10
390.1268859824
 20
278.110495706
 30
0.0
 40
0.4701363043701998
100
AcDbArc
 50
176.1887339275
 51
265.5981279489
  0
LINE
  5
AB
330
1F
100
AcDbEntity
  8
0
  6
Continuous
 62
     7
370
    15
100
AcDbLine
 10
390.2640074036
 20
277.6417461885
 30
0.0
 11
390.0908022664
 21
277.6417461885
 31
0.0
  0
ARC
  5
AC
330
1F
100
AcDbEntity
  8
0
  6
Continuous
 62
     7
370
    15
100
AcDbCircle
 10
390.2279236876
 20
278.110495706
 30
0.0
 40
0.470136304370196
100
AcDbArc
 50
274.4018720511
 51
3.8112660725
  0
LINE
  5
AD
330
1F
100
AcDbEntity
  8
0
  6
Continuous
 62
     7
370
    15
100
AcDbLine
 10
390.6970202468
 20
294.5800540699
 30
0.0
 11
390.6970202468
 21
278.1417457117
 31
0.0
  0
ARC
  5
AE
330
1F
100
AcDbEntity
  8
0
  6
Continuous
 62
     7
370
    15
100
AcDbCircle
 10
388.5997209582
 20
294.6192100756
 30
0.0
 40
2.097664772687522
100
AcDbArc
 50
358.9304276808
 51
50.4485347979
  0
LINE
  5
AF
330
1F
100
AcDbEntity
  8
0
  6
Continuous
 62
     7
370
    15
100
AcDbLine
 10
385.5452738247
 20
299.6658829702
 30
0.0
 11
389.9354531906
 21
296.2366206302
 31
0.0
  0
ARC
  5
B0
330
1F
100
AcDbEntity
  8
0
  6
Continuous
 62
     7
370
    15
100
AcDbCircle
 10
386.8810149001
 20
301.2832971185
 30
0.0
 40
2.097673174570577
100
AcDbArc
 50
178.9305301406
 51
230.4484110648
  0
LINE
  5
B1
330
1F
100
AcDbEntity
  8
0
  6
Continuous
 62
     7
370
    15
100
AcDbLine
 10
384.7837071411
 20
306.6170690311
 30
0.0
 11
384.7837071411
 21
301.3224495305
 31
0.0
  0
ARC
  5
B2
330
1F
100
AcDbEntity
  8
0
  6
Continuous
 62
     7
370
    15
100
AcDbCircle
 10
391.0017614028
 20
295.6808972626
 30
0.0
 40
2.0976750418831
100
AcDbArc
 50
358.9305464745
 51
50.4483734575
  0
LINE
  5
B3
330
1F
100
AcDbEntity
  8
0
  6
Continuous
 62
     7
370
    15
100
AcDbLine
 10
393.0990710399
 20
277.6417461885
 30
0.0
 11
393.0990710399
 21
295.6417454137
 31
0.0
  0
LINE
  5
B4
330
1F
100
AcDbEntity
  8
0
  6
Continuous
 62
     7
370
    15
100
AcDbLine
 10
390.6970202468
 20
275.6417451156
 30
0.0
 11
391.3670204125
 21
275.6417451156
 31
0.0
  0
LWPOLYLINE
  5
B5
330
1F
100
AcDbEntity
  8
0
  6
Continuous
 62
     7
370
    15
100
AcDbPolyline
 90
        9
 70
   128
 43
0.0
 10
391.3670204125
 20
275.6417451156
 10
391.7049265943
 20
275.6801752104
 10
392.0298471592
 20
275.7939872993
 10
392.3292956791
 20
275.9788064016
 10
392.5917654774
 20
276.227533604
 10
392.807167723
 20
276.5306053413
 10
392.9672270558
 20
276.8763778461
 10
393.0657892964
 20
277.2515652431
 10
393.0990710399
 20
277.6417461885
  0
LINE
  5
B6
330
1F
100
AcDbEntity
  8
0
  6
Continuous
 62
     7
370
    15
100
AcDbLine
 10
392.3375047288
 20
297.2983119739
 30
0.0
 11
387.9473246179
 21
300.727574314
 31
0.0
  0
ARC
  5
B7
330
1F
100
AcDbEntity
  8
0
  6
Continuous
 62
     7
370
    15
100
AcDbCircle
 10
390.8543563133
 20
278.1327244955
 30
0.0
 40
0.5266439950356938
100
AcDbArc
 50
179.0184965605
 51
229.5108937235
  0
LINE
  5
B8
330
1F
100
AcDbEntity
  8
0
  6
Continuous
 62
     7
370
    15
100
AcDbLine
 10
390.327789589
 20
278.1417457117
 30
0.0
 11
390.327789589
 21
278.197070743
 31
0.0
  0
ARC
  5
B9
330
1F
100
AcDbEntity
  8
0
  6
Continuous
 62
     7
370
    15
100
AcDbCircle
 10
389.2830581424
 20
302.3449845193
 30
0.0
 40
2.097665326214994
100
AcDbArc
 50
178.9304184221
 51
230.4485015099
  0
LINE
  5
BA
330
1F
100
AcDbEntity
  8
0
  6
Continuous
 62
     7
370
    15
100
AcDbLine
 10
387.1857583068
 20
302.3841408743
 30
0.0
 11
387.1857583068
 21
307.9570693625
 31
0.0
  0
LINE
  5
BB
330
1F
100
AcDbEntity
  8
0
  6
Continuous
 62
     7
370
    15
100
AcDbLine
 10
423.515759363
 20
302.3841408743
 30
0.0
 11
423.515759363
 21
307.9570693625
 31
0.0
  0
ARC
  5
BC
330
1F
100
AcDbEntity
  8
0
  6
Continuous
 62
     7
370
    15
100
AcDbCircle
 10
425.6130536087
 20
302.3449813487
 30
0.0
 40
2.097659796444992
100
AcDbArc
 50
178.9303289851
 51
230.4485484003
  0
LINE
  5
BD
330
1F
100
AcDbEntity
  8
0
  6
Continuous
 62
     7
370
    15
100
AcDbLine
 10
428.66750504
 20
297.2983119739
 30
0.0
 11
424.277324929
 21
300.727574314
 31
0.0
  0
ARC
  5
BE
330
1F
100
AcDbEntity
  8
0
  6
Continuous
 62
     7
370
    15
100
AcDbCircle
 10
427.3317688027
 20
295.6809014648
 30
0.0
 40
2.097667287836996
100
AcDbArc
 50
358.9304277222
 51
50.4484496632
  0
LINE
  5
BF
330
1F
100
AcDbEntity
  8
0
  6
Continuous
 62
     7
370
    15
100
AcDbLine
 10
429.429070606
 20
277.6417461885
 30
0.0
 11
429.429070606
 21
295.6417454137
 31
0.0
  0
LWPOLYLINE
  5
C0
330
1F
100
AcDbEntity
  8
0
  6
Continuous
 62
     7
370
    15
100
AcDbPolyline
 90
        9
 70
   128
 43
0.0
 10
427.6970192335
 20
275.6417451156
 10
428.0349269054
 20
275.6801752104
 10
428.3598467252
 20
275.7939872993
 10
428.6592945001
 20
275.9788064016
 10
428.9217635534
 20
276.227533604
 10
429.1371687792
 20
276.5306053413
 10
429.2972251318
 20
276.8763778461
 10
429.3957903526
 20
277.2515652431
 10
429.429070606
 20
277.6417461885
  0
LINE
  5
C1
330
1F
100
AcDbEntity
  8
0
  6
Continuous
 62
     7
370
    15
100
AcDbLine
 10
426.65778841
 20
275.6417451156
 30
0.0
 11
427.6970192335
 21
275.6417451156
 31
0.0
  0
LWPOLYLINE
  5
C2
330
1F
100
AcDbEntity
  8
0
  6
Continuous
 62
     7
370
    15
100
AcDbPolyline
 90
        9
 70
   128
 43
0.0
 10
424.9257400177
 20
277.6417461885
 10
424.9590202711
 20
277.2515652431
 10
425.0575825117
 20
276.8763778461
 10
425.2176418445
 20
276.5306053413
 10
425.4330440901
 20
276.227533604
 10
425.6955131433
 20
275.9788064016
 10
425.9949638984
 20
275.7939872993
 10
426.3198837183
 20
275.6801752104
 10
426.65778841
 20
275.6417451156
  0
LINE
  5
C3
330
1F
100
AcDbEntity
  8
0
  6
Continuous
 62
     7
370
    15
100
AcDbLine
 10
424.9257400177
 20
278.197070743
 30
0.0
 11
424.9257400177
 21
277.6417461885
 31
0.0
  0
LINE
  5
C4
330
1F
100
AcDbEntity
  8
0
  6
Continuous
 62
     7
370
    15
100
AcDbLine
 10
426.65778841
 20
278.1417457117
 30
0.0
 11
426.65778841
 21
278.197070743
 31
0.0
  0
ARC
  5
C5
330
1F
100
AcDbEntity
  8
0
  6
Continuous
 62
     7
370
    15
100
AcDbCircle
 10
427.1268849691
 20
278.110495706
 30
0.0
 40
0.4701363043701431
100
AcDbArc
 50
176.1887339275
 51
265.5981279489
  0
LINE
  5
C6
330
1F
100
AcDbEntity
  8
0
  6
Continuous
 62
     7
370
    15
100
AcDbLine
 10
427.2640063904
 20
277.6417461885
 30
0.0
 11
427.0908012531
 21
277.6417461885
 31
0.0
  0
ARC
  5
C7
330
1F
100
AcDbEntity
  8
0
  6
Continuous
 62
     7
370
    15
100
AcDbCircle
 10
427.2279226743
 20
278.110495706
 30
0.0
 40
0.4701363043701469
100
AcDbArc
 50
274.4018720511
 51
3.8112660726
  0
LINE
  5
C8
330
1F
100
AcDbEntity
  8
0
  6
Continuous
 62
     7
370
    15
100
AcDbLine
 10
427.6970192335
 20
294.5800540699
 30
0.0
 11
427.6970192335
 21
278.1417457117
 31
0.0
  0
ARC
  5
C9
330
1F
100
AcDbEntity
  8
0
  6
Continuous
 62
     7
370
    15
100
AcDbCircle
 10
425.5997174302
 20
294.619210121
 30
0.0
 40
2.097667287837167
100
AcDbArc
 50
358.9304277222
 51
50.4484496632
  0
LINE
  5
CA
330
1F
100
AcDbEntity
  8
0
  6
Continuous
 62
     7
370
    15
100
AcDbLine
 10
422.5452735565
 20
299.6658829702
 30
0.0
 11
426.9354536674
 21
296.2366206302
 31
0.0
  0
ARC
  5
CB
330
1F
100
AcDbEntity
  8
0
  6
Continuous
 62
     7
370
    15
100
AcDbCircle
 10
423.8810168067
 20
301.2832967034
 30
0.0
 40
2.097674239362439
100
AcDbArc
 50
178.9305193432
 51
230.4483580423
  0
LINE
  5
CC
330
1F
100
AcDbEntity
  8
0
  6
Continuous
 62
     7
370
    15
100
AcDbLine
 10
421.7837079904
 20
306.6170690311
 30
0.0
 11
421.7837079904
 21
301.3224495305
 31
0.0
  0
ARC
  5
CD
330
1F
100
AcDbEntity
  8
0
  6
Continuous
 62
     7
370
    15
100
AcDbCircle
 10
428.0017720625
 20
295.6809001417
 30
0.0
 40
2.097664914548941
100
AcDbArc
 50
358.9304626587
 51
50.4485849131
  0
LINE
  5
CE
330
1F
100
AcDbEntity
  8
0
  6
Continuous
 62
     7
370
    15
100
AcDbLine
 10
430.0990715168
 20
277.6417461885
 30
0.0
 11
430.0990715168
 21
295.6417454137
 31
0.0
  0
LINE
  5
CF
330
1F
100
AcDbEntity
  8
0
  6
Continuous
 62
     7
370
    15
100
AcDbLine
 10
427.6970192335
 20
275.6417451156
 30
0.0
 11
428.3670201442
 21
275.6417451156
 31
0.0
  0
LWPOLYLINE
  5
D0
330
1F
100
AcDbEntity
  8
0
  6
Continuous
 62
     7
370
    15
100
AcDbPolyline
 90
        9
 70
   128
 43
0.0
 10
428.3670201442
 20
275.6417451156
 10
428.7049278162
 20
275.6801752104
 10
429.029847636
 20
275.7939872993
 10
429.3292954109
 20
275.9788064016
 10
429.5917644642
 20
276.227533604
 10
429.8071667097
 20
276.5306053413
 10
429.9672260425
 20
276.8763778461
 10
430.0657882831
 20
277.2515652431
 10
430.0990715168
 20
277.6417461885
  0
LINE
  5
D1
330
1F
100
AcDbEntity
  8
0
  6
Continuous
 62
     7
370
    15
100
AcDbLine
 10
429.3375029705
 20
297.2983119739
 30
0.0
 11
424.9473258398
 21
300.727574314
 31
0.0
  0
ARC
  5
D2
330
1F
100
AcDbEntity
  8
0
  6
Continuous
 62
     7
370
    15
100
AcDbCircle
 10
427.8543527864
 20
278.1327242708
 30
0.0
 40
0.5266407407091214
100
AcDbArc
 50
179.0184660374
 51
229.5112707668
  0
LINE
  5
D3
330
1F
100
AcDbEntity
  8
0
  6
Continuous
 62
     7
370
    15
100
AcDbLine
 10
427.3277893207
 20
278.1417457117
 30
0.0
 11
427.3277893207
 21
278.197070743
 31
0.0
  0
ARC
  5
D4
330
1F
100
AcDbEntity
  8
0
  6
Continuous
 62
     7
370
    15
100
AcDbCircle
 10
426.2830574265
 20
302.3449864583
 30
0.0
 40
2.097665587308239
100
AcDbArc
 50
178.9304715258
 51
230.4485760461
  0
LINE
  5
D5
330
1F
100
AcDbEntity
  8
0
  6
Continuous
 62
     7
370
    15
100
AcDbLine
 10
424.1857572935
 20
302.3841408743
 30
0.0
 11
424.1857572935
 21
307.9570693625
 31
0.0
  0
LINE
  5
D6
330
1F
100
AcDbEntity
  8
0
  6
Continuous
 62
     7
370
    15
100
AcDbLine
 10
375.1100826553
 20
306.6170690311
 30
0.0
 11
375.1100826553
 21
301.3224495305
 31
0.0
  0
ARC
  5
D7
330
1F
100
AcDbEntity
  8
0
  6
Continuous
 62
     7
370
    15
100
AcDbCircle
 10
373.0127748963
 20
301.2832971185
 30
0.0
 40
2.097673174570577
100
AcDbArc
 50
309.5515889352
 51
1.0694698594
  0
LINE
  5
D8
330
1F
100
AcDbEntity
  8
0
  6
Continuous
 62
     7
370
    15
100
AcDbLine
 10
374.3485159717
 20
299.6658829702
 30
0.0
 11
369.9583366058
 21
296.2366206302
 31
0.0
  0
ARC
  5
D9
330
1F
100
AcDbEntity
  8
0
  6
Continuous
 62
     7
370
    15
100
AcDbCircle
 10
371.2940688382
 20
294.6192100756
 30
0.0
 40
2.097664772687579
100
AcDbArc
 50
129.5514652021
 51
181.0695723192
  0
LINE
  5
DA
330
1F
100
AcDbEntity
  8
0
  6
Continuous
 62
     7
370
    15
100
AcDbLine
 10
369.1967695496
 20
294.5800540699
 30
0.0
 11
369.1967695496
 21
278.1417457117
 31
0.0
  0
ARC
  5
DB
330
1F
100
AcDbEntity
  8
0
  6
Continuous
 62
     7
370
    15
100
AcDbCircle
 10
369.6658661088
 20
278.110495706
 30
0.0
 40
0.470136304370196
100
AcDbArc
 50
176.1887339275
 51
265.5981279489
  0
LINE
  5
DC
330
1F
100
AcDbEntity
  8
0
  6
Continuous
 62
     7
370
    15
100
AcDbLine
 10
369.6297823928
 20
277.6417461885
 30
0.0
 11
369.80298753
 21
277.6417461885
 31
0.0
  0
ARC
  5
DD
330
1F
100
AcDbEntity
  8
0
  6
Continuous
 62
     7
370
    15
100
AcDbCircle
 10
369.766903814
 20
278.110495706
 30
0.0
 40
0.4701363043703133
100
AcDbArc
 50
274.4018720511
 51
3.8112660725
  0
LINE
  5
DE
330
1F
100
AcDbEntity
  8
0
  6
Continuous
 62
     7
370
    15
100
AcDbLine
 10
370.2360003731
 20
278.1417457117
 30
0.0
 11
370.2360003731
 21
278.197070743
 31
0.0
  0
LINE
  5
DF
330
1F
100
AcDbEntity
  8
0
  6
Continuous
 62
     7
370
    15
100
AcDbLine
 10
371.9680510006
 20
278.197070743
 30
0.0
 11
371.9680510006
 21
277.6417461885
 31
0.0
  0
LWPOLYLINE
  5
E0
330
1F
100
AcDbEntity
  8
0
  6
Continuous
 62
     7
370
    15
100
AcDbPolyline
 90
        9
 70
   128
 43
0.0
 10
371.9680510006
 20
277.6417461885
 10
371.9347700021
 20
277.2515652431
 10
371.8362062714
 20
276.8763778461
 10
371.6761476836
 20
276.5306053413
 10
371.4607454381
 20
276.227533604
 10
371.1982763849
 20
275.9788064016
 10
370.8988271199
 20
275.7939872993
 10
370.573906555
 20
275.6801752104
 10
370.2360003731
 20
275.6417451156
  0
LINE
  5
E1
330
1F
100
AcDbEntity
  8
0
  6
Continuous
 62
     7
370
    15
100
AcDbLine
 10
370.2360003731
 20
275.6417451156
 30
0.0
 11
369.1967695496
 21
275.6417451156
 31
0.0
  0
LWPOLYLINE
  5
E2
330
1F
100
AcDbEntity
  8
0
  6
Continuous
 62
     7
370
    15
100
AcDbPolyline
 90
        9
 70
   128
 43
0.0
 10
369.1967695496
 20
275.6417451156
 10
368.8588633678
 20
275.6801752104
 10
368.5339428029
 20
275.7939872993
 10
368.2344935379
 20
275.9788064016
 10
367.9720252297
 20
276.227533604
 10
367.7566222391
 20
276.5306053413
 10
367.5965636513
 20
276.8763778461
 10
367.4979999206
 20
277.2515652431
 10
367.4647189222
 20
277.6417461885
  0
LINE
  5
E3
330
1F
100
AcDbEntity
  8
0
  6
Continuous
 62
     7
370
    15
100
AcDbLine
 10
367.4647189222
 20
277.6417461885
 30
0.0
 11
367.4647189222
 21
295.6417454137
 31
0.0
  0
ARC
  5
E4
330
1F
100
AcDbEntity
  8
0
  6
Continuous
 62
     7
370
    15
100
AcDbCircle
 10
369.5620211258
 20
295.68090068
 30
0.0
 40
2.097667673417638
100
AcDbArc
 50
129.5515294263
 51
181.0695506416
  0
LINE
  5
E5
330
1F
100
AcDbEntity
  8
0
  6
Continuous
 62
     7
370
    15
100
AcDbLine
 10
368.2262852333
 20
297.2983119739
 30
0.0
 11
372.6164653442
 21
300.727574314
 31
0.0
  0
ARC
  5
E6
330
1F
100
AcDbEntity
  8
0
  6
Continuous
 62
     7
370
    15
100
AcDbCircle
 10
371.280728773
 20
302.3449859199
 30
0.0
 40
2.09766834618887
100
AcDbArc
 50
309.5515382934
 51
1.0695417745
  0
LINE
  5
E7
330
1F
100
AcDbEntity
  8
0
  6
Continuous
 62
     7
370
    15
100
AcDbLine
 10
373.3780316553
 20
302.3841408743
 30
0.0
 11
373.3780316553
 21
307.9570693625
 31
0.0
  0
ARC
  5
E8
330
1F
100
AcDbEntity
  8
0
  6
Continuous
 62
     7
370
    15
100
AcDbCircle
 10
368.8920283936
 20
295.6808972626
 30
0.0
 40
2.097675041882764
100
AcDbArc
 50
129.5516265425
 51
181.0694535255
  0
LINE
  5
E9
330
1F
100
AcDbEntity
  8
0
  6
Continuous
 62
     7
370
    15
100
AcDbLine
 10
368.5267693839
 20
275.6417451156
 30
0.0
 11
369.1967695496
 21
275.6417451156
 31
0.0
  0
LWPOLYLINE
  5
EA
330
1F
100
AcDbEntity
  8
0
  6
Continuous
 62
     7
370
    15
100
AcDbPolyline
 90
        9
 70
   128
 43
0.0
 10
368.5267693839
 20
275.6417451156
 10
368.1888632021
 20
275.6801752104
 10
367.8639426372
 20
275.7939872993
 10
367.5644941173
 20
275.9788064016
 10
367.302024319
 20
276.227533604
 10
367.0866220734
 20
276.5306053413
 10
366.9265627406
 20
276.8763778461
 10
366.8280005
 20
277.2515652431
 10
366.7947187565
 20
277.6417461885
  0
LINE
  5
EB
330
1F
100
AcDbEntity
  8
0
  6
Continuous
 62
     7
370
    15
100
AcDbLine
 10
366.7947187565
 20
277.6417461885
 30
0.0
 11
366.7947187565
 21
295.6417454137
 31
0.0
  0
LINE
  5
EC
330
1F
100
AcDbEntity
  8
0
  6
Continuous
 62
     7
370
    15
100
AcDbLine
 10
367.5562850676
 20
297.2983119739
 30
0.0
 11
371.9464651785
 21
300.727574314
 31
0.0
  0
ARC
  5
ED
330
1F
100
AcDbEntity
  8
0
  6
Continuous
 62
     7
370
    15
100
AcDbCircle
 10
369.0394334831
 20
278.1327244955
 30
0.0
 40
0.5266439950354674
100
AcDbArc
 50
310.4891062764
 51
0.9815034395
  0
LINE
  5
EE
330
1F
100
AcDbEntity
  8
0
  6
Continuous
 62
     7
370
    15
100
AcDbLine
 10
369.5660002074
 20
278.1417457117
 30
0.0
 11
369.5660002074
 21
278.197070743
 31
0.0
  0
ARC
  5
EF
330
1F
100
AcDbEntity
  8
0
  6
Continuous
 62
     7
370
    15
100
AcDbCircle
 10
370.610731654
 20
302.3449845193
 30
0.0
 40
2.097665326215266
100
AcDbArc
 50
309.5514984901
 51
1.0695815779
  0
LINE
  5
F0
330
1F
100
AcDbEntity
  8
0
  6
Continuous
 62
     7
370
    15
100
AcDbLine
 10
372.7080314896
 20
302.3841408743
 30
0.0
 11
372.7080314896
 21
307.9570693625
 31
0.0
  0
LINE
  5
F1
330
1F
100
AcDbEntity
  8
0
  6
Continuous
 62
     7
370
    15
100
AcDbLine
 10
416.2768944643
 20
295.6417454137
 30
0.0
 11
416.2768944643
 21
297.2983119739
 31
0.0
  0
LINE
  5
F2
330
1F
100
AcDbEntity
  8
0
  6
Continuous
 62
     7
370
    15
100
AcDbLine
 10
417.6168962858
 20
295.6417454137
 30
0.0
 11
417.6168962858
 21
297.2983119739
 31
0.0
  0
LINE
  5
F3
330
1F
100
AcDbEntity
  8
0
  6
Continuous
 62
     7
370
    15
100
AcDbLine
 10
416.2768944643
 20
275.6417451156
 30
0.0
 11
417.6168962858
 21
275.6417451156
 31
0.0
  0
LINE
  5
F4
330
1F
100
AcDbEntity
  8
0
  6
Continuous
 62
     7
370
    15
100
AcDbLine
 10
416.2768944643
 20
275.6417451156
 30
0.0
 11
416.2768944643
 21
277.6417461885
 31
0.0
  0
LINE
  5
F5
330
1F
100
AcDbEntity
  8
0
  6
Continuous
 62
     7
370
    15
100
AcDbLine
 10
417.6168962858
 20
275.6417451156
 30
0.0
 11
417.6168962858
 21
277.6417461885
 31
0.0
  0
LINE
  5
F6
330
1F
100
AcDbEntity
  8
0
  6
Continuous
 62
     7
370
    15
100
AcDbLine
 10
416.2768944643
 20
277.6417461885
 30
0.0
 11
416.2768944643
 21
295.6417454137
 31
0.0
  0
LINE
  5
F7
330
1F
100
AcDbEntity
  8
0
  6
Continuous
 62
     7
370
    15
100
AcDbLine
 10
417.6168962858
 20
277.6417461885
 30
0.0
 11
417.6168962858
 21
295.6417454137
 31
0.0
  0
LINE
  5
F8
330
1F
100
AcDbEntity
  8
0
  6
Continuous
 62
     7
370
    15
100
AcDbLine
 10
416.2768944643
 20
297.2983119739
 30
0.0
 11
416.2768944643
 21
300.727574314
 31
0.0
  0
LINE
  5
F9
330
1F
100
AcDbEntity
  8
0
  6
Continuous
 62
     7
370
    15
100
AcDbLine
 10
417.6168962858
 20
297.2983119739
 30
0.0
 11
417.6168962858
 21
300.727574314
 31
0.0
  0
LINE
  5
FA
330
1F
100
AcDbEntity
  8
0
  6
Continuous
 62
     7
370
    15
100
AcDbLine
 10
416.2768944643
 20
300.727574314
 30
0.0
 11
416.2768944643
 21
302.3841408743
 31
0.0
  0
LINE
  5
FB
330
1F
100
AcDbEntity
  8
0
  6
Continuous
 62
     7
370
    15
100
AcDbLine
 10
417.6168962858
 20
300.727574314
 30
0.0
 11
417.6168962858
 21
302.3841408743
 31
0.0
  0
LINE
  5
FC
330
1F
100
AcDbEntity
  8
0
  6
Continuous
 62
     7
370
    15
100
AcDbLine
 10
416.2768944643
 20
302.3841408743
 30
0.0
 11
416.2768944643
 21
307.9570693625
 31
0.0
  0
LINE
  5
FD
330
1F
100
AcDbEntity
  8
0
  6
Continuous
 62
     7
370
    15
100
AcDbLine
 10
417.6168962858
 20
302.3841408743
 30
0.0
 11
417.6168962858
 21
307.9570693625
 31
0.0
  0
LINE
  5
FE
330
1F
100
AcDbEntity
  8
0
  6
Continuous
 62
     7
370
    15
100
AcDbLine
 10
460.5157568596
 20
302.3841408743
 30
0.0
 11
460.5157568596
 21
307.9570693625
 31
0.0
  0
ARC
  5
FF
330
1F
100
AcDbEntity
  8
0
  6
Continuous
 62
     7
370
    15
100
AcDbCircle
 10
462.6130559179
 20
302.3449859642
 30
0.0
 40
2.097664522022825
100
AcDbArc
 50
178.9304574852
 51
230.4485900866
  0
LINE
  5
100
330
1F
100
AcDbEntity
  8
0
  6
Continuous
 62
     7
370
    15
100
AcDbLine
 10
465.6675055168
 20
297.2983119739
 30
0.0
 11
461.2773254059
 21
300.727574314
 31
0.0
  0
ARC
  5
101
330
1F
100
AcDbEntity
  8
0
  6
Continuous
 62
     7
370
    15
100
AcDbCircle
 10
464.3317628754
 20
295.6809022938
 30
0.0
 40
2.097670726672126
100
AcDbArc
 50
358.9304068293
 51
50.4483003695
  0
LINE
  5
102
330
1F
100
AcDbEntity
  8
0
  6
Continuous
 62
     7
370
    15
100
AcDbLine
 10
466.4290681026
 20
277.6417461885
 30
0.0
 11
466.4290681026
 21
295.6417454137
 31
0.0
  0
LWPOLYLINE
  5
103
330
1F
100
AcDbEntity
  8
0
  6
Continuous
 62
     7
370
    15
100
AcDbPolyline
 90
        9
 70
   128
 43
0.0
 10
464.6970226906
 20
275.6417451156
 10
465.0349273823
 20
275.6801752104
 10
465.3598501823
 20
275.7939872993
 10
465.6592979572
 20
275.9788064016
 10
465.9217670105
 20
276.227533604
 10
466.1371662758
 20
276.5306053413
 10
466.2972285888
 20
276.8763778461
 10
466.3957908294
 20
277.2515652431
 10
466.4290681026
 20
277.6417461885
  0
LINE
  5
104
330
1F
100
AcDbEntity
  8
0
  6
Continuous
 62
     7
370
    15
100
AcDbLine
 10
463.657791867
 20
275.6417451156
 30
0.0
 11
464.6970226906
 21
275.6417451156
 31
0.0
  0
LWPOLYLINE
  5
105
330
1F
100
AcDbEntity
  8
0
  6
Continuous
 62
     7
370
    15
100
AcDbPolyline
 90
        9
 70
   128
 43
0.0
 10
461.9257404945
 20
277.6417461885
 10
461.9590177677
 20
277.2515652431
 10
462.0575859688
 20
276.8763778461
 10
462.2176423214
 20
276.5306053413
 10
462.4330475471
 20
276.227533604
 10
462.6955166004
 20
275.9788064016
 10
462.9949643753
 20
275.7939872993
 10
463.3198812149
 20
275.6801752104
 10
463.657791867
 20
275.6417451156
  0
LINE
  5
106
330
1F
100
AcDbEntity
  8
0
  6
Continuous
 62
     7
370
    15
100
AcDbLine
 10
461.9257404945
 20
278.197070743
 30
0.0
 11
461.9257404945
 21
277.6417461885
 31
0.0
  0
LINE
  5
107
330
1F
100
AcDbEntity
  8
0
  6
Continuous
 62
     7
370
    15
100
AcDbLine
 10
463.657791867
 20
278.1417457117
 30
0.0
 11
463.657791867
 21
278.197070743
 31
0.0
  0
ARC
  5
108
330
1F
100
AcDbEntity
  8
0
  6
Continuous
 62
     7
370
    15
100
AcDbCircle
 10
464.1268874773
 20
278.1104946691
 30
0.0
 40
0.4701354264718559
100
AcDbArc
 50
176.188600156
 51
265.5978714228
  0
LINE
  5
109
330
1F
100
AcDbEntity
  8
0
  6
Continuous
 62
     7
370
    15
100
AcDbLine
 10
464.2640068672
 20
277.6417461885
 30
0.0
 11
464.0908017299
 21
277.6417461885
 31
0.0
  0
ARC
  5
10A
330
1F
100
AcDbEntity
  8
0
  6
Continuous
 62
     7
370
    15
100
AcDbCircle
 10
464.2279251824
 20
278.1104967429
 30
0.0
 40
0.4701371822986383
100
AcDbArc
 50
274.4016155292
 51
3.8111322991
  0
LINE
  5
10B
330
1F
100
AcDbEntity
  8
0
  6
Continuous
 62
     7
370
    15
100
AcDbLine
 10
464.6970226906
 20
294.5800540699
 30
0.0
 11
464.6970226906
 21
278.1417457117
 31
0.0
  0
ARC
  5
10C
330
1F
100
AcDbEntity
  8
0
  6
Continuous
 62
     7
370
    15
100
AcDbCircle
 10
462.5996813148
 20
294.6191895255
 30
0.0
 40
2.09770646902293
100
AcDbArc
 50
358.9310103376
 51
50.4480372343
  0
LINE
  5
10D
330
1F
100
AcDbEntity
  8
0
  6
Continuous
 62
     7
370
    15
100
AcDbLine
 10
459.5452740333
 20
299.6658829702
 30
0.0
 11
463.9354541443
 21
296.2366206302
 31
0.0
  0
ARC
  5
10E
330
1F
100
AcDbEntity
  8
0
  6
Continuous
 62
     7
370
    15
100
AcDbCircle
 10
460.8810108795
 20
301.2832975324
 30
0.0
 40
2.097670800743122
100
AcDbArc
 50
178.930540239
 51
230.4485073329
  0
LINE
  5
10F
330
1F
100
AcDbEntity
  8
0
  6
Continuous
 62
     7
370
    15
100
AcDbLine
 10
458.783705487
 20
306.6170690311
 30
0.0
 11
458.783705487
 21
301.3224495305
 31
0.0
  0
ARC
  5
110
330
1F
100
AcDbEntity
  8
0
  6
Continuous
 62
     7
370
    15
100
AcDbCircle
 10
465.001773614
 20
295.6809006357
 30
0.0
 40
2.097663849263357
100
AcDbArc
 50
358.9304486182
 51
50.4485989537
  0
LINE
  5
111
330
1F
100
AcDbEntity
  8
0
  6
Continuous
 62
     7
370
    15
100
AcDbLine
 10
467.0990719936
 20
277.6417461885
 30
0.0
 11
467.0990719936
 21
295.6417454137
 31
0.0
  0
LINE
  5
112
330
1F
100
AcDbEntity
  8
0
  6
Continuous
 62
     7
370
    15
100
AcDbLine
 10
464.6970226906
 20
275.6417451156
 30
0.0
 11
465.3670206211
 21
275.6417451156
 31
0.0
  0
LWPOLYLINE
  5
113
330
1F
100
AcDbEntity
  8
0
  6
Continuous
 62
     7
370
    15
100
AcDbPolyline
 90
        9
 70
   128
 43
0.0
 10
465.3670206211
 20
275.6417451156
 10
465.7049253128
 20
275.6801752104
 10
466.0298481128
 20
275.7939872993
 10
466.3292958877
 20
275.9788064016
 10
466.591764941
 20
276.227533604
 10
466.8071701668
 20
276.5306053413
 10
466.9672265194
 20
276.8763778461
 10
467.06578876
 20
277.2515652431
 10
467.0990719936
 20
277.6417461885
  0
LINE
  5
114
330
1F
100
AcDbEntity
  8
0
  6
Continuous
 62
     7
370
    15
100
AcDbLine
 10
466.3375034473
 20
297.2983119739
 30
0.0
 11
461.9473233364
 21
300.727574314
 31
0.0
  0
ARC
  5
115
330
1F
100
AcDbEntity
  8
0
  6
Continuous
 62
     7
370
    15
100
AcDbCircle
 10
464.8543671847
 20
278.1327280579
 30
0.0
 40
0.5266545952947632
100
AcDbArc
 50
179.0189039282
 51
229.5101398349
  0
LINE
  5
116
330
1F
100
AcDbEntity
  8
0
  6
Continuous
 62
     7
370
    15
100
AcDbLine
 10
464.3277897976
 20
278.1417457117
 30
0.0
 11
464.3277897976
 21
278.197070743
 31
0.0
  0
ARC
  5
117
330
1F
100
AcDbEntity
  8
0
  6
Continuous
 62
     7
370
    15
100
AcDbCircle
 10
463.2830666565
 20
302.3449843062
 30
0.0
 40
2.097671399439287
100
AcDbArc
 50
178.9304156964
 51
230.4482915025
  0
LINE
  5
118
330
1F
100
AcDbEntity
  8
0
  6
Continuous
 62
     7
370
    15
100
AcDbLine
 10
461.1857607506
 20
302.3841408743
 30
0.0
 11
461.1857607506
 21
307.9570693625
 31
0.0
  0
LINE
  5
119
330
1F
100
AcDbEntity
  8
0
  6
Continuous
 62
     7
370
    15
100
AcDbLine
 10
379.2768949188
 20
295.6417454137
 30
0.0
 11
379.2768949188
 21
297.2983119739
 31
0.0
  0
LINE
  5
11A
330
1F
100
AcDbEntity
  8
0
  6
Continuous
 62
     7
370
    15
100
AcDbLine
 10
380.6168948776
 20
295.6417454137
 30
0.0
 11
380.6168948776
 21
297.2983119739
 31
0.0
  0
LINE
  5
11B
330
1F
100
AcDbEntity
  8
0
  6
Continuous
 62
     7
370
    15
100
AcDbLine
 10
379.2768949188
 20
275.6417451156
 30
0.0
 11
380.6168948776
 21
275.6417451156
 31
0.0
  0
LINE
  5
11C
330
1F
100
AcDbEntity
  8
0
  6
Continuous
 62
     7
370
    15
100
AcDbLine
 10
379.2768949188
 20
275.6417451156
 30
0.0
 11
379.2768949188
 21
277.6417461885
 31
0.0
  0
LINE
  5
11D
330
1F
100
AcDbEntity
  8
0
  6
Continuous
 62
     7
370
    15
100
AcDbLine
 10
380.6168948776
 20
275.6417451156
 30
0.0
 11
380.6168948776
 21
277.6417461885
 31
0.0
  0
LINE
  5
11E
330
1F
100
AcDbEntity
  8
0
  6
Continuous
 62
     7
370
    15
100
AcDbLine
 10
379.2768949188
 20
277.6417461885
 30
0.0
 11
379.2768949188
 21
295.6417454137
 31
0.0
  0
LINE
  5
11F
330
1F
100
AcDbEntity
  8
0
  6
Continuous
 62
     7
370
    15
100
AcDbLine
 10
380.6168948776
 20
277.6417461885
 30
0.0
 11
380.6168948776
 21
295.6417454137
 31
0.0
  0
LINE
  5
120
330
1F
100
AcDbEntity
  8
0
  6
Continuous
 62
     7
370
    15
100
AcDbLine
 10
379.2768949188
 20
297.2983119739
 30
0.0
 11
379.2768949188
 21
300.727574314
 31
0.0
  0
LINE
  5
121
330
1F
100
AcDbEntity
  8
0
  6
Continuous
 62
     7
370
    15
100
AcDbLine
 10
380.6168948776
 20
297.2983119739
 30
0.0
 11
380.6168948776
 21
300.727574314
 31
0.0
  0
LINE
  5
122
330
1F
100
AcDbEntity
  8
0
  6
Continuous
 62
     7
370
    15
100
AcDbLine
 10
379.2768949188
 20
300.727574314
 30
0.0
 11
379.2768949188
 21
302.3841408743
 31
0.0
  0
LINE
  5
123
330
1F
100
AcDbEntity
  8
0
  6
Continuous
 62
     7
370
    15
100
AcDbLine
 10
380.6168948776
 20
300.727574314
 30
0.0
 11
380.6168948776
 21
302.3841408743
 31
0.0
  0
LINE
  5
124
330
1F
100
AcDbEntity
  8
0
  6
Continuous
 62
     7
370
    15
100
AcDbLine
 10
379.2768949188
 20
302.3841408743
 30
0.0
 11
379.2768949188
 21
307.9570693625
 31
0.0
  0
LINE
  5
125
330
1F
100
AcDbEntity
  8
0
  6
Continuous
 62
     7
370
    15
100
AcDbLine
 10
380.6168948776
 20
302.3841408743
 30
0.0
 11
380.6168948776
 21
307.9570693625
 31
0.0
  0
LINE
  5
126
330
1F
100
AcDbEntity
  8
0
  6
Continuous
 62
     7
370
    15
100
AcDbLine
 10
449.1100802562
 20
306.6170690311
 30
0.0
 11
449.1100802562
 21
301.3224495305
 31
0.0
  0
ARC
  5
127
330
1F
100
AcDbEntity
  8
0
  6
Continuous
 62
     7
370
    15
100
AcDbCircle
 10
447.012768016
 20
301.2832958744
 30
0.0
 40
2.097677678243188
100
AcDbArc
 50
309.5517912516
 51
1.0695015495
  0
LINE
  5
128
330
1F
100
AcDbEntity
  8
0
  6
Continuous
 62
     7
370
    15
100
AcDbLine
 10
448.3485176704
 20
299.6658829702
 30
0.0
 11
443.9583375595
 21
296.2366206302
 31
0.0
  0
ARC
  5
129
330
1F
100
AcDbEntity
  8
0
  6
Continuous
 62
     7
370
    15
100
AcDbCircle
 10
445.2940673928
 20
294.619209292
 30
0.0
 40
2.097663849263984
100
AcDbArc
 50
129.5514010464
 51
181.0695513818
  0
LINE
  5
12A
330
1F
100
AcDbEntity
  8
0
  6
Continuous
 62
     7
370
    15
100
AcDbLine
 10
443.1967690132
 20
294.5800540699
 30
0.0
 11
443.1967690132
 21
278.1417457117
 31
0.0
  0
ARC
  5
12B
330
1F
100
AcDbEntity
  8
0
  6
Continuous
 62
     7
370
    15
100
AcDbCircle
 10
443.6658665213
 20
278.1104967429
 30
0.0
 40
0.4701371822986383
100
AcDbArc
 50
176.1888677009
 51
265.5983844708
  0
LINE
  5
12C
330
1F
100
AcDbEntity
  8
0
  6
Continuous
 62
     7
370
    15
100
AcDbLine
 10
443.6297848366
 20
277.6417461885
 30
0.0
 11
443.8029899738
 21
277.6417461885
 31
0.0
  0
ARC
  5
12D
330
1F
100
AcDbEntity
  8
0
  6
Continuous
 62
     7
370
    15
100
AcDbCircle
 10
443.7669042264
 20
278.1104946691
 30
0.0
 40
0.4701354264717991
100
AcDbArc
 50
274.4021285772
 51
3.811399844
  0
LINE
  5
12E
330
1F
100
AcDbEntity
  8
0
  6
Continuous
 62
     7
370
    15
100
AcDbLine
 10
444.2359998367
 20
278.1417457117
 30
0.0
 11
444.2359998367
 21
278.197070743
 31
0.0
  0
LINE
  5
12F
330
1F
100
AcDbEntity
  8
0
  6
Continuous
 62
     7
370
    15
100
AcDbLine
 10
445.9680512092
 20
278.197070743
 30
0.0
 11
445.9680512092
 21
277.6417461885
 31
0.0
  0
LWPOLYLINE
  5
130
330
1F
100
AcDbEntity
  8
0
  6
Continuous
 62
     7
370
    15
100
AcDbPolyline
 90
        9
 70
   128
 43
0.0
 10
445.9680512092
 20
277.6417461885
 10
445.9347679756
 20
277.2515652431
 10
445.836205735
 20
276.8763778461
 10
445.6761493824
 20
276.5306053413
 10
445.4607441566
 20
276.227533604
 10
445.1982751034
 20
275.9788064016
 10
444.8988273285
 20
275.7939872993
 10
444.5739045284
 20
275.6801752104
 10
444.2359998367
 20
275.6417451156
  0
LINE
  5
131
330
1F
100
AcDbEntity
  8
0
  6
Continuous
 62
     7
370
    15
100
AcDbLine
 10
444.2359998367
 20
275.6417451156
 30
0.0
 11
443.1967690132
 21
275.6417451156
 31
0.0
  0
LWPOLYLINE
  5
132
330
1F
100
AcDbEntity
  8
0
  6
Continuous
 62
     7
370
    15
100
AcDbPolyline
 90
        9
 70
   128
 43
0.0
 10
443.1967690132
 20
275.6417451156
 10
442.8588643215
 20
275.6801752104
 10
442.5339415214
 20
275.7939872993
 10
442.2344937465
 20
275.9788064016
 10
441.9720246933
 20
276.227533604
 10
441.7566194675
 20
276.5306053413
 10
441.5965631149
 20
276.8763778461
 10
441.4980008743
 20
277.2515652431
 10
441.4647176407
 20
277.6417461885
  0
LINE
  5
133
330
1F
100
AcDbEntity
  8
0
  6
Continuous
 62
     7
370
    15
100
AcDbLine
 10
441.4647176407
 20
277.6417461885
 30
0.0
 11
441.4647176407
 21
295.6417454137
 31
0.0
  0
ARC
  5
134
330
1F
100
AcDbEntity
  8
0
  6
Continuous
 62
     7
370
    15
100
AcDbCircle
 10
443.5620160203
 20
295.6809006357
 30
0.0
 40
2.09766384926392
100
AcDbArc
 50
129.5514010464
 51
181.0695513818
  0
LINE
  5
135
330
1F
100
AcDbEntity
  8
0
  6
Continuous
 62
     7
370
    15
100
AcDbLine
 10
442.226286187
 20
297.2983119739
 30
0.0
 11
446.6164662979
 21
300.727574314
 31
0.0
  0
ARC
  5
136
330
1F
100
AcDbEntity
  8
0
  6
Continuous
 62
     7
370
    15
100
AcDbCircle
 10
445.2807229778
 20
302.3449843062
 30
0.0
 40
2.097671399439287
100
AcDbArc
 50
309.5517084975
 51
1.0695843036
  0
LINE
  5
137
330
1F
100
AcDbEntity
  8
0
  6
Continuous
 62
     7
370
    15
100
AcDbLine
 10
447.3780288837
 20
302.3841408743
 30
0.0
 11
447.3780288837
 21
307.9570693625
 31
0.0
  0
ARC
  5
138
330
1F
100
AcDbEntity
  8
0
  6
Continuous
 62
     7
370
    15
100
AcDbCircle
 10
442.8920016172
 20
295.6809082086
 30
0.0
 40
2.09764752096477
100
AcDbArc
 50
129.5511858361
 51
181.0697665921
  0
LINE
  5
139
330
1F
100
AcDbEntity
  8
0
  6
Continuous
 62
     7
370
    15
100
AcDbLine
 10
442.5267710827
 20
275.6417451156
 30
0.0
 11
443.1967690132
 21
275.6417451156
 31
0.0
  0
LWPOLYLINE
  5
13A
330
1F
100
AcDbEntity
  8
0
  6
Continuous
 62
     7
370
    15
100
AcDbPolyline
 90
        9
 70
   128
 43
0.0
 10
442.5267710827
 20
275.6417451156
 10
442.1888604305
 20
275.6801752104
 10
441.8639435909
 20
275.7939872993
 10
441.564495816
 20
275.9788064016
 10
441.3020267627
 20
276.227533604
 10
441.086621537
 20
276.5306053413
 10
440.9265651844
 20
276.8763778461
 10
440.8279969833
 20
277.2515652431
 10
440.7947197101
 20
277.6417461885
  0
LINE
  5
13B
330
1F
100
AcDbEntity
  8
0
  6
Continuous
 62
     7
370
    15
100
AcDbLine
 10
440.7947197101
 20
277.6417461885
 30
0.0
 11
440.7947197101
 21
295.6417454137
 31
0.0
  0
LINE
  5
13C
330
1F
100
AcDbEntity
  8
0
  6
Continuous
 62
     7
370
    15
100
AcDbLine
 10
441.5562882564
 20
297.2983119739
 30
0.0
 11
445.9464624069
 21
300.727574314
 31
0.0
  0
ARC
  5
13D
330
1F
100
AcDbEntity
  8
0
  6
Continuous
 62
     7
370
    15
100
AcDbCircle
 10
443.0394523603
 20
278.1327204842
 30
0.0
 40
0.5266268878720137
100
AcDbArc
 50
310.4875983456
 51
0.9819718129
  0
LINE
  5
13E
330
1F
100
AcDbEntity
  8
0
  6
Continuous
 62
     7
370
    15
100
AcDbLine
 10
443.5660019062
 20
278.1417457117
 30
0.0
 11
443.5660019062
 21
278.197070743
 31
0.0
  0
ARC
  5
13F
330
1F
100
AcDbEntity
  8
0
  6
Continuous
 62
     7
370
    15
100
AcDbCircle
 10
444.6107483674
 20
302.3449783913
 30
0.0
 40
2.097648193722732
100
AcDbArc
 50
309.5511947032
 51
1.0697577249
  0
LINE
  5
140
330
1F
100
AcDbEntity
  8
0
  6
Continuous
 62
     7
370
    15
100
AcDbLine
 10
446.7080309532
 20
302.3841408743
 30
0.0
 11
446.7080309532
 21
307.9570693625
 31
0.0
  0
LINE
  5
141
330
1F
100
AcDbEntity
  8
0
  6
Continuous
 62
     7
370
    15
100
AcDbLine
 10
412.1100827596
 20
306.6170690311
 30
0.0
 11
412.1100827596
 21
301.3224495305
 31
0.0
  0
ARC
  5
142
330
1F
100
AcDbEntity
  8
0
  6
Continuous
 62
     7
370
    15
100
AcDbCircle
 10
410.0127739434
 20
301.2832967034
 30
0.0
 40
2.097674239362635
100
AcDbArc
 50
309.5516419577
 51
1.0694806568
  0
LINE
  5
143
330
1F
100
AcDbEntity
  8
0
  6
Continuous
 62
     7
370
    15
100
AcDbLine
 10
411.3485171936
 20
299.6658829702
 30
0.0
 11
406.9583370826
 21
296.2366206302
 31
0.0
  0
ARC
  5
144
330
1F
100
AcDbEntity
  8
0
  6
Continuous
 62
     7
370
    15
100
AcDbCircle
 10
408.2940801773
 20
294.6192031954
 30
0.0
 40
2.097676994491194
100
AcDbArc
 50
129.5515743004
 51
181.0693781278
  0
LINE
  5
145
330
1F
100
AcDbEntity
  8
0
  6
Continuous
 62
     7
370
    15
100
AcDbLine
 10
406.1967685364
 20
294.5800540699
 30
0.0
 11
406.1967685364
 21
278.1417457117
 31
0.0
  0
ARC
  5
146
330
1F
100
AcDbEntity
  8
0
  6
Continuous
 62
     7
370
    15
100
AcDbCircle
 10
406.6658650955
 20
278.110495706
 30
0.0
 40
0.4701363043701431
100
AcDbArc
 50
176.1887339275
 51
265.5981279489
  0
LINE
  5
147
330
1F
100
AcDbEntity
  8
0
  6
Continuous
 62
     7
370
    15
100
AcDbLine
 10
406.6297813795
 20
277.6417461885
 30
0.0
 11
406.8029865167
 21
277.6417461885
 31
0.0
  0
ARC
  5
148
330
1F
100
AcDbEntity
  8
0
  6
Continuous
 62
     7
370
    15
100
AcDbCircle
 10
406.7669028007
 20
278.110495706
 30
0.0
 40
0.4701363043701998
100
AcDbArc
 50
274.4018720511
 51
3.8112660725
  0
LINE
  5
149
330
1F
100
AcDbEntity
  8
0
  6
Continuous
 62
     7
370
    15
100
AcDbLine
 10
407.2359993599
 20
278.1417457117
 30
0.0
 11
407.2359993599
 21
278.197070743
 31
0.0
  0
LINE
  5
14A
330
1F
100
AcDbEntity
  8
0
  6
Continuous
 62
     7
370
    15
100
AcDbLine
 10
408.9680507324
 20
278.197070743
 30
0.0
 11
408.9680507324
 21
277.6417461885
 31
0.0
  0
LWPOLYLINE
  5
14B
330
1F
100
AcDbEntity
  8
0
  6
Continuous
 62
     7
370
    15
100
AcDbPolyline
 90
        9
 70
   128
 43
0.0
 10
408.9680507324
 20
277.6417461885
 10
408.934770479
 20
277.2515652431
 10
408.8362052582
 20
276.8763778461
 10
408.6761489055
 20
276.5306053413
 10
408.4607436798
 20
276.227533604
 10
408.1982746265
 20
275.9788064016
 10
407.8988268516
 20
275.7939872993
 10
407.5739070318
 20
275.6801752104
 10
407.2359993599
 20
275.6417451156
  0
LINE
  5
14C
330
1F
100
AcDbEntity
  8
0
  6
Continuous
 62
     7
370
    15
100
AcDbLine
 10
407.2359993599
 20
275.6417451156
 30
0.0
 11
406.1967685364
 21
275.6417451156
 31
0.0
  0
LWPOLYLINE
  5
14D
330
1F
100
AcDbEntity
  8
0
  6
Continuous
 62
     7
370
    15
100
AcDbPolyline
 90
        9
 70
   128
 43
0.0
 10
406.1967685364
 20
275.6417451156
 10
405.8588638447
 20
275.6801752104
 10
405.5339440248
 20
275.7939872993
 10
405.2344932697
 20
275.9788064016
 10
404.9720242164
 20
276.227533604
 10
404.7566219709
 20
276.5306053413
 10
404.5965641282
 20
276.8763778461
 10
404.4980003975
 20
277.2515652431
 10
404.4647186539
 20
277.6417461885
  0
LINE
  5
14E
330
1F
100
AcDbEntity
  8
0
  6
Continuous
 62
     7
370
    15
100
AcDbLine
 10
404.4647186539
 20
277.6417461885
 30
0.0
 11
404.4647186539
 21
295.6417454137
 31
0.0
  0
ARC
  5
14F
330
1F
100
AcDbEntity
  8
0
  6
Continuous
 62
     7
370
    15
100
AcDbCircle
 10
406.562025376
 20
295.680898002
 30
0.0
 40
2.097672141123478
100
AcDbArc
 50
129.5515623182
 51
181.0694752031
  0
LINE
  5
150
330
1F
100
AcDbEntity
  8
0
  6
Continuous
 62
     7
370
    15
100
AcDbLine
 10
405.2262857101
 20
297.2983119739
 30
0.0
 11
409.6164658211
 21
300.727574314
 31
0.0
  0
ARC
  5
151
330
1F
100
AcDbEntity
  8
0
  6
Continuous
 62
     7
370
    15
100
AcDbCircle
 10
408.2807289051
 20
302.3449851351
 30
0.0
 40
2.097667960600592
100
AcDbArc
 50
309.5515592038
 51
1.0695634107
  0
LINE
  5
152
330
1F
100
AcDbEntity
  8
0
  6
Continuous
 62
     7
370
    15
100
AcDbLine
 10
410.3780313871
 20
302.3841408743
 30
0.0
 11
410.3780313871
 21
307.9570693625
 31
0.0
  0
ARC
  5
153
330
1F
100
AcDbEntity
  8
0
  6
Continuous
 62
     7
370
    15
100
AcDbCircle
 10
405.8920169184
 20
295.680903358
 30
0.0
 40
2.097663205733647
100
AcDbArc
 50
129.5514965344
 51
181.0696260801
  0
LINE
  5
154
330
1F
100
AcDbEntity
  8
0
  6
Continuous
 62
     7
370
    15
100
AcDbLine
 10
405.5267706058
 20
275.6417451156
 30
0.0
 11
406.1967685364
 21
275.6417451156
 31
0.0
  0
LWPOLYLINE
  5
155
330
1F
100
AcDbEntity
  8
0
  6
Continuous
 62
     7
370
    15
100
AcDbPolyline
 90
        9
 70
   128
 43
0.0
 10
405.5267706058
 20
275.6417451156
 10
405.1888629339
 20
275.6801752104
 10
404.8639431141
 20
275.7939872993
 10
404.5644938491
 20
275.9788064016
 10
404.3020247958
 20
276.227533604
 10
404.0866225503
 20
276.5306053413
 10
403.9265632174
 20
276.8763778461
 10
403.8279994867
 20
277.2515652431
 10
403.7947192333
 20
277.6417461885
  0
LINE
  5
156
330
1F
100
AcDbEntity
  8
0
  6
Continuous
 62
     7
370
    15
100
AcDbLine
 10
403.7947192333
 20
277.6417461885
 30
0.0
 11
403.7947192333
 21
295.6417454137
 31
0.0
  0
LINE
  5
157
330
1F
100
AcDbEntity
  8
0
  6
Continuous
 62
     7
370
    15
100
AcDbLine
 10
404.5562847994
 20
297.2983119739
 30
0.0
 11
408.9464649103
 21
300.727574314
 31
0.0
  0
ARC
  5
158
330
1F
100
AcDbEntity
  8
0
  6
Continuous
 62
     7
370
    15
100
AcDbCircle
 10
406.0394379637
 20
278.1327242708
 30
0.0
 40
0.526640740709289
100
AcDbArc
 50
310.4887292332
 51
0.9815339626
  0
LINE
  5
159
330
1F
100
AcDbEntity
  8
0
  6
Continuous
 62
     7
370
    15
100
AcDbLine
 10
406.5660014293
 20
278.1417457117
 30
0.0
 11
406.5660014293
 21
278.197070743
 31
0.0
  0
ARC
  5
15A
330
1F
100
AcDbEntity
  8
0
  6
Continuous
 62
     7
370
    15
100
AcDbCircle
 10
407.6107362306
 20
302.3449813487
 30
0.0
 40
2.097659796445386
100
AcDbArc
 50
309.5514515997
 51
1.0696710149
  0
LINE
  5
15B
330
1F
100
AcDbEntity
  8
0
  6
Continuous
 62
     7
370
    15
100
AcDbLine
 10
409.7080304764
 20
302.3841408743
 30
0.0
 11
409.7080304764
 21
307.9570693625
 31
0.0
  0
LINE
  5
15C
330
1F
100
AcDbEntity
  8
0
  6
Continuous
 62
     7
370
    15
100
AcDbLine
 10
417.6168962858
 20
307.9570693625
 30
0.0
 11
417.6168962858
 21
306.6170690311
 31
0.0
  0
LINE
  5
15D
330
1F
100
AcDbEntity
  8
0
  6
Continuous
 62
     7
370
    15
100
AcDbLine
 10
423.515759363
 20
307.9570693625
 30
0.0
 11
423.515759363
 21
306.6170690311
 31
0.0
  0
LINE
  5
15E
330
1F
100
AcDbEntity
  8
0
  6
Continuous
 62
     7
370
    15
100
AcDbLine
 10
417.6168962858
 20
306.6170690311
 30
0.0
 11
423.515759363
 21
306.6170690311
 31
0.0
  0
LINE
  5
15F
330
1F
100
AcDbEntity
  8
0
  6
Continuous
 62
     7
370
    15
100
AcDbLine
 10
410.3780313871
 20
307.9570693625
 30
0.0
 11
410.3780313871
 21
306.6170690311
 31
0.0
  0
LINE
  5
160
330
1F
100
AcDbEntity
  8
0
  6
Continuous
 62
     7
370
    15
100
AcDbLine
 10
416.2768944643
 20
307.9570693625
 30
0.0
 11
416.2768944643
 21
306.6170690311
 31
0.0
  0
LINE
  5
161
330
1F
100
AcDbEntity
  8
0
  6
Continuous
 62
     7
370
    15
100
AcDbLine
 10
410.3780313871
 20
306.6170690311
 30
0.0
 11
416.2768944643
 21
306.6170690311
 31
0.0
  0
LINE
  5
162
330
1F
100
AcDbEntity
  8
0
  6
Continuous
 62
     7
370
    15
100
AcDbLine
 10
409.7080304764
 20
307.9570693625
 30
0.0
 11
409.7080304764
 21
306.6170690311
 31
0.0
  0
LINE
  5
163
330
1F
100
AcDbEntity
  8
0
  6
Continuous
 62
     7
370
    15
100
AcDbLine
 10
408.9468940637
 20
306.6170690311
 30
0.0
 11
409.7080304764
 21
306.6170690311
 31
0.0
  0
LINE
  5
164
330
1F
100
AcDbEntity
  8
0
  6
Continuous
 62
     7
370
    15
100
AcDbLine
 10
424.1857572935
 20
307.9570693625
 30
0.0
 11
424.1857572935
 21
306.6170690311
 31
0.0
  0
LINE
  5
165
330
1F
100
AcDbEntity
  8
0
  6
Continuous
 62
     7
370
    15
100
AcDbLine
 10
424.1857572935
 20
306.6170690311
 30
0.0
 11
424.9468937061
 21
306.6170690311
 31
0.0
  0
LINE
  5
166
330
1F
100
AcDbEntity
  8
0
  6
Continuous
 62
     7
370
    15
100
AcDbLine
 10
380.6168948776
 20
307.9570693625
 30
0.0
 11
380.6168948776
 21
306.6170690311
 31
0.0
  0
LINE
  5
167
330
1F
100
AcDbEntity
  8
0
  6
Continuous
 62
     7
370
    15
100
AcDbLine
 10
386.5157581411
 20
307.9570693625
 30
0.0
 11
386.5157581411
 21
306.6170690311
 31
0.0
  0
LINE
  5
168
330
1F
100
AcDbEntity
  8
0
  6
Continuous
 62
     7
370
    15
100
AcDbLine
 10
380.6168948776
 20
306.6170690311
 30
0.0
 11
386.5157581411
 21
306.6170690311
 31
0.0
  0
LINE
  5
169
330
1F
100
AcDbEntity
  8
0
  6
Continuous
 62
     7
370
    15
100
AcDbLine
 10
373.3780316553
 20
307.9570693625
 30
0.0
 11
373.3780316553
 21
306.6170690311
 31
0.0
  0
LINE
  5
16A
330
1F
100
AcDbEntity
  8
0
  6
Continuous
 62
     7
370
    15
100
AcDbLine
 10
379.2768949188
 20
307.9570693625
 30
0.0
 11
379.2768949188
 21
306.6170690311
 31
0.0
  0
LINE
  5
16B
330
1F
100
AcDbEntity
  8
0
  6
Continuous
 62
     7
370
    15
100
AcDbLine
 10
373.3780316553
 20
307.9570693625
 30
0.0
 11
379.2768949188
 21
307.9570693625
 31
0.0
  0
LINE
  5
16C
330
1F
100
AcDbEntity
  8
0
  6
Continuous
 62
     7
370
    15
100
AcDbLine
 10
373.3780316553
 20
306.6170690311
 30
0.0
 11
379.2768949188
 21
306.6170690311
 31
0.0
  0
LINE
  5
16D
330
1F
100
AcDbEntity
  8
0
  6
Continuous
 62
     7
370
    15
100
AcDbLine
 10
372.7080314896
 20
307.9570693625
 30
0.0
 11
372.7080314896
 21
306.6170690311
 31
0.0
  0
LINE
  5
16E
330
1F
100
AcDbEntity
  8
0
  6
Continuous
 62
     7
370
    15
100
AcDbLine
 10
371.946895077
 20
307.9570693625
 30
0.0
 11
372.7080314896
 21
307.9570693625
 31
0.0
  0
LINE
  5
16F
330
1F
100
AcDbEntity
  8
0
  6
Continuous
 62
     7
370
    15
100
AcDbLine
 10
371.946895077
 20
306.6170690311
 30
0.0
 11
372.7080314896
 21
306.6170690311
 31
0.0
  0
LINE
  5
170
330
1F
100
AcDbEntity
  8
0
  6
Continuous
 62
     7
370
    15
100
AcDbLine
 10
387.1857583068
 20
307.9570693625
 30
0.0
 11
387.1857583068
 21
306.6170690311
 31
0.0
  0
LINE
  5
171
330
1F
100
AcDbEntity
  8
0
  6
Continuous
 62
     7
370
    15
100
AcDbLine
 10
387.1857583068
 20
306.6170690311
 30
0.0
 11
387.9468947194
 21
306.6170690311
 31
0.0
  0
LINE
  5
172
330
1F
100
AcDbEntity
  8
0
  6
Continuous
 62
     7
370
    15
100
AcDbLine
 10
454.6168937824
 20
307.9570693625
 30
0.0
 11
454.6168937824
 21
306.6170690311
 31
0.0
  0
LINE
  5
173
330
1F
100
AcDbEntity
  8
0
  6
Continuous
 62
     7
370
    15
100
AcDbLine
 10
460.5157568596
 20
307.9570693625
 30
0.0
 11
460.5157568596
 21
306.6170690311
 31
0.0
  0
LINE
  5
174
330
1F
100
AcDbEntity
  8
0
  6
Continuous
 62
     7
370
    15
100
AcDbLine
 10
454.6168937824
 20
307.9570693625
 30
0.0
 11
460.5157568596
 21
307.9570693625
 31
0.0
  0
LINE
  5
175
330
1F
100
AcDbEntity
  8
0
  6
Continuous
 62
     7
370
    15
100
AcDbLine
 10
454.6168937824
 20
306.6170690311
 30
0.0
 11
460.5157568596
 21
306.6170690311
 31
0.0
  0
LINE
  5
176
330
1F
100
AcDbEntity
  8
0
  6
Continuous
 62
     7
370
    15
100
AcDbLine
 10
447.3780288837
 20
307.9570693625
 30
0.0
 11
447.3780288837
 21
306.6170690311
 31
0.0
  0
LINE
  5
177
330
1F
100
AcDbEntity
  8
0
  6
Continuous
 62
     7
370
    15
100
AcDbLine
 10
453.2768919609
 20
307.9570693625
 30
0.0
 11
453.2768919609
 21
306.6170690311
 31
0.0
  0
LINE
  5
178
330
1F
100
AcDbEntity
  8
0
  6
Continuous
 62
     7
370
    15
100
AcDbLine
 10
447.3780288837
 20
306.6170690311
 30
0.0
 11
453.2768919609
 21
306.6170690311
 31
0.0
  0
LINE
  5
179
330
1F
100
AcDbEntity
  8
0
  6
Continuous
 62
     7
370
    15
100
AcDbLine
 10
446.7080309532
 20
307.9570693625
 30
0.0
 11
446.7080309532
 21
306.6170690311
 31
0.0
  0
LINE
  5
17A
330
1F
100
AcDbEntity
  8
0
  6
Continuous
 62
     7
370
    15
100
AcDbLine
 10
445.9468975208
 20
306.6170690311
 30
0.0
 11
446.7080309532
 21
306.6170690311
 31
0.0
  0
LINE
  5
17B
330
1F
100
AcDbEntity
  8
0
  6
Continuous
 62
     7
370
    15
100
AcDbLine
 10
461.1857607506
 20
307.9570693625
 30
0.0
 11
461.1857607506
 21
306.6170690311
 31
0.0
  0
LINE
  5
17C
330
1F
100
AcDbEntity
  8
0
  6
Continuous
 62
     7
370
    15
100
AcDbLine
 10
461.1857607506
 20
307.9570693625
 30
0.0
 11
461.9468941829
 21
307.9570693625
 31
0.0
  0
LINE
  5
17D
330
1F
100
AcDbEntity
  8
0
  6
Continuous
 62
     7
370
    15
100
AcDbLine
 10
461.1857607506
 20
306.6170690311
 30
0.0
 11
461.9468941829
 21
306.6170690311
 31
0.0
  0
ARC
  5
17E
330
1F
100
AcDbEntity
  8
0
  6
Continuous
 62
     7
370
    15
100
AcDbCircle
 10
416.9468948982
 20
565.663686031
 30
0.0
 40
12.71999999999994
100
AcDbArc
 50
257.5620520337
 51
266.9806646682
  0
ARC
  5
17F
330
1F
100
AcDbEntity
  8
0
  6
Continuous
 62
     7
370
    15
100
AcDbCircle
 10
416.9468948982
 20
565.663686031
 30
0.0
 40
12.71999999999995
100
AcDbArc
 50
273.0193353318
 51
321.0287158235
  0
ARC
  5
180
330
1F
100
AcDbEntity
  8
0
  6
Continuous
 62
     7
370
    15
100
AcDbCircle
 10
416.9468948982
 20
565.663686031
 30
0.0
 40
12.7200000000001
100
AcDbArc
 50
38.9712841765
 51
86.9806646682
  0
ARC
  5
181
330
1F
100
AcDbEntity
  8
0
  6
Continuous
 62
     7
370
    15
100
AcDbCircle
 10
416.9468948982
 20
565.663686031
 30
0.0
 40
12.7200000000001
100
AcDbArc
 50
93.0193353318
 51
141.0287158235
  0
ARC
  5
182
330
1F
100
AcDbEntity
  8
0
  6
Continuous
 62
     7
370
    15
100
AcDbCircle
 10
416.9468948982
 20
565.663686031
 30
0.0
 40
12.71999999999999
100
AcDbArc
 50
218.9712841765
 51
257.5620520337
  0
ARC
  5
183
330
1F
100
AcDbEntity
  8
0
  6
Continuous
 62
     7
370
    15
100
AcDbCircle
 10
453.9468948982
 20
565.663686031
 30
0.0
 40
12.71999999999994
100
AcDbArc
 50
257.5620520337
 51
266.9806646682
  0
ARC
  5
184
330
1F
100
AcDbEntity
  8
0
  6
Continuous
 62
     7
370
    15
100
AcDbCircle
 10
453.9468948982
 20
565.663686031
 30
0.0
 40
12.71999999999998
100
AcDbArc
 50
273.0193353318
 51
326.9806646682
  0
ARC
  5
185
330
1F
100
AcDbEntity
  8
0
  6
Continuous
 62
     7
370
    15
100
AcDbCircle
 10
453.9468948982
 20
565.663686031
 30
0.0
 40
12.72000000000012
100
AcDbArc
 50
333.0193353318
 51
26.9806646682
  0
ARC
  5
186
330
1F
100
AcDbEntity
  8
0
  6
Continuous
 62
     7
370
    15
100
AcDbCircle
 10
453.9468948982
 20
565.663686031
 30
0.0
 40
12.7200000000001
100
AcDbArc
 50
33.0193353318
 51
86.9806646682
  0
ARC
  5
187
330
1F
100
AcDbEntity
  8
0
  6
Continuous
 62
     7
370
    15
100
AcDbCircle
 10
453.9468948982
 20
565.663686031
 30
0.0
 40
12.7200000000001
100
AcDbArc
 50
93.0193353318
 51
141.0287158235
  0
ARC
  5
188
330
1F
100
AcDbEntity
  8
0
  6
Continuous
 62
     7
370
    15
100
AcDbCircle
 10
453.9468948982
 20
565.663686031
 30
0.0
 40
12.71999999999999
100
AcDbArc
 50
218.9712841765
 51
257.5620520337
  0
ARC
  5
189
330
1F
100
AcDbEntity
  8
0
  6
Continuous
 62
     7
370
    15
100
AcDbCircle
 10
379.9468948982
 20
565.663686031
 30
0.0
 40
12.71999999999995
100
AcDbArc
 50
257.5620520337
 51
266.9806646682
  0
ARC
  5
18A
330
1F
100
AcDbEntity
  8
0
  6
Continuous
 62
     7
370
    15
100
AcDbCircle
 10
379.9468948982
 20
565.663686031
 30
0.0
 40
12.71999999999999
100
AcDbArc
 50
273.0193353318
 51
321.0287158235
  0
ARC
  5
18B
330
1F
100
AcDbEntity
  8
0
  6
Continuous
 62
     7
370
    15
100
AcDbCircle
 10
379.9468948982
 20
565.663686031
 30
0.0
 40
12.7200000000001
100
AcDbArc
 50
38.9712841765
 51
86.9806646682
  0
ARC
  5
18C
330
1F
100
AcDbEntity
  8
0
  6
Continuous
 62
     7
370
    15
100
AcDbCircle
 10
379.9468948982
 20
565.663686031
 30
0.0
 40
12.7200000000001
100
AcDbArc
 50
93.0193353318
 51
146.9806646682
  0
ARC
  5
18D
330
1F
100
AcDbEntity
  8
0
  6
Continuous
 62
     7
370
    15
100
AcDbCircle
 10
379.9468948982
 20
565.663686031
 30
0.0
 40
12.72000000000007
100
AcDbArc
 50
153.0193353318
 51
206.9806646682
  0
ARC
  5
18E
330
1F
100
AcDbEntity
  8
0
  6
Continuous
 62
     7
370
    15
100
AcDbCircle
 10
379.9468948982
 20
565.663686031
 30
0.0
 40
12.71999999999996
100
AcDbArc
 50
213.0193353318
 51
257.5620520337
  0
CIRCLE
  5
18F
330
1F
100
AcDbEntity
  8
0
  6
Continuous
 62
     7
370
    15
100
AcDbCircle
 10
453.9468948982
 20
565.663686031
 30
0.0
 40
1.0
  0
CIRCLE
  5
190
330
1F
100
AcDbEntity
  8
0
  6
Continuous
 62
     7
370
    15
100
AcDbCircle
 10
379.9468948982
 20
565.663686031
 30
0.0
 40
1.0
  0
LINE
  5
191
330
1F
100
AcDbEntity
  8
0
  6
Continuous
 62
     7
370
    15
100
AcDbLine
 10
453.9468958519
 20
573.6636858522
 30
0.0
 11
379.9468948982
 21
573.6636858522
 31
0.0
  0
ARC
  5
192
330
1F
100
AcDbEntity
  8
0
  6
Continuous
 62
     7
370
    15
100
AcDbCircle
 10
453.9468948982
 20
565.663686031
 30
0.0
 40
8.000000000000114
100
AcDbArc
 50
270.0
 51
90.0
  0
LINE
  5
193
330
1F
100
AcDbEntity
  8
0
  6
Continuous
 62
     7
370
    15
100
AcDbLine
 10
379.9468948982
 20
557.6636862099
 30
0.0
 11
453.9468958519
 21
557.6636862099
 31
0.0
  0
ARC
  5
194
330
1F
100
AcDbEntity
  8
0
  6
Continuous
 62
     7
370
    15
100
AcDbCircle
 10
379.9468948982
 20
565.663686031
 30
0.0
 40
8.000000000000114
100
AcDbArc
 50
90.0
 51
270.0
  0
CIRCLE
  5
195
330
1F
100
AcDbEntity
  8
0
  6
Continuous
 62
     7
370
    15
100
AcDbCircle
 10
416.9468948982
 20
565.663686031
 30
0.0
 40
1.0
  0
LINE
  5
196
330
1F
100
AcDbEntity
  8
0
  6
Continuous
 62
     7
370
    15
100
AcDbLine
 10
453.2768919609
 20
556.812410438
 30
0.0
 11
453.2768919609
 21
557.6636862099
 31
0.0
  0
LINE
  5
197
330
1F
100
AcDbEntity
  8
0
  6
Continuous
 62
     7
370
    15
100
AcDbLine
 10
454.6168937824
 20
556.812410438
 30
0.0
 11
454.6168937824
 21
557.69179129
 31
0.0
  0
LINE
  5
198
330
1F
100
AcDbEntity
  8
0
  6
Continuous
 62
     7
370
    15
100
AcDbLine
 10
453.2768919609
 20
551.7430674373
 30
0.0
 11
453.2768919609
 21
556.812410438
 31
0.0
  0
LINE
  5
199
330
1F
100
AcDbEntity
  8
0
  6
Continuous
 62
     7
370
    15
100
AcDbLine
 10
454.6168937824
 20
551.7430674373
 30
0.0
 11
454.6168937824
 21
556.812410438
 31
0.0
  0
LINE
  5
19A
330
1F
100
AcDbEntity
  8
0
  6
Continuous
 62
     7
370
    15
100
AcDbLine
 10
453.2768919609
 20
550.8636858403
 30
0.0
 11
454.6168937824
 21
550.8636858403
 31
0.0
  0
LINE
  5
19B
330
1F
100
AcDbEntity
  8
0
  6
Continuous
 62
     7
370
    15
100
AcDbLine
 10
453.2768919609
 20
550.8636858403
 30
0.0
 11
453.2768919609
 21
551.7430674373
 31
0.0
  0
LINE
  5
19C
330
1F
100
AcDbEntity
  8
0
  6
Continuous
 62
     7
370
    15
100
AcDbLine
 10
454.6168937824
 20
550.8636858403
 30
0.0
 11
454.6168937824
 21
551.7430674373
 31
0.0
  0
LINE
  5
19D
330
1F
100
AcDbEntity
  8
0
  6
Continuous
 62
     7
370
    15
100
AcDbLine
 10
454.6168937824
 20
574.5149616241
 30
0.0
 11
454.6168937824
 21
573.6355807721
 31
0.0
  0
LINE
  5
19E
330
1F
100
AcDbEntity
  8
0
  6
Continuous
 62
     7
370
    15
100
AcDbLine
 10
453.2768919609
 20
574.5149616241
 30
0.0
 11
453.2768919609
 21
573.6636858522
 31
0.0
  0
LINE
  5
19F
330
1F
100
AcDbEntity
  8
0
  6
Continuous
 62
     7
370
    15
100
AcDbLine
 10
454.6168937824
 20
579.5843046247
 30
0.0
 11
454.6168937824
 21
574.5149616241
 31
0.0
  0
LINE
  5
1A0
330
1F
100
AcDbEntity
  8
0
  6
Continuous
 62
     7
370
    15
100
AcDbLine
 10
453.2768919609
 20
579.5843046247
 30
0.0
 11
453.2768919609
 21
574.5149616241
 31
0.0
  0
LINE
  5
1A1
330
1F
100
AcDbEntity
  8
0
  6
Continuous
 62
     7
370
    15
100
AcDbLine
 10
454.6168937824
 20
580.4636862218
 30
0.0
 11
453.2768919609
 21
580.4636862218
 31
0.0
  0
LINE
  5
1A2
330
1F
100
AcDbEntity
  8
0
  6
Continuous
 62
     7
370
    15
100
AcDbLine
 10
454.6168937824
 20
580.4636862218
 30
0.0
 11
454.6168937824
 21
579.5843046247
 31
0.0
  0
LINE
  5
1A3
330
1F
100
AcDbEntity
  8
0
  6
Continuous
 62
     7
370
    15
100
AcDbLine
 10
453.2768919609
 20
580.4636862218
 30
0.0
 11
453.2768919609
 21
579.5843046247
 31
0.0
  0
LINE
  5
1A4
330
1F
100
AcDbEntity
  8
0
  6
Continuous
 62
     7
370
    15
100
AcDbLine
 10
417.6168962858
 20
574.5149616241
 30
0.0
 11
417.6168962858
 21
573.6636858522
 31
0.0
  0
LINE
  5
1A5
330
1F
100
AcDbEntity
  8
0
  6
Continuous
 62
     7
370
    15
100
AcDbLine
 10
416.2768944643
 20
574.5149616241
 30
0.0
 11
416.2768944643
 21
573.6636858522
 31
0.0
  0
LINE
  5
1A6
330
1F
100
AcDbEntity
  8
0
  6
Continuous
 62
     7
370
    15
100
AcDbLine
 10
417.6168962858
 20
579.5843046247
 30
0.0
 11
417.6168962858
 21
574.5149616241
 31
0.0
  0
LINE
  5
1A7
330
1F
100
AcDbEntity
  8
0
  6
Continuous
 62
     7
370
    15
100
AcDbLine
 10
416.2768944643
 20
579.5843046247
 30
0.0
 11
416.2768944643
 21
574.5149616241
 31
0.0
  0
LINE
  5
1A8
330
1F
100
AcDbEntity
  8
0
  6
Continuous
 62
     7
370
    15
100
AcDbLine
 10
417.6168962858
 20
580.4636862218
 30
0.0
 11
416.2768944643
 21
580.4636862218
 31
0.0
  0
LINE
  5
1A9
330
1F
100
AcDbEntity
  8
0
  6
Continuous
 62
     7
370
    15
100
AcDbLine
 10
417.6168962858
 20
580.4636862218
 30
0.0
 11
417.6168962858
 21
579.5843046247
 31
0.0
  0
LINE
  5
1AA
330
1F
100
AcDbEntity
  8
0
  6
Continuous
 62
     7
370
    15
100
AcDbLine
 10
416.2768944643
 20
580.4636862218
 30
0.0
 11
416.2768944643
 21
579.5843046247
 31
0.0
  0
LWPOLYLINE
  5
1AB
330
1F
100
AcDbEntity
  8
0
  6
Continuous
 62
     7
370
    15
100
AcDbPolyline
 90
        9
 70
   128
 43
0.0
 10
372.6164653442
 20
560.6578111737
 10
372.7838485978
 20
560.754450047
 10
372.9343160532
 20
560.8413223266
 10
373.065630301
 20
560.9171364545
 10
373.1758385442
 20
560.9807655304
 10
373.263303145
 20
561.0312633305
 10
373.3267232321
 20
561.0678788363
 10
373.3651570521
 20
561.090068528
 10
373.3780316553
 20
561.0975019723
  0
LWPOLYLINE
  5
1AC
330
1F
100
AcDbEntity
  8
0
  6
Continuous
 62
     7
370
    15
100
AcDbPolyline
 90
        9
 70
   128
 43
0.0
 10
371.9464651785
 20
561.8182852953
 10
372.1138491771
 20
561.9149241685
 10
372.2643158875
 20
562.0017964482
 10
372.3956301353
 20
562.0776105761
 10
372.5058383785
 20
562.141239652
 10
372.5933029793
 20
562.1917370796
 10
372.6567238114
 20
562.2283529579
 10
372.6951568864
 20
562.2505426496
 10
372.7080314896
 20
562.2579757213
  0
LINE
  5
1AD
330
1F
100
AcDbEntity
  8
0
  6
Continuous
 62
     7
370
    15
100
AcDbLine
 10
368.2262852333
 20
558.1231396734
 30
0.0
 11
372.6164653442
 21
560.6578111737
 31
0.0
  0
LINE
  5
1AE
330
1F
100
AcDbEntity
  8
0
  6
Continuous
 62
     7
370
    15
100
AcDbLine
 10
367.5562850676
 20
559.283613795
 30
0.0
 11
371.9464651785
 21
561.8182852953
 31
0.0
  0
LINE
  5
1AF
330
1F
100
AcDbEntity
  8
0
  6
Continuous
 62
     7
370
    15
100
AcDbLine
 10
366.7947187565
 20
558.8439229965
 30
0.0
 11
367.4647189222
 21
557.6834488749
 31
0.0
  0
LWPOLYLINE
  5
1B0
330
1F
100
AcDbEntity
  8
0
  6
Continuous
 62
     7
370
    15
100
AcDbPolyline
 90
        9
 70
   128
 43
0.0
 10
367.4647189222
 20
557.6834488749
 10
367.4775935254
 20
557.6908823192
 10
367.5160273454
 20
557.7130716383
 10
367.5794474325
 20
557.7496875166
 10
367.6669120333
 20
557.8001853167
 10
367.7771210215
 20
557.8638140201
 10
367.9084345243
 20
557.939628148
 10
368.0589019797
 20
558.0265004277
 10
368.2262852333
 20
558.1231396734
  0
LWPOLYLINE
  5
1B1
330
1F
100
AcDbEntity
  8
0
  6
Continuous
 62
     7
370
    15
100
AcDbPolyline
 90
        9
 70
   128
 43
0.0
 10
366.7947187565
 20
558.8439229965
 10
366.8075933597
 20
558.8513564407
 10
366.8460279248
 20
558.8735457599
 10
366.9094472668
 20
558.9101616382
 10
366.9969126127
 20
558.9606594383
 10
367.1071201108
 20
559.0242881417
 10
367.2384351037
 20
559.1001022696
 10
367.3889025591
 20
559.1869745492
 10
367.5562850676
 20
559.283613795
  0
LWPOLYLINE
  5
1B2
330
1F
100
AcDbEntity
  8
0
  6
Continuous
 62
     7
370
    15
100
AcDbPolyline
 90
        9
 70
   128
 43
0.0
 10
461.9473233364
 20
569.5090867668
 10
461.7799415729
 20
569.4124478936
 10
461.6294756077
 20
569.3255756139
 10
461.4981606148
 20
569.249761486
 10
461.3879516266
 20
569.1861324101
 10
461.3004877708
 20
569.1356349825
 10
461.2370684288
 20
569.0990191042
 10
461.1986353538
 20
569.0768294125
 10
461.1857607506
 20
569.0693963408
  0
LWPOLYLINE
  5
1B3
330
1F
100
AcDbEntity
  8
0
  6
Continuous
 62
     7
370
    15
100
AcDbPolyline
 90
        9
 70
   128
 43
0.0
 10
461.2773254059
 20
570.6695608883
 10
461.1099436424
 20
570.5729220151
 10
460.9594717167
 20
570.4860497355
 10
460.8281626842
 20
570.4102356076
 10
460.717953696
 20
570.3466065317
 10
460.6304838798
 20
570.2961087316
 10
460.5670645378
 20
570.2594932258
 10
460.5286314628
 20
570.2373035341
 10
460.5157568596
 20
570.2298700898
  0
LINE
  5
1B4
330
1F
100
AcDbEntity
  8
0
  6
Continuous
 62
     7
370
    15
100
AcDbLine
 10
466.3375034473
 20
572.0437582671
 30
0.0
 11
461.9473233364
 21
569.5090867668
 31
0.0
  0
LINE
  5
1B5
330
1F
100
AcDbEntity
  8
0
  6
Continuous
 62
     7
370
    15
100
AcDbLine
 10
465.6675055168
 20
573.2042323887
 30
0.0
 11
461.2773254059
 21
570.6695608883
 31
0.0
  0
LINE
  5
1B6
330
1F
100
AcDbEntity
  8
0
  6
Continuous
 62
     7
370
    15
100
AcDbLine
 10
467.0990719936
 20
572.4834490656
 30
0.0
 11
466.4290681026
 21
573.6439231872
 31
0.0
  0
LWPOLYLINE
  5
1B7
330
1F
100
AcDbEntity
  8
0
  6
Continuous
 62
     7
370
    15
100
AcDbPolyline
 90
        9
 70
   128
 43
0.0
 10
467.0990719936
 20
572.4834490656
 10
467.0861973903
 20
572.4760156214
 10
467.0477643154
 20
572.4538263022
 10
466.9843449733
 20
572.4172104239
 10
466.8968751571
 20
572.3667126238
 10
466.786666169
 20
572.3030839204
 10
466.6553571365
 20
572.2272697925
 10
466.5048852108
 20
572.1403975129
 10
466.3375034473
 20
572.0437582671
  0
LWPOLYLINE
  5
1B8
330
1F
100
AcDbEntity
  8
0
  6
Continuous
 62
     7
370
    15
100
AcDbPolyline
 90
        9
 70
   128
 43
0.0
 10
466.4290681026
 20
573.6439231872
 10
466.4161934993
 20
573.6364897429
 10
466.3777604244
 20
573.6143004238
 10
466.3143410824
 20
573.5776845455
 10
466.2268772266
 20
573.5271867453
 10
466.1166682384
 20
573.463558042
 10
465.9853532455
 20
573.3877439141
 10
465.8348872802
 20
573.3008716344
 10
465.6675055168
 20
573.2042323887
  0
LINE
  5
1B9
330
1F
100
AcDbEntity
  8
0
  6
Continuous
 62
     7
370
    15
100
AcDbLine
 10
380.6168948776
 20
574.5149616241
 30
0.0
 11
380.6168948776
 21
573.6636858522
 31
0.0
  0
LINE
  5
1BA
330
1F
100
AcDbEntity
  8
0
  6
Continuous
 62
     7
370
    15
100
AcDbLine
 10
379.2768949188
 20
574.5149616241
 30
0.0
 11
379.2768949188
 21
573.6355807721
 31
0.0
  0
LINE
  5
1BB
330
1F
100
AcDbEntity
  8
0
  6
Continuous
 62
     7
370
    15
100
AcDbLine
 10
380.6168948776
 20
579.5843046247
 30
0.0
 11
380.6168948776
 21
574.5149616241
 31
0.0
  0
LINE
  5
1BC
330
1F
100
AcDbEntity
  8
0
  6
Continuous
 62
     7
370
    15
100
AcDbLine
 10
379.2768949188
 20
579.5843046247
 30
0.0
 11
379.2768949188
 21
574.5149616241
 31
0.0
  0
LINE
  5
1BD
330
1F
100
AcDbEntity
  8
0
  6
Continuous
 62
     7
370
    15
100
AcDbLine
 10
380.6168948776
 20
580.4636862218
 30
0.0
 11
379.2768949188
 21
580.4636862218
 31
0.0
  0
LINE
  5
1BE
330
1F
100
AcDbEntity
  8
0
  6
Continuous
 62
     7
370
    15
100
AcDbLine
 10
380.6168948776
 20
580.4636862218
 30
0.0
 11
380.6168948776
 21
579.5843046247
 31
0.0
  0
LINE
  5
1BF
330
1F
100
AcDbEntity
  8
0
  6
Continuous
 62
     7
370
    15
100
AcDbLine
 10
379.2768949188
 20
580.4636862218
 30
0.0
 11
379.2768949188
 21
579.5843046247
 31
0.0
  0
LINE
  5
1C0
330
1F
100
AcDbEntity
  8
0
  6
Continuous
 62
     7
370
    15
100
AcDbLine
 10
416.2768944643
 20
556.812410438
 30
0.0
 11
416.2768944643
 21
557.6636862099
 31
0.0
  0
LINE
  5
1C1
330
1F
100
AcDbEntity
  8
0
  6
Continuous
 62
     7
370
    15
100
AcDbLine
 10
417.6168962858
 20
556.812410438
 30
0.0
 11
417.6168962858
 21
557.6636862099
 31
0.0
  0
LINE
  5
1C2
330
1F
100
AcDbEntity
  8
0
  6
Continuous
 62
     7
370
    15
100
AcDbLine
 10
416.2768944643
 20
551.7430674373
 30
0.0
 11
416.2768944643
 21
556.812410438
 31
0.0
  0
LINE
  5
1C3
330
1F
100
AcDbEntity
  8
0
  6
Continuous
 62
     7
370
    15
100
AcDbLine
 10
417.6168962858
 20
551.7430674373
 30
0.0
 11
417.6168962858
 21
556.812410438
 31
0.0
  0
LINE
  5
1C4
330
1F
100
AcDbEntity
  8
0
  6
Continuous
 62
     7
370
    15
100
AcDbLine
 10
416.2768944643
 20
550.8636858403
 30
0.0
 11
417.6168962858
 21
550.8636858403
 31
0.0
  0
LINE
  5
1C5
330
1F
100
AcDbEntity
  8
0
  6
Continuous
 62
     7
370
    15
100
AcDbLine
 10
416.2768944643
 20
550.8636858403
 30
0.0
 11
416.2768944643
 21
551.7430674373
 31
0.0
  0
LINE
  5
1C6
330
1F
100
AcDbEntity
  8
0
  6
Continuous
 62
     7
370
    15
100
AcDbLine
 10
417.6168962858
 20
550.8636858403
 30
0.0
 11
417.6168962858
 21
551.7430674373
 31
0.0
  0
LWPOLYLINE
  5
1C7
330
1F
100
AcDbEntity
  8
0
  6
Continuous
 62
     7
370
    15
100
AcDbPolyline
 90
        9
 70
   128
 43
0.0
 10
371.9464651785
 20
569.5090867668
 10
372.1138491771
 20
569.4124478936
 10
372.2643158875
 20
569.3255756139
 10
372.3956301353
 20
569.249761486
 10
372.5058383785
 20
569.1861324101
 10
372.5933029793
 20
569.1356349825
 10
372.6567238114
 20
569.0990191042
 10
372.6951568864
 20
569.0768294125
 10
372.7080314896
 20
569.0693963408
  0
LWPOLYLINE
  5
1C8
330
1F
100
AcDbEntity
  8
0
  6
Continuous
 62
     7
370
    15
100
AcDbPolyline
 90
        9
 70
   128
 43
0.0
 10
372.6164653442
 20
570.6695608883
 10
372.7838485978
 20
570.5729220151
 10
372.9343160532
 20
570.4860497355
 10
373.065630301
 20
570.4102356076
 10
373.1758385442
 20
570.3466065317
 10
373.263303145
 20
570.2961087316
 10
373.3267232321
 20
570.2594932258
 10
373.3651570521
 20
570.2373035341
 10
373.3780316553
 20
570.2298700898
  0
LINE
  5
1C9
330
1F
100
AcDbEntity
  8
0
  6
Continuous
 62
     7
370
    15
100
AcDbLine
 10
367.5562850676
 20
572.0437582671
 30
0.0
 11
371.9464651785
 21
569.5090867668
 31
0.0
  0
LINE
  5
1CA
330
1F
100
AcDbEntity
  8
0
  6
Continuous
 62
     7
370
    15
100
AcDbLine
 10
368.2262852333
 20
573.2042323887
 30
0.0
 11
372.6164653442
 21
570.6695608883
 31
0.0
  0
LINE
  5
1CB
330
1F
100
AcDbEntity
  8
0
  6
Continuous
 62
     7
370
    15
100
AcDbLine
 10
367.4647189222
 20
573.6439231872
 30
0.0
 11
366.7947187565
 21
572.4834490656
 31
0.0
  0
LWPOLYLINE
  5
1CC
330
1F
100
AcDbEntity
  8
0
  6
Continuous
 62
     7
370
    15
100
AcDbPolyline
 90
        9
 70
   128
 43
0.0
 10
366.7947187565
 20
572.4834490656
 10
366.8075933597
 20
572.4760156214
 10
366.8460279248
 20
572.4538263022
 10
366.9094472668
 20
572.4172104239
 10
366.9969126127
 20
572.3667126238
 10
367.1071201108
 20
572.3030839204
 10
367.2384351037
 20
572.2272697925
 10
367.3889025591
 20
572.1403975129
 10
367.5562850676
 20
572.0437582671
  0
LWPOLYLINE
  5
1CD
330
1F
100
AcDbEntity
  8
0
  6
Continuous
 62
     7
370
    15
100
AcDbPolyline
 90
        9
 70
   128
 43
0.0
 10
367.4647189222
 20
573.6439231872
 10
367.4775935254
 20
573.6364897429
 10
367.5160273454
 20
573.6143004238
 10
367.5794474325
 20
573.5776845455
 10
367.6669120333
 20
573.5271867453
 10
367.7771210215
 20
573.463558042
 10
367.9084345243
 20
573.3877439141
 10
368.0589019797
 20
573.3008716344
 10
368.2262852333
 20
573.2042323887
  0
LWPOLYLINE
  5
1CE
330
1F
100
AcDbEntity
  8
0
  6
Continuous
 62
     7
370
    15
100
AcDbPolyline
 90
        9
 70
   128
 43
0.0
 10
461.2773254059
 20
560.6578111737
 10
461.1099436424
 20
560.754450047
 10
460.9594717167
 20
560.8413223266
 10
460.8281626842
 20
560.9171364545
 10
460.717953696
 20
560.9807655304
 10
460.6304838798
 20
561.0312633305
 10
460.5670645378
 20
561.0678788363
 10
460.5286314628
 20
561.090068528
 10
460.5157568596
 20
561.0975019723
  0
LWPOLYLINE
  5
1CF
330
1F
100
AcDbEntity
  8
0
  6
Continuous
 62
     7
370
    15
100
AcDbPolyline
 90
        9
 70
   128
 43
0.0
 10
461.9473233364
 20
561.8182852953
 10
461.7799415729
 20
561.9149241685
 10
461.6294756077
 20
562.0017964482
 10
461.4981606148
 20
562.0776105761
 10
461.3879516266
 20
562.141239652
 10
461.3004877708
 20
562.1917370796
 10
461.2370684288
 20
562.2283529579
 10
461.1986353538
 20
562.2505426496
 10
461.1857607506
 20
562.2579757213
  0
LINE
  5
1D0
330
1F
100
AcDbEntity
  8
0
  6
Continuous
 62
     7
370
    15
100
AcDbLine
 10
465.6675055168
 20
558.1231396734
 30
0.0
 11
461.2773254059
 21
560.6578111737
 31
0.0
  0
LINE
  5
1D1
330
1F
100
AcDbEntity
  8
0
  6
Continuous
 62
     7
370
    15
100
AcDbLine
 10
466.3375034473
 20
559.283613795
 30
0.0
 11
461.9473233364
 21
561.8182852953
 31
0.0
  0
LINE
  5
1D2
330
1F
100
AcDbEntity
  8
0
  6
Continuous
 62
     7
370
    15
100
AcDbLine
 10
466.4290681026
 20
557.6834488749
 30
0.0
 11
467.0990719936
 21
558.8439229965
 31
0.0
  0
LWPOLYLINE
  5
1D3
330
1F
100
AcDbEntity
  8
0
  6
Continuous
 62
     7
370
    15
100
AcDbPolyline
 90
        9
 70
   128
 43
0.0
 10
466.4290681026
 20
557.6834488749
 10
466.4161934993
 20
557.6908823192
 10
466.3777604244
 20
557.7130716383
 10
466.3143410824
 20
557.7496875166
 10
466.2268772266
 20
557.8001853167
 10
466.1166682384
 20
557.8638140201
 10
465.9853532455
 20
557.939628148
 10
465.8348872802
 20
558.0265004277
 10
465.6675055168
 20
558.1231396734
  0
LWPOLYLINE
  5
1D4
330
1F
100
AcDbEntity
  8
0
  6
Continuous
 62
     7
370
    15
100
AcDbPolyline
 90
        9
 70
   128
 43
0.0
 10
467.0990719936
 20
558.8439229965
 10
467.0861973903
 20
558.8513564407
 10
467.0477643154
 20
558.8735457599
 10
466.9843449733
 20
558.9101616382
 10
466.8968751571
 20
558.9606594383
 10
466.786666169
 20
559.0242881417
 10
466.6553571365
 20
559.1001022696
 10
466.5048852108
 20
559.1869745492
 10
466.3375034473
 20
559.283613795
  0
LINE
  5
1D5
330
1F
100
AcDbEntity
  8
0
  6
Continuous
 62
     7
370
    15
100
AcDbLine
 10
379.2768949188
 20
556.812410438
 30
0.0
 11
379.2768949188
 21
557.69179129
 31
0.0
  0
LINE
  5
1D6
330
1F
100
AcDbEntity
  8
0
  6
Continuous
 62
     7
370
    15
100
AcDbLine
 10
380.6168948776
 20
556.812410438
 30
0.0
 11
380.6168948776
 21
557.6636862099
 31
0.0
  0
LINE
  5
1D7
330
1F
100
AcDbEntity
  8
0
  6
Continuous
 62
     7
370
    15
100
AcDbLine
 10
379.2768949188
 20
551.7430674373
 30
0.0
 11
379.2768949188
 21
556.812410438
 31
0.0
  0
LINE
  5
1D8
330
1F
100
AcDbEntity
  8
0
  6
Continuous
 62
     7
370
    15
100
AcDbLine
 10
380.6168948776
 20
551.7430674373
 30
0.0
 11
380.6168948776
 21
556.812410438
 31
0.0
  0
LINE
  5
1D9
330
1F
100
AcDbEntity
  8
0
  6
Continuous
 62
     7
370
    15
100
AcDbLine
 10
379.2768949188
 20
550.8636858403
 30
0.0
 11
380.6168948776
 21
550.8636858403
 31
0.0
  0
LINE
  5
1DA
330
1F
100
AcDbEntity
  8
0
  6
Continuous
 62
     7
370
    15
100
AcDbLine
 10
379.2768949188
 20
550.8636858403
 30
0.0
 11
379.2768949188
 21
551.7430674373
 31
0.0
  0
LINE
  5
1DB
330
1F
100
AcDbEntity
  8
0
  6
Continuous
 62
     7
370
    15
100
AcDbLine
 10
380.6168948776
 20
550.8636858403
 30
0.0
 11
380.6168948776
 21
551.7430674373
 31
0.0
  0
ARC
  5
1DC
330
1F
100
AcDbEntity
  8
0
  6
Continuous
 62
     7
370
    15
100
AcDbCircle
 10
416.9468948982
 20
565.663686031
 30
0.0
 40
12.00000000000013
100
AcDbArc
 50
41.8103148958
 51
77.5620520337
  0
ARC
  5
1DD
330
1F
100
AcDbEntity
  8
0
  6
Continuous
 62
     7
370
    15
100
AcDbCircle
 10
416.9468948982
 20
565.663686031
 30
0.0
 40
11.99999999999995
100
AcDbArc
 50
273.2006787726
 51
318.1896851042
  0
ARC
  5
1DE
330
1F
100
AcDbEntity
  8
0
  6
Continuous
 62
     7
370
    15
100
AcDbCircle
 10
416.9468948982
 20
565.663686031
 30
0.0
 40
11.99999999999999
100
AcDbArc
 50
221.8103148958
 51
266.7993212274
  0
ARC
  5
1DF
330
1F
100
AcDbEntity
  8
0
  6
Continuous
 62
     7
370
    15
100
AcDbCircle
 10
416.9468948982
 20
565.663686031
 30
0.0
 40
12.00000000000013
100
AcDbArc
 50
93.2006787726
 51
138.1896851042
  0
ARC
  5
1E0
330
1F
100
AcDbEntity
  8
0
  6
Continuous
 62
     7
370
    15
100
AcDbCircle
 10
416.9468948982
 20
565.663686031
 30
0.0
 40
12.00000000000013
100
AcDbArc
 50
77.5620520337
 51
86.7993212274
  0
ARC
  5
1E1
330
1F
100
AcDbEntity
  8
0
  6
Continuous
 62
     7
370
    15
100
AcDbCircle
 10
416.9468948982
 20
565.663686031
 30
0.0
 40
12.16000000000014
100
AcDbArc
 50
41.1395104149
 51
77.5620520337
  0
ARC
  5
1E2
330
1F
100
AcDbEntity
  8
0
  6
Continuous
 62
     7
370
    15
100
AcDbCircle
 10
416.9468948982
 20
565.663686031
 30
0.0
 40
12.15999999999992
100
AcDbArc
 50
273.1585215797
 51
318.8604895851
  0
ARC
  5
1E3
330
1F
100
AcDbEntity
  8
0
  6
Continuous
 62
     7
370
    15
100
AcDbCircle
 10
416.9468948982
 20
565.663686031
 30
0.0
 40
12.16000000000003
100
AcDbArc
 50
221.1395104149
 51
266.8414784204
  0
ARC
  5
1E4
330
1F
100
AcDbEntity
  8
0
  6
Continuous
 62
     7
370
    15
100
AcDbCircle
 10
416.9468948982
 20
565.663686031
 30
0.0
 40
12.16000000000009
100
AcDbArc
 50
93.1585215796
 51
138.8604895851
  0
ARC
  5
1E5
330
1F
100
AcDbEntity
  8
0
  6
Continuous
 62
     7
370
    15
100
AcDbCircle
 10
416.9468948982
 20
565.663686031
 30
0.0
 40
12.16000000000014
100
AcDbArc
 50
77.5620520337
 51
86.8414784204
  0
ARC
  5
1E6
330
1F
100
AcDbEntity
  8
0
  6
Continuous
 62
     7
370
    15
100
AcDbCircle
 10
453.9468948982
 20
565.663686031
 30
0.0
 40
12.00000000000014
100
AcDbArc
 50
33.2006787726
 51
77.5620520337
  0
ARC
  5
1E7
330
1F
100
AcDbEntity
  8
0
  6
Continuous
 62
     7
370
    15
100
AcDbCircle
 10
453.9468948982
 20
565.663686031
 30
0.0
 40
12.00000000000009
100
AcDbArc
 50
333.2006787726
 51
26.7993212274
  0
ARC
  5
1E8
330
1F
100
AcDbEntity
  8
0
  6
Continuous
 62
     7
370
    15
100
AcDbCircle
 10
453.9468948982
 20
565.663686031
 30
0.0
 40
11.99999999999995
100
AcDbArc
 50
273.2006787726
 51
326.7993212274
  0
ARC
  5
1E9
330
1F
100
AcDbEntity
  8
0
  6
Continuous
 62
     7
370
    15
100
AcDbCircle
 10
453.9468948982
 20
565.663686031
 30
0.0
 40
11.99999999999995
100
AcDbArc
 50
221.8103148958
 51
266.7993212274
  0
ARC
  5
1EA
330
1F
100
AcDbEntity
  8
0
  6
Continuous
 62
     7
370
    15
100
AcDbCircle
 10
453.9468948982
 20
565.663686031
 30
0.0
 40
12.00000000000013
100
AcDbArc
 50
93.2006787726
 51
138.1896851042
  0
ARC
  5
1EB
330
1F
100
AcDbEntity
  8
0
  6
Continuous
 62
     7
370
    15
100
AcDbCircle
 10
453.9468948982
 20
565.663686031
 30
0.0
 40
12.00000000000014
100
AcDbArc
 50
77.5620520337
 51
86.7993212274
  0
ARC
  5
1EC
330
1F
100
AcDbEntity
  8
0
  6
Continuous
 62
     7
370
    15
100
AcDbCircle
 10
453.9468948982
 20
565.663686031
 30
0.0
 40
12.16000000000015
100
AcDbArc
 50
33.1585215796
 51
77.5620520337
  0
ARC
  5
1ED
330
1F
100
AcDbEntity
  8
0
  6
Continuous
 62
     7
370
    15
100
AcDbCircle
 10
453.9468948982
 20
565.663686031
 30
0.0
 40
12.16000000000003
100
AcDbArc
 50
333.1585215797
 51
26.8414784203
  0
ARC
  5
1EE
330
1F
100
AcDbEntity
  8
0
  6
Continuous
 62
     7
370
    15
100
AcDbCircle
 10
453.9468948982
 20
565.663686031
 30
0.0
 40
12.16
100
AcDbArc
 50
273.1585215797
 51
326.8414784204
  0
ARC
  5
1EF
330
1F
100
AcDbEntity
  8
0
  6
Continuous
 62
     7
370
    15
100
AcDbCircle
 10
453.9468948982
 20
565.663686031
 30
0.0
 40
12.15999999999992
100
AcDbArc
 50
221.1395104149
 51
266.8414784204
  0
ARC
  5
1F0
330
1F
100
AcDbEntity
  8
0
  6
Continuous
 62
     7
370
    15
100
AcDbCircle
 10
453.9468948982
 20
565.663686031
 30
0.0
 40
12.16000000000008
100
AcDbArc
 50
93.1585215796
 51
138.8604895851
  0
ARC
  5
1F1
330
1F
100
AcDbEntity
  8
0
  6
Continuous
 62
     7
370
    15
100
AcDbCircle
 10
453.9468948982
 20
565.663686031
 30
0.0
 40
12.16000000000015
100
AcDbArc
 50
77.5620520337
 51
86.8414784204
  0
ARC
  5
1F2
330
1F
100
AcDbEntity
  8
0
  6
Continuous
 62
     7
370
    15
100
AcDbCircle
 10
379.9468948982
 20
565.663686031
 30
0.0
 40
12.00000000000013
100
AcDbArc
 50
41.8103148958
 51
77.5620520337
  0
ARC
  5
1F3
330
1F
100
AcDbEntity
  8
0
  6
Continuous
 62
     7
370
    15
100
AcDbCircle
 10
379.9468948982
 20
565.663686031
 30
0.0
 40
11.99999999999995
100
AcDbArc
 50
273.2006787726
 51
318.1896851042
  0
ARC
  5
1F4
330
1F
100
AcDbEntity
  8
0
  6
Continuous
 62
     7
370
    15
100
AcDbCircle
 10
379.9468948982
 20
565.663686031
 30
0.0
 40
11.99999999999998
100
AcDbArc
 50
213.2006787726
 51
266.7993212274
  0
ARC
  5
1F5
330
1F
100
AcDbEntity
  8
0
  6
Continuous
 62
     7
370
    15
100
AcDbCircle
 10
379.9468948982
 20
565.663686031
 30
0.0
 40
12.00000000000004
100
AcDbArc
 50
153.2006787726
 51
206.7993212274
  0
ARC
  5
1F6
330
1F
100
AcDbEntity
  8
0
  6
Continuous
 62
     7
370
    15
100
AcDbCircle
 10
379.9468948982
 20
565.663686031
 30
0.0
 40
12.00000000000014
100
AcDbArc
 50
93.2006787726
 51
146.7993212274
  0
ARC
  5
1F7
330
1F
100
AcDbEntity
  8
0
  6
Continuous
 62
     7
370
    15
100
AcDbCircle
 10
379.9468948982
 20
565.663686031
 30
0.0
 40
12.00000000000013
100
AcDbArc
 50
77.5620520337
 51
86.7993212274
  0
ARC
  5
1F8
330
1F
100
AcDbEntity
  8
0
  6
Continuous
 62
     7
370
    15
100
AcDbCircle
 10
379.9468948982
 20
565.663686031
 30
0.0
 40
12.16000000000014
100
AcDbArc
 50
41.1395104149
 51
77.5620520337
  0
ARC
  5
1F9
330
1F
100
AcDbEntity
  8
0
  6
Continuous
 62
     7
370
    15
100
AcDbCircle
 10
379.9468948982
 20
565.663686031
 30
0.0
 40
12.15999999999992
100
AcDbArc
 50
273.1585215797
 51
318.8604895851
  0
ARC
  5
1FA
330
1F
100
AcDbEntity
  8
0
  6
Continuous
 62
     7
370
    15
100
AcDbCircle
 10
379.9468948982
 20
565.663686031
 30
0.0
 40
12.16000000000003
100
AcDbArc
 50
213.1585215797
 51
266.8414784204
  0
ARC
  5
1FB
330
1F
100
AcDbEntity
  8
0
  6
Continuous
 62
     7
370
    15
100
AcDbCircle
 10
379.9468948982
 20
565.663686031
 30
0.0
 40
12.16000000000003
100
AcDbArc
 50
153.1585215796
 51
206.8414784204
  0
ARC
  5
1FC
330
1F
100
AcDbEntity
  8
0
  6
Continuous
 62
     7
370
    15
100
AcDbCircle
 10
379.9468948982
 20
565.663686031
 30
0.0
 40
12.16000000000008
100
AcDbArc
 50
93.1585215796
 51
146.8414784204
  0
ARC
  5
1FD
330
1F
100
AcDbEntity
  8
0
  6
Continuous
 62
     7
370
    15
100
AcDbCircle
 10
379.9468948982
 20
565.663686031
 30
0.0
 40
12.16000000000014
100
AcDbArc
 50
77.5620520337
 51
86.8414784204
  0
LINE
  5
1FE
330
1F
100
AcDbEntity
  8
0
  6
Continuous
 62
     7
370
    15
100
AcDbLine
 10
744.3095831454
 20
564.8561360357
 30
0.0
 11
744.3095831454
 21
565.95030069
 31
0.0
  0
LINE
  5
1FF
330
1F
100
AcDbEntity
  8
0
  6
Continuous
 62
     7
370
    15
100
AcDbLine
 10
675.9836838242
 20
596.1573996961
 30
0.0
 11
675.9836838242
 21
595.0632350417
 31
0.0
  0
LINE
  5
200
330
1F
100
AcDbEntity
  8
0
  6
Continuous
 62
     7
370
    15
100
AcDbLine
 10
744.3095831454
 20
563.7619713813
 30
0.0
 11
744.3095831454
 21
564.8561360357
 31
0.0
  0
LINE
  5
201
330
1F
100
AcDbEntity
  8
0
  6
Continuous
 62
     7
370
    15
100
AcDbLine
 10
675.9836838242
 20
595.0632350417
 30
0.0
 11
675.9836838242
 21
593.9690703874
 31
0.0
  0
LINE
  5
202
330
1F
100
AcDbEntity
  8
0
  6
Continuous
 62
     7
370
    15
100
AcDbLine
 10
725.7849363433
 20
532.3246597318
 30
0.0
 11
726.7324607181
 21
531.7776655534
 31
0.0
  0
LINE
  5
203
330
1F
100
AcDbEntity
  8
0
  6
Continuous
 62
     7
370
    15
100
AcDbLine
 10
686.9551285771
 20
560.0012719557
 30
0.0
 11
688.2494693584
 21
560.2014854138
 31
0.0
  0
LINE
  5
204
330
1F
100
AcDbEntity
  8
0
  6
Continuous
 62
     7
370
    15
100
AcDbLine
 10
746.834231528
 20
560.3896192097
 30
0.0
 11
745.8867071532
 21
560.9366133882
 31
0.0
  0
LINE
  5
205
330
1F
100
AcDbEntity
  8
0
  6
Continuous
 62
     7
370
    15
100
AcDbLine
 10
724.1511859372
 20
550.983709293
 30
0.0
 11
724.3095848575
 21
551.3249729914
 31
0.0
  0
LINE
  5
206
330
1F
100
AcDbEntity
  8
0
  6
Continuous
 62
     7
370
    15
100
AcDbLine
 10
697.9882357498
 20
566.0872589481
 30
0.0
 11
698.1466346701
 21
566.4285226465
 31
0.0
  0
LINE
  5
207
330
1F
100
AcDbEntity
  8
0
  6
Continuous
 62
     7
370
    15
100
AcDbLine
 10
713.1180787645
 20
544.8977223006
 30
0.0
 11
714.4124200726
 21
545.0979354546
 31
0.0
  0
LINE
  5
208
330
1F
100
AcDbEntity
  8
0
  6
Continuous
 62
     7
370
    15
100
AcDbLine
 10
669.9791313718
 20
587.0412198305
 30
0.0
 11
669.6323133848
 21
586.2940131064
 31
0.0
  0
LINE
  5
209
330
1F
100
AcDbEntity
  8
0
  6
Continuous
 62
     7
370
    15
100
AcDbLine
 10
750.3141371783
 20
535.8801590296
 30
0.0
 11
750.660956219
 21
536.6273651455
 31
0.0
  0
LINE
  5
20A
330
1F
100
AcDbEntity
  8
0
  6
Continuous
 62
     7
370
    15
100
AcDbLine
 10
699.6219872096
 20
547.4282087787
 30
0.0
 11
700.5695115844
 21
546.8812146002
 31
0.0
  0
LINE
  5
20B
330
1F
100
AcDbEntity
  8
0
  6
Continuous
 62
     7
370
    15
100
AcDbLine
 10
739.2810300055
 20
529.7941720372
 30
0.0
 11
740.5753692064
 21
529.9943864078
 31
0.0
  0
LINE
  5
20C
330
1F
100
AcDbEntity
  8
0
  6
Continuous
 62
     7
370
    15
100
AcDbLine
 10
673.459036627
 20
562.5317586618
 30
0.0
 11
674.4065596847
 21
561.9847652437
 31
0.0
  0
LINE
  5
20D
330
1F
100
AcDbEntity
  8
0
  6
Continuous
 62
     7
370
    15
100
AcDbLine
 10
722.3050349076
 20
556.8341186955
 30
0.0
 11
721.9582158669
 21
556.0869125796
 31
0.0
  0
LINE
  5
20E
330
1F
100
AcDbEntity
  8
0
  6
Continuous
 62
     7
370
    15
100
AcDbLine
 10
696.1420815592
 20
571.9376701755
 30
0.0
 11
695.7952646258
 21
571.190462843
 31
0.0
  0
LINE
  5
20F
330
1F
100
AcDbEntity
  8
0
  6
Continuous
 62
     7
370
    15
100
AcDbLine
 10
675.9836838242
 20
593.9690703874
 30
0.0
 11
675.9836838242
 21
592.8749054289
 31
0.0
  0
LINE
  5
210
330
1F
100
AcDbEntity
  8
0
  6
Continuous
 62
     7
370
    15
100
AcDbLine
 10
744.3095831454
 20
562.6678064228
 30
0.0
 11
744.3095831454
 21
563.7619713813
 31
0.0
  0
ARC
  5
211
330
1F
100
AcDbEntity
  8
0
  6
Continuous
 62
     7
370
    15
100
AcDbCircle
 10
703.2214884697
 20
568.1488877061
 30
0.0
 40
5.069965165148655
100
AcDbArc
 50
146.8957666944
 51
180.6502592156
  0
LINE
  5
212
330
1F
100
AcDbEntity
  8
0
  6
Continuous
 62
     7
370
    15
100
AcDbLine
 10
722.1466349337
 20
556.4928539574
 30
0.0
 11
722.1466349337
 21
565.4068028561
 31
0.0
  0
LINE
  5
213
330
1F
100
AcDbEntity
  8
0
  6
Continuous
 62
     7
370
    15
100
AcDbLine
 10
698.1466346701
 20
568.0958750773
 30
0.0
 11
698.1466346701
 21
554.9082123354
 31
0.0
  0
LWPOLYLINE
  5
214
330
1F
100
AcDbEntity
  8
0
  6
Continuous
 62
     7
370
    15
100
AcDbPolyline
 90
       15
 70
   128
 43
0.0
 10
698.1466338798
 20
557.4148389147
 10
698.1197204829
 20
557.3733456739
 10
697.8549047214
 20
556.8572920098
 10
697.6530724201
 20
556.3317362407
 10
697.5149645732
 20
555.7999894232
 10
697.4407418657
 20
555.2651712003
 10
697.4301461479
 20
554.7300596977
 10
697.4827253951
 20
554.1970705202
 10
697.5978853367
 20
553.6687536927
 10
697.7750264336
 20
553.1471890157
 10
698.0135623179
 20
552.6344151926
 10
698.312751732
 20
552.1326758773
 10
698.6715188774
 20
551.6444351879
 10
699.0883016866
 20
551.1723168873
 10
699.2076931717
 20
551.057818884
  0
LWPOLYLINE
  5
215
330
1F
100
AcDbEntity
  8
0
  6
Continuous
 62
     7
370
    15
100
AcDbPolyline
 90
       15
 70
   128
 43
0.0
 10
701.5694287065
 20
549.3459301713
 10
701.955983796
 20
549.1403951232
 10
702.6644538802
 20
548.8144521143
 10
703.4097144754
 20
548.5192272971
 10
704.1880113508
 20
548.2560205221
 10
704.995465943
 20
548.0259820103
 10
705.8280901062
 20
547.8301111346
 10
706.6817945425
 20
547.669258854
 10
707.5523940699
 20
547.5441258866
 10
708.4356376519
 20
547.4552581492
 10
709.327213139
 20
547.403042193
 10
710.2227693959
 20
547.3877082461
 10
711.1179431701
 20
547.4093189594
 10
712.0083522432
 20
547.467777619
 10
712.8123486864
 20
547.5544850763
  0
LWPOLYLINE
  5
216
330
1F
100
AcDbEntity
  8
0
  6
Continuous
 62
     7
370
    15
100
AcDbPolyline
 90
       13
 70
   128
 43
0.0
 10
714.6243257341
 20
547.8648670872
 10
715.4362650144
 20
548.0625176218
 10
716.2389248756
 20
548.2981957437
 10
717.0118397303
 20
548.5668728042
 10
717.75121544
 20
548.8674096085
 10
718.4533874021
 20
549.1985495325
 10
719.1148410675
 20
549.5589060373
 10
719.7321902867
 20
549.9469696331
 10
720.3022005979
 20
550.3610848276
 10
720.8216810524
 20
550.7993657788
 10
721.2876642486
 20
551.2597247973
 10
721.6973761338
 20
551.7398159796
 10
721.8404733772
 20
551.9425398497
  0
LINE
  5
217
330
1F
100
AcDbEntity
  8
0
  6
Continuous
 62
     7
370
    15
100
AcDbLine
 10
722.3370759955
 20
557.0613873241
 30
0.0
 11
722.1466333532
 21
557.4125829627
 31
0.0
  0
ARC
  5
218
330
1F
100
AcDbEntity
  8
0
  6
Continuous
 62
     7
370
    15
100
AcDbCircle
 10
742.0846514147
 20
552.6217339729
 30
0.0
 40
6.280257896926003
100
AcDbArc
 50
19.9258239623
 51
49.6867917289
  0
ARC
  5
219
330
1F
100
AcDbEntity
  8
0
  6
Continuous
 62
     7
370
    15
100
AcDbCircle
 10
729.384469205
 20
553.045329462
 30
0.0
 40
5.069996660345178
100
AcDbArc
 50
146.8958746785
 51
180.6501512315
  0
ARC
  5
21A
330
1F
100
AcDbEntity
  8
0
  6
Continuous
 62
     7
370
    15
100
AcDbCircle
 10
739.6952790869
 20
550.21613773
 30
0.0
 40
9.664063471200183
100
AcDbArc
 50
48.1118927817
 51
62.3287118026
  0
LINE
  5
21B
330
1F
100
AcDbEntity
  8
0
  6
Continuous
 62
     7
370
    15
100
AcDbLine
 10
748.3095861748
 20
539.804662072
 30
0.0
 11
748.3095861748
 21
551.2894938745
 31
0.0
  0
LINE
  5
21C
330
1F
100
AcDbEntity
  8
0
  6
Continuous
 62
     7
370
    15
100
AcDbLine
 10
724.3095859112
 20
552.992324814
 30
0.0
 11
724.3095859112
 21
539.804662072
 31
0.0
  0
LINE
  5
21D
330
1F
100
AcDbEntity
  8
0
  6
Continuous
 62
     7
370
    15
100
AcDbLine
 10
741.5095872942
 20
558.1354746641
 30
0.0
 11
741.5095872942
 21
559.1581993051
 31
0.0
  0
LWPOLYLINE
  5
21E
330
1F
100
AcDbEntity
  8
0
  6
Continuous
 62
     7
370
    15
100
AcDbPolyline
 90
       15
 70
   128
 43
0.0
 10
724.3095851209
 20
542.3112886514
 10
724.282671724
 20
542.2697954105
 10
724.0178538551
 20
541.753742963
 10
723.8160236612
 20
541.2281859773
 10
723.6779158143
 20
540.6964391598
 10
723.6036931067
 20
540.161620937
 10
723.593097389
 20
539.6265094343
 10
723.6456766362
 20
539.0935202568
 10
723.7608386851
 20
538.5652022128
 10
723.9379776747
 20
538.0436387523
 10
724.1765114517
 20
537.5308661457
 10
724.4757050804
 20
537.0291243974
 10
724.8344701185
 20
536.5408849245
 10
725.251255035
 20
536.0687654074
 10
725.3706444128
 20
535.9542686207
  0
LWPOLYLINE
  5
21F
330
1F
100
AcDbEntity
  8
0
  6
Continuous
 62
     7
370
    15
100
AcDbPolyline
 90
       15
 70
   128
 43
0.0
 10
727.732382055
 20
534.2423786914
 10
728.1189350371
 20
534.0368448598
 10
728.8274051213
 20
533.710901851
 10
729.5726657164
 20
533.4156770337
 10
730.3509604846
 20
533.1524714753
 10
731.158417184
 20
532.922431747
 10
731.9910434546
 20
532.7265596547
 10
732.8447457836
 20
532.5657085906
 10
733.7153474184
 20
532.4405744066
 10
734.598588893
 20
532.3517078859
 10
735.4901622727
 20
532.2994931461
 10
736.3857227443
 20
532.2841567662
 10
737.2808944112
 20
532.3057686961
 10
738.1713013769
 20
532.3642285722
 10
738.9752999275
 20
532.450934813
  0
LWPOLYLINE
  5
220
330
1F
100
AcDbEntity
  8
0
  6
Continuous
 62
     7
370
    15
100
AcDbPolyline
 90
       14
 70
   128
 43
0.0
 10
740.7872769752
 20
532.7613168238
 10
741.5992162555
 20
532.9589673584
 10
742.4018761167
 20
533.1946454803
 10
743.1747909714
 20
533.4633225409
 10
743.9141666811
 20
533.7638593451
 10
744.6163407505
 20
534.0949980525
 10
745.2777902012
 20
534.4553569904
 10
745.8951436351
 20
534.8434181532
 10
746.465151839
 20
535.2575345642
 10
746.9846322935
 20
535.6958155154
 10
747.4506154897
 20
536.1561745339
 10
747.8603273748
 20
536.6362657163
 10
748.211263109
 20
537.1334241076
 10
748.5000272366
 20
537.6424243466
  0
LINE
  5
221
330
1F
100
AcDbEntity
  8
0
  6
Continuous
 62
     7
370
    15
100
AcDbLine
 10
748.5000293439
 20
541.9578358442
 30
0.0
 11
748.3095867016
 21
542.3090314828
 31
0.0
  0
ARC
  5
222
330
1F
100
AcDbEntity
  8
0
  6
Continuous
 62
     7
370
    15
100
AcDbCircle
 10
677.058572363
 20
583.2524278949
 30
0.0
 40
5.070000706297519
100
AcDbArc
 50
146.8958885503
 51
180.6501373597
  0
LINE
  5
223
330
1F
100
AcDbEntity
  8
0
  6
Continuous
 62
     7
370
    15
100
AcDbLine
 10
695.9836836926
 20
571.5964042208
 30
0.0
 11
695.9836836926
 21
580.5103531195
 31
0.0
  0
LINE
  5
224
330
1F
100
AcDbEntity
  8
0
  6
Continuous
 62
     7
370
    15
100
AcDbLine
 10
671.983683429
 20
583.1994253407
 30
0.0
 11
671.983683429
 21
570.0117625987
 31
0.0
  0
LWPOLYLINE
  5
225
330
1F
100
AcDbEntity
  8
0
  6
Continuous
 62
     7
370
    15
100
AcDbPolyline
 90
       15
 70
   128
 43
0.0
 10
671.9836836924
 20
572.5183885698
 10
671.9567692418
 20
572.4768959372
 10
671.6919529535
 20
571.9608425773
 10
671.490121179
 20
571.4352865041
 10
671.3520133321
 20
570.9035396866
 10
671.2777900977
 20
570.3687217678
 10
671.2671959605
 20
569.8336093528
 10
671.3197746809
 20
569.3006204794
 10
671.4349346224
 20
568.772303652
 10
671.6120757194
 20
568.2507389749
 10
671.8506108134
 20
567.737965608
 10
672.1498015446
 20
567.2362255324
 10
672.5085673729
 20
566.7479856033
 10
672.9253512358
 20
566.2758666945
 10
673.0447416672
 20
566.1613692995
  0
LWPOLYLINE
  5
226
330
1F
100
AcDbEntity
  8
0
  6
Continuous
 62
     7
370
    15
100
AcDbPolyline
 90
       15
 70
   128
 43
0.0
 10
675.4064783216
 20
564.4494799405
 10
675.7930338062
 20
564.2439446642
 10
676.5015032977
 20
563.9180019975
 10
677.2467640245
 20
563.6227771042
 10
678.0250603732
 20
563.3595706334
 10
678.8325149653
 20
563.1295321216
 10
679.6651401822
 20
562.9336606376
 10
680.518843038
 20
562.7728092694
 10
681.3894438825
 20
562.6476755417
 10
682.2726869377
 20
562.5588081085
 10
683.1642624247
 20
562.5065921522
 10
684.0598192085
 20
562.4912579012
 10
684.9549924559
 20
562.5128689187
 10
685.8454015289
 20
562.5713275782
 10
686.6493969185
 20
562.6580356438
  0
LWPOLYLINE
  5
227
330
1F
100
AcDbEntity
  8
0
  6
Continuous
 62
     7
370
    15
100
AcDbPolyline
 90
       13
 70
   128
 43
0.0
 10
688.4613755467
 20
562.9684167423
 10
689.273314827
 20
563.1660672769
 10
690.0759736346
 20
563.401746007
 10
690.8488890161
 20
563.6704227635
 10
691.5882641989
 20
563.9709598718
 10
692.2904372147
 20
564.3020991875
 10
692.9518898264
 20
564.6624563006
 10
693.5692400993
 20
565.0505192882
 10
694.13924883
 20
565.4646353951
 10
694.658730865
 20
565.9029154339
 10
695.1247135344
 20
566.3632747565
 10
695.5344248927
 20
566.843366243
 10
695.6775237167
 20
567.0460892006
  0
LINE
  5
228
330
1F
100
AcDbEntity
  8
0
  6
Continuous
 62
     7
370
    15
100
AcDbLine
 10
696.1741255447
 20
572.1649371312
 30
0.0
 11
695.9836834292
 21
572.5161324657
 31
0.0
  0
LWPOLYLINE
  5
229
330
1F
100
AcDbEntity
  8
0
  6
Continuous
 62
     7
370
    15
100
AcDbPolyline
 90
       24
 70
   128
 43
0.0
 10
735.6024792776
 20
565.5420951226
 10
735.8194741711
 20
565.4471012191
 10
736.0728228287
 20
565.3894247688
 10
736.3437274598
 20
565.3733478314
 10
736.6120988348
 20
565.4000614404
 10
736.8580376978
 20
565.4675816331
 10
737.0632988799
 20
565.5709036684
 10
737.2126601452
 20
565.7023640222
 10
737.295046401
 20
565.8522115213
 10
737.3043433701
 20
566.0093349733
 10
737.2398618859
 20
566.1620810759
 10
737.106391246
 20
566.2991173329
 10
736.9138222952
 20
566.410285022
 10
736.6764386003
 20
566.4873384154
 10
736.4118501354
 20
566.5245603508
 10
736.1396748428
 20
566.5191933248
 10
735.8801032358
 20
566.4716327517
 10
735.6523825497
 20
566.3854083285
 10
735.4734041424
 20
566.2669135704
 10
735.3564388505
 20
566.1249385199
 10
735.3101687231
 20
565.9700085898
 10
735.3380178131
 20
565.8136186751
 10
735.4379229662
 20
565.6673660412
 10
735.6024792776
 20
565.5420951226
  0
LWPOLYLINE
  5
22A
330
1F
100
AcDbEntity
  8
0
  6
Continuous
 62
     7
370
    15
100
AcDbPolyline
 90
       24
 70
   128
 43
0.0
 10
683.2765767954
 20
595.7491956493
 10
683.4935733188
 20
595.654200805
 10
683.7469191612
 20
595.5965259798
 10
684.0178246813
 20
595.5804485292
 10
684.2861981307
 20
595.6071609407
 10
684.5321354132
 20
595.6746820458
 10
684.7373965953
 20
595.7780040811
 10
684.8867583216
 20
595.9094641688
 10
684.9691430627
 20
596.0593125423
 10
684.9784408221
 20
596.2164355381
 10
684.913961972
 20
596.36918012
 10
684.7804886486
 20
596.5062179262
 10
684.5879199282
 20
596.6173854822
 10
684.3505377645
 20
596.6944379917
 10
684.0859477192
 20
596.7316608396
 10
683.8137732167
 20
596.7262933573
 10
683.5542000951
 20
596.6787336586
 10
683.32647987
 20
596.5925089693
 10
683.1475014627
 20
596.4740142112
 10
683.030538805
 20
596.33203764
 10
682.9842665373
 20
596.1771089454
 10
683.0121165163
 20
596.0207185175
 10
683.1120230688
 20
595.8744650758
 10
683.2765767954
 20
595.7491956493
  0
LINE
  5
22B
330
1F
100
AcDbEntity
  8
0
  6
Continuous
 62
     7
370
    15
100
AcDbLine
 10
741.966440166
 20
569.2159315437
 30
0.0
 11
689.6405376839
 21
599.4230320704
 31
0.0
  0
LWPOLYLINE
  5
22C
330
1F
100
AcDbEntity
  8
0
  6
Continuous
 62
     7
370
    15
100
AcDbPolyline
 90
       34
 70
   128
 43
0.0
 10
730.6527319199
 20
562.6846667951
 10
731.2160645898
 20
562.3890359245
 10
731.8255264585
 20
562.1256553018
 10
732.4755941816
 20
561.8969130006
 10
733.1603845858
 20
561.7048774479
 10
733.8736931282
 20
561.551290429
 10
734.6090644922
 20
561.4375397153
 10
735.3598336804
 20
561.3646584557
 10
736.1192029331
 20
561.3333063207
 10
736.8802999431
 20
561.3437641796
 10
737.6362247446
 20
561.395941704
 10
738.3801358503
 20
561.489363834
 10
739.1052979304
 20
561.6231837037
 10
739.8051395011
 20
561.7961916132
 10
740.4733268129
 20
562.0068187545
 10
741.1038079735
 20
562.2531578163
 10
741.6908688251
 20
562.5329806435
 10
742.2291967576
 20
562.8437507439
 10
742.7139166317
 20
563.1826537599
 10
743.1406346385
 20
563.5466227866
 10
743.5054910816
 20
563.932359111
 10
743.8051820431
 20
564.3363690502
 10
744.0369899733
 20
564.7549962083
 10
744.1988193836
 20
565.1844469486
 10
744.2892033003
 20
565.6208330477
 10
744.307318806
 20
566.0602049993
 10
744.2530094307
 20
566.4985795378
 10
744.126761707
 20
566.9319893648
 10
743.9297183413
 20
567.356510217
 10
743.6636689943
 20
567.7682944735
 10
743.3310176167
 20
568.1636155592
 10
742.9347813961
 20
568.5388916677
 10
742.4785433415
 20
568.8907265155
 10
741.966440166
 20
569.2159315437
  0
LINE
  5
22D
330
1F
100
AcDbEntity
  8
0
  6
Continuous
 62
     7
370
    15
100
AcDbLine
 10
678.3268294378
 20
592.8917673218
 30
0.0
 11
730.6527319199
 21
562.6846667951
 31
0.0
  0
LWPOLYLINE
  5
22E
330
1F
100
AcDbEntity
  8
0
  6
Continuous
 62
     7
370
    15
100
AcDbPolyline
 90
       34
 70
   128
 43
0.0
 10
689.6405376839
 20
599.4230320704
 10
689.0772047506
 20
599.718663093
 10
688.4677443307
 20
599.9820428793
 10
687.8176752905
 20
600.2107859409
 10
687.1328854131
 20
600.4028211894
 10
686.4195754219
 20
600.5564090447
 10
685.6842059019
 20
600.6701586939
 10
684.9334361868
 20
600.7430402576
 10
684.1740650902
 20
600.7743934571
 10
683.4129699241
 20
600.7639345338
 10
682.6570432787
 20
600.7117580738
 10
681.9131311193
 20
600.6183365521
 10
681.1879700928
 20
600.4845160741
 10
680.4881274685
 20
600.3115087729
 10
679.8199412104
 20
600.1008810234
 10
679.1894621571
 20
599.854540745
 10
678.6024007786
 20
599.574718222
 10
678.0640728462
 20
599.2639481215
 10
677.5793534989
 20
598.9250448015
 10
677.1526333848
 20
598.5610769913
 10
676.787775888
 20
598.1753412751
 10
676.4880859802
 20
597.7713307277
 10
676.2562769963
 20
597.3527041778
 10
676.0944486397
 20
596.9232528293
 10
676.0040665669
 20
596.4868656657
 10
675.9859492173
 20
596.0474947786
 10
676.0402604365
 20
595.6091191756
 10
676.1665086871
 20
595.1757090445
 10
676.3635502088
 20
594.7511892567
 10
676.6296010046
 20
594.3394041639
 10
676.9622518554
 20
593.9440833823
 10
677.358489393
 20
593.5688065134
 10
677.8147259989
 20
593.216972502
 10
678.3268294378
 20
592.8917673218
  0
LWPOLYLINE
  5
22F
330
1F
100
AcDbEntity
  8
0
  6
Continuous
 62
     7
370
    15
100
AcDbPolyline
 90
       24
 70
   128
 43
0.0
 10
709.4395280365
 20
580.6456453859
 10
709.6565250373
 20
580.550650266
 10
709.9098694803
 20
580.4929762487
 10
710.1807762187
 20
580.4768980947
 10
710.4491497011
 20
580.5036104873
 10
710.6950864567
 20
580.5711318965
 10
710.9003476388
 20
580.6744539317
 10
711.0497089041
 20
580.8059142856
 10
711.1320930526
 20
580.9557630012
 10
711.1413921291
 20
581.1128852367
 10
711.0769127521
 20
581.2656301228
 10
710.9434400049
 20
581.4026675963
 10
710.7508710541
 20
581.5138352854
 10
710.5134894666
 20
581.5908874622
 10
710.2488988944
 20
581.6281106142
 10
709.9767236017
 20
581.6227435882
 10
709.7171519948
 20
581.575183015
 10
709.4894313087
 20
581.4889585919
 10
709.3104529014
 20
581.3704638337
 10
709.1934897168
 20
581.2284875667
 10
709.1472174821
 20
581.0735588531
 10
709.175066572
 20
580.9171689385
 10
709.2749738324
 20
580.7709150881
 10
709.4395280365
 20
580.6456453859
  0
LWPOLYLINE
  5
230
330
1F
100
AcDbEntity
  8
0
  6
Continuous
 62
     7
370
    15
100
AcDbPolyline
 90
       26
 70
   128
 43
0.0
 10
730.6527319199
 20
561.5905021407
 10
731.2160645898
 20
561.2948712702
 10
731.8255264585
 20
561.0314906475
 10
732.4755941816
 20
560.8027483462
 10
733.1603845858
 20
560.6107127936
 10
733.8736931282
 20
560.4571257747
 10
734.6090644922
 20
560.343375061
 10
735.3598336804
 20
560.2704938014
 10
736.1192029331
 20
560.2391416664
 10
736.8802999431
 20
560.2495995252
 10
737.6362247446
 20
560.3017770497
 10
738.3801358503
 20
560.3951991797
 10
739.1052979304
 20
560.5290190494
 10
739.8051395011
 20
560.7020269589
 10
740.4733268129
 20
560.9126541002
 10
741.1038079735
 20
561.158993162
 10
741.6908688251
 20
561.4388159891
 10
742.2291967576
 20
561.7495860896
 10
742.7139166317
 20
562.0884891055
 10
743.1406346385
 20
562.4524581322
 10
743.5054910816
 20
562.8381944567
 10
743.8051820431
 20
563.2422043959
 10
744.0369899733
 20
563.660831554
 10
744.1988193836
 20
564.0902822942
 10
744.2892033003
 20
564.5266683934
 10
744.3095831454
 20
564.8561360357
  0
LINE
  5
231
330
1F
100
AcDbEntity
  8
0
  6
Continuous
 62
     7
370
    15
100
AcDbLine
 10
678.3268294378
 20
591.7976026674
 30
0.0
 11
730.6527319199
 21
561.5905021407
 31
0.0
  0
ARC
  5
232
330
1F
100
AcDbEntity
  8
0
  6
Continuous
 62
     7
370
    15
100
AcDbCircle
 10
736.3095872735
 20
563.7370837168
 30
0.0
 40
1.696440481007583
100
AcDbArc
 50
79.1537331129
 51
100.8464613523
  0
ARC
  5
233
330
1F
100
AcDbEntity
  8
0
  6
Continuous
 62
     7
370
    15
100
AcDbCircle
 10
710.1466339114
 20
578.8406577097
 30
0.0
 40
1.696416776255255
100
AcDbArc
 50
79.1534343072
 51
100.8465418112
  0
LWPOLYLINE
  5
234
330
1F
100
AcDbEntity
  8
0
  6
Continuous
 62
     7
370
    15
100
AcDbPolyline
 90
       10
 70
   128
 43
0.0
 10
675.9836838242
 20
595.0632350417
 10
675.9859492173
 20
594.9533301242
 10
676.0402604365
 20
594.5149545212
 10
676.1665086871
 20
594.0815443901
 10
676.3635502088
 20
593.6570246024
 10
676.6296010046
 20
593.2452395095
 10
676.9622518554
 20
592.849918728
 10
677.358489393
 20
592.4746418591
 10
677.8147259989
 20
592.1228078476
 10
678.3268294378
 20
591.7976026674
  0
ARC
  5
235
330
1F
100
AcDbEntity
  8
0
  6
Continuous
 62
     7
370
    15
100
AcDbCircle
 10
683.9836835608
 20
593.9442093824
 30
0.0
 40
1.696415062411791
100
AcDbArc
 50
79.1534391204
 51
100.8465608796
  0
LWPOLYLINE
  5
236
330
1F
100
AcDbEntity
  8
0
  6
Continuous
 62
     7
370
    15
100
AcDbPolyline
 90
       26
 70
   128
 43
0.0
 10
730.6527319199
 20
561.5905021407
 10
731.2160645898
 20
561.2948712702
 10
731.8255264585
 20
561.0314906475
 10
732.4755941816
 20
560.8027483462
 10
733.1603845858
 20
560.6107127936
 10
733.8736931282
 20
560.4571257747
 10
734.6090644922
 20
560.343375061
 10
735.3598336804
 20
560.2704938014
 10
736.1192029331
 20
560.2391416664
 10
736.8802999431
 20
560.2495995252
 10
737.6362247446
 20
560.3017770497
 10
738.3801358503
 20
560.3951991797
 10
739.1052979304
 20
560.5290190494
 10
739.8051395011
 20
560.7020269589
 10
740.4733268129
 20
560.9126541002
 10
741.1038079735
 20
561.158993162
 10
741.6908688251
 20
561.4388159891
 10
742.2291967576
 20
561.7495860896
 10
742.7139166317
 20
562.0884891055
 10
743.1406346385
 20
562.4524581322
 10
743.5054910816
 20
562.8381944567
 10
743.8051820431
 20
563.2422043959
 10
744.0369899733
 20
563.660831554
 10
744.1988193836
 20
564.0902822942
 10
744.2892033003
 20
564.5266683934
 10
744.3095831454
 20
564.8561360357
  0
LWPOLYLINE
  5
237
330
1F
100
AcDbEntity
  8
0
  6
Continuous
 62
     7
370
    15
100
AcDbPolyline
 90
       10
 70
   128
 43
0.0
 10
675.9836838242
 20
595.0632350417
 10
675.9859492173
 20
594.9533301242
 10
676.0402604365
 20
594.5149545212
 10
676.1665086871
 20
594.0815443901
 10
676.3635502088
 20
593.6570246024
 10
676.6296010046
 20
593.2452395095
 10
676.9622518554
 20
592.849918728
 10
677.358489393
 20
592.4746418591
 10
677.8147259989
 20
592.1228078476
 10
678.3268294378
 20
591.7976026674
  0
LWPOLYLINE
  5
238
330
1F
100
AcDbEntity
  8
0
  6
Continuous
 62
     7
370
    15
100
AcDbPolyline
 90
       26
 70
   128
 43
0.0
 10
730.6527319199
 20
560.4963374864
 10
731.2160645898
 20
560.2007066158
 10
731.8255264585
 20
559.9373259931
 10
732.4755941816
 20
559.7085836919
 10
733.1603845858
 20
559.5165481392
 10
733.8736931282
 20
559.3629611204
 10
734.6090644922
 20
559.2492104066
 10
735.3598336804
 20
559.176329147
 10
736.1192029331
 20
559.144977012
 10
736.8802999431
 20
559.1554348709
 10
737.6362247446
 20
559.2076123953
 10
738.3801358503
 20
559.3010345254
 10
739.1052979304
 20
559.434854395
 10
739.8051395011
 20
559.6078623046
 10
740.4733268129
 20
559.8184894458
 10
741.1038079735
 20
560.0648285077
 10
741.6908688251
 20
560.3446513348
 10
742.2291967576
 20
560.6554214353
 10
742.7139166317
 20
560.9943244512
 10
743.1406346385
 20
561.3582934779
 10
743.5054910816
 20
561.7440298024
 10
743.8051820431
 20
562.1480397415
 10
744.0369899733
 20
562.5666668997
 10
744.1988193836
 20
562.9961176399
 10
744.2892033003
 20
563.432503739
 10
744.3095831454
 20
563.7619713813
  0
LINE
  5
239
330
1F
100
AcDbEntity
  8
0
  6
Continuous
 62
     7
370
    15
100
AcDbLine
 10
678.3268294378
 20
590.7034380131
 30
0.0
 11
730.6527319199
 21
560.4963374864
 31
0.0
  0
LWPOLYLINE
  5
23A
330
1F
100
AcDbEntity
  8
0
  6
Continuous
 62
     7
370
    15
100
AcDbPolyline
 90
       10
 70
   128
 43
0.0
 10
675.9836838242
 20
593.9690703874
 10
675.9859492173
 20
593.8591654699
 10
676.0402604365
 20
593.4207898669
 10
676.1665086871
 20
592.9873797358
 10
676.3635502088
 20
592.562859948
 10
676.6296010046
 20
592.1510748552
 10
676.9622518554
 20
591.7557540736
 10
677.358489393
 20
591.3804772047
 10
677.8147259989
 20
591.0286431933
 10
678.3268294378
 20
590.7034380131
  0
LINE
  5
23B
330
1F
100
AcDbEntity
  8
0
  6
Continuous
 62
     7
370
    15
100
AcDbLine
 10
732.5605790869
 20
558.5880126718
 30
0.0
 11
732.5605790869
 21
555.6332846028
 31
0.0
  0
ARC
  5
23C
330
1F
100
AcDbEntity
  8
0
  6
Continuous
 62
     7
370
    15
100
AcDbCircle
 10
729.5325443722
 20
555.764581589
 30
0.0
 40
3.030879927022437
100
AcDbArc
 50
322.5515571735
 51
357.5171837178
  0
LINE
  5
23D
330
1F
100
AcDbEntity
  8
0
  6
Continuous
 62
     7
370
    15
100
AcDbLine
 10
731.9387623964
 20
553.9216632641
 30
0.0
 11
728.3541955845
 21
549.0522042351
 31
0.0
  0
ARC
  5
23E
330
1F
100
AcDbEntity
  8
0
  6
Continuous
 62
     7
370
    15
100
AcDbCircle
 10
730.7604161876
 20
547.2092849734
 30
0.0
 40
3.030882544184782
100
AcDbArc
 50
142.5515727566
 51
177.5171681347
  0
LINE
  5
23F
330
1F
100
AcDbEntity
  8
0
  6
Continuous
 62
     7
370
    15
100
AcDbLine
 10
727.7323788939
 20
547.3405828965
 30
0.0
 11
727.7323788939
 21
533.9180332436
 31
0.0
  0
ARC
  5
240
330
1F
100
AcDbEntity
  8
0
  6
Continuous
 62
     7
370
    15
100
AcDbCircle
 10
727.947916072
 20
533.8830699207
 30
0.0
 40
0.2183545490667012
100
AcDbArc
 50
170.7860341325
 51
309.2033619827
  0
LINE
  5
241
330
1F
100
AcDbEntity
  8
0
  6
Continuous
 62
     7
370
    15
100
AcDbLine
 10
728.0859324742
 20
533.7138653645
 30
0.0
 11
728.227354117
 21
533.7955063411
 31
0.0
  0
ARC
  5
242
330
1F
100
AcDbEntity
  8
0
  6
Continuous
 62
     7
370
    15
100
AcDbCircle
 10
727.8974416429
 20
534.3432358815
 30
0.0
 40
0.6394137080480071
100
AcDbArc
 50
301.0617047271
 51
318.3286711706
  0
ARC
  5
243
330
1F
100
AcDbEntity
  8
0
  6
Continuous
 62
     7
370
    15
100
AcDbCircle
 10
727.0559570044
 20
534.811968172
 30
0.0
 40
2.881954568745828
100
AcDbArc
 50
301.9472083961
 51
330.9364773967
  0
LINE
  5
244
330
1F
100
AcDbEntity
  8
0
  6
Continuous
 62
     7
370
    15
100
AcDbLine
 10
728.5809076973
 20
532.3665259788
 30
0.0
 11
727.7323788939
 21
531.8766807272
 31
0.0
  0
LWPOLYLINE
  5
245
330
1F
100
AcDbEntity
  8
0
  6
Continuous
 62
     7
370
    15
100
AcDbPolyline
 90
        9
 70
   128
 43
0.0
 10
727.7323788939
 20
531.8766807272
 10
727.4564803552
 20
531.7487876318
 10
727.1911828026
 20
531.6885668301
 10
726.9466847197
 20
531.6983334311
 10
726.7323795854
 20
531.7777136222
 10
726.5565039476
 20
531.9236532201
 10
726.4258160534
 20
532.1305460664
 10
726.3453398072
 20
532.3904439401
 10
726.3181656266
 20
532.6933552856
  0
LINE
  5
246
330
1F
100
AcDbEntity
  8
0
  6
Continuous
 62
     7
370
    15
100
AcDbLine
 10
726.3181656266
 20
532.6933552856
 30
0.0
 11
726.3181656266
 21
547.3910892668
 31
0.0
  0
ARC
  5
247
330
1F
100
AcDbEntity
  8
0
  6
Continuous
 62
     7
370
    15
100
AcDbCircle
 10
729.3461916992
 20
547.2597954202
 30
0.0
 40
3.030871157066231
100
AcDbArc
 50
142.5515049555
 51
177.5172359358
  0
LINE
  5
248
330
1F
100
AcDbEntity
  8
0
  6
Continuous
 62
     7
370
    15
100
AcDbLine
 10
726.9399823171
 20
549.1027106055
 30
0.0
 11
730.524549129
 21
553.9721696345
 31
0.0
  0
ARC
  5
249
330
1F
100
AcDbEntity
  8
0
  6
Continuous
 62
     7
370
    15
100
AcDbCircle
 10
728.1183380073
 20
555.815084543
 30
0.0
 40
3.03087236988485
100
AcDbArc
 50
322.5515291044
 51
357.517236411
  0
LINE
  5
24A
330
1F
100
AcDbEntity
  8
0
  6
Continuous
 62
     7
370
    15
100
AcDbLine
 10
731.1463652927
 20
555.683790669
 30
0.0
 11
731.1463652927
 21
560.2343142214
 31
0.0
  0
LINE
  5
24B
330
1F
100
AcDbEntity
  8
0
  6
Continuous
 62
     7
370
    15
100
AcDbLine
 10
730.1988409179
 20
556.2307848475
 30
0.0
 11
730.1988409179
 21
560.7583628009
 31
0.0
  0
LINE
  5
24C
330
1F
100
AcDbEntity
  8
0
  6
Continuous
 62
     7
370
    15
100
AcDbLine
 10
725.9924579423
 20
549.6497047839
 30
0.0
 11
729.5770247542
 21
554.5191638129
 31
0.0
  0
ARC
  5
24D
330
1F
100
AcDbEntity
  8
0
  6
Continuous
 62
     7
370
    15
100
AcDbCircle
 10
728.3986673244
 20
547.8067895987
 30
0.0
 40
3.030871157066003
100
AcDbArc
 50
142.5515049555
 51
177.5172359358
  0
ARC
  5
24E
330
1F
100
AcDbEntity
  8
0
  6
Continuous
 62
     7
370
    15
100
AcDbCircle
 10
727.1708136325
 20
556.3620787215
 30
0.0
 40
3.030872369885887
100
AcDbArc
 50
322.5515291044
 51
357.517236411
  0
LINE
  5
24F
330
1F
100
AcDbEntity
  8
0
  6
Continuous
 62
     7
370
    15
100
AcDbLine
 10
725.3706412518
 20
533.240349464
 30
0.0
 11
725.3706412518
 21
547.9380834453
 31
0.0
  0
ARC
  5
250
330
1F
100
AcDbEntity
  8
0
  6
Continuous
 62
     7
370
    15
100
AcDbCircle
 10
726.3557753694
 20
533.134497207
 30
0.0
 40
0.9908046881092282
100
AcDbArc
 50
173.8671219613
 51
234.8207192311
  0
LINE
  5
251
330
1F
100
AcDbEntity
  8
0
  6
Continuous
 62
     7
370
    15
100
AcDbLine
 10
685.3997915924
 20
584.8731753637
 30
0.0
 11
685.3997915924
 21
586.6203035708
 31
0.0
  0
ARC
  5
252
330
1F
100
AcDbEntity
  8
0
  6
Continuous
 62
     7
370
    15
100
AcDbCircle
 10
693.9795248205
 20
584.9971584547
 30
0.0
 40
8.580629002077929
100
AcDbArc
 50
180.8279060955
 51
193.252138929
  0
LINE
  5
253
330
1F
100
AcDbEntity
  8
0
  6
Continuous
 62
     7
370
    15
100
AcDbLine
 10
686.9394346712
 20
577.4032779657
 30
0.0
 11
685.6273919501
 21
583.0301631353
 31
0.0
  0
ARC
  5
254
330
1F
100
AcDbEntity
  8
0
  6
Continuous
 62
     7
370
    15
100
AcDbCircle
 10
678.5872621238
 20
575.4362777464
 30
0.0
 40
8.580668745696705
100
AcDbArc
 50
0.8279349818
 51
13.2521100427
  0
LINE
  5
255
330
1F
100
AcDbEntity
  8
0
  6
Continuous
 62
     7
370
    15
100
AcDbLine
 10
687.1670350288
 20
560.862531756
 30
0.0
 11
687.1670350288
 21
575.5602657373
 31
0.0
  0
LWPOLYLINE
  5
256
330
1F
100
AcDbEntity
  8
0
  6
Continuous
 62
     7
370
    15
100
AcDbPolyline
 90
        9
 70
   128
 43
0.0
 10
686.6493969185
 20
560.3446833181
 10
686.7503834017
 20
560.1584919669
 10
686.8474881601
 20
560.0422137814
 10
686.9369817246
 20
560.0003168472
 10
687.015422278
 20
560.0344142707
 10
687.0797973745
 20
560.1431909165
 10
687.1276319402
 20
560.3224694558
 10
687.1570888994
 20
560.5653621889
 10
687.1670350288
 20
560.862531756
  0
LINE
  5
257
330
1F
100
AcDbEntity
  8
0
  6
Continuous
 62
     7
370
    15
100
AcDbLine
 10
686.3388141576
 20
561.0138241811
 30
0.0
 11
686.6493969185
 21
560.3446833181
 31
0.0
  0
ARC
  5
258
330
1F
100
AcDbEntity
  8
0
  6
Continuous
 62
     7
370
    15
100
AcDbCircle
 10
692.1562548382
 20
563.4027907445
 30
0.0
 40
6.288861368610079
100
AcDbArc
 50
187.5120500262
 51
202.3257958094
  0
ARC
  5
259
330
1F
100
AcDbEntity
  8
0
  6
Continuous
 62
     7
370
    15
100
AcDbCircle
 10
687.7146506607
 20
562.8941529552
 30
0.0
 40
1.352890679420774
100
AcDbArc
 50
191.3892933131
 51
202.8821919435
  0
LINE
  5
25A
330
1F
100
AcDbEntity
  8
0
  6
Continuous
 62
     7
370
    15
100
AcDbLine
 10
686.5199876543
 20
562.2565746376
 30
0.0
 11
686.4682239486
 21
562.3680981654
 31
0.0
  0
LWPOLYLINE
  5
25B
330
1F
100
AcDbEntity
  8
0
  6
Continuous
 62
     7
370
    15
100
AcDbPolyline
 90
        9
 70
   128
 43
0.0
 10
686.6493969185
 20
562.3860358345
 10
686.6469107812
 20
562.3117429104
 10
686.6395461463
 20
562.2510198032
 10
686.6275875049
 20
562.2062015372
 10
686.6114937308
 20
562.1790060069
 10
686.591883329
 20
562.1704834762
 10
686.5695107281
 20
562.1809572534
 10
686.5452341434
 20
562.210027028
 10
686.5199876543
 20
562.2565746376
  0
LINE
  5
25C
330
1F
100
AcDbEntity
  8
0
  6
Continuous
 62
     7
370
    15
100
AcDbLine
 10
686.6493969185
 20
575.8085854874
 30
0.0
 11
686.6493969185
 21
562.3860358345
 31
0.0
  0
ARC
  5
25D
330
1F
100
AcDbEntity
  8
0
  6
Continuous
 62
     7
370
    15
100
AcDbCircle
 10
678.0697548997
 20
575.6846115972
 30
0.0
 40
8.5805376693841
100
AcDbArc
 50
0.827853464
 51
13.2522215249
  0
LINE
  5
25E
330
1F
100
AcDbEntity
  8
0
  6
Continuous
 62
     7
370
    15
100
AcDbLine
 10
685.1097541031
 20
583.2784830375
 30
0.0
 11
686.421796034
 21
577.6515980199
 31
0.0
  0
ARC
  5
25F
330
1F
100
AcDbEntity
  8
0
  6
Continuous
 62
     7
370
    15
100
AcDbCircle
 10
693.4619033349
 20
585.24548283
 30
0.0
 40
8.580645953131027
100
AcDbArc
 50
180.8279343312
 51
193.2521429578
  0
LINE
  5
260
330
1F
100
AcDbEntity
  8
0
  6
Continuous
 62
     7
370
    15
100
AcDbLine
 10
684.8821532186
 20
586.919129768
 30
0.0
 11
684.8821532186
 21
585.1214952659
 31
0.0
  0
LINE
  5
261
330
1F
100
AcDbEntity
  8
0
  6
Continuous
 62
     7
370
    15
100
AcDbLine
 10
688.2337754525
 20
577.6034914238
 30
0.0
 11
686.9217327314
 21
583.2303765934
 31
0.0
  0
LINE
  5
262
330
1F
100
AcDbEntity
  8
0
  6
Continuous
 62
     7
370
    15
100
AcDbLine
 10
686.6941321103
 20
585.0733886698
 30
0.0
 11
686.6941321103
 21
585.8730969215
 31
0.0
  0
ARC
  5
263
330
1F
100
AcDbEntity
  8
0
  6
Continuous
 62
     7
370
    15
100
AcDbCircle
 10
679.8815010842
 20
575.6364786303
 30
0.0
 40
8.580770737680492
100
AcDbArc
 50
0.82800911
 51
13.2520359144
  0
LINE
  5
264
330
1F
100
AcDbEntity
  8
0
  6
Continuous
 62
     7
370
    15
100
AcDbLine
 10
688.4613758102
 20
561.0627452141
 30
0.0
 11
688.4613758102
 21
575.7604791954
 31
0.0
  0
ARC
  5
265
330
1F
100
AcDbEntity
  8
0
  6
Continuous
 62
     7
370
    15
100
AcDbCircle
 10
695.2738565108
 20
585.1973720267
 30
0.0
 40
8.580620179266921
100
AcDbArc
 50
180.8279087225
 51
193.2521535844
  0
LWPOLYLINE
  5
266
330
1F
100
AcDbEntity
  8
0
  6
Continuous
 62
     7
370
    15
100
AcDbPolyline
 90
        6
 70
   128
 43
0.0
 10
688.2494693584
 20
560.2014854138
 10
688.3097635862
 20
560.2346274247
 10
688.3741381558
 20
560.3434043746
 10
688.4219732483
 20
560.5226826098
 10
688.4514291539
 20
560.7655759512
 10
688.4613758102
 20
561.0627452141
  0
LINE
  5
267
330
1F
100
AcDbEntity
  8
0
  6
Continuous
 62
     7
370
    15
100
AcDbLine
 10
746.6267099289
 20
560.4676165469
 30
0.0
 11
744.1832521817
 21
560.9657783701
 31
0.0
  0
ARC
  5
268
330
1F
100
AcDbEntity
  8
0
  6
Continuous
 62
     7
370
    15
100
AcDbCircle
 10
746.3535289724
 20
559.605269135
 30
0.0
 40
0.9045832708708116
100
AcDbArc
 50
351.651512529
 51
72.4224445972
  0
LINE
  5
269
330
1F
100
AcDbEntity
  8
0
  6
Continuous
 62
     7
370
    15
100
AcDbLine
 10
747.2485266195
 20
556.167472112
 30
0.0
 11
747.2485266195
 21
559.4739294775
 31
0.0
  0
LINE
  5
26A
330
1F
100
AcDbEntity
  8
0
  6
Continuous
 62
     7
370
    15
100
AcDbLine
 10
745.8343133521
 20
557.7906072242
 30
0.0
 11
745.8343133521
 21
557.6791769009
 31
0.0
  0
ARC
  5
26B
330
1F
100
AcDbEntity
  8
0
  6
Continuous
 62
     7
370
    15
100
AcDbCircle
 10
744.9393128547
 20
557.921945098
 30
0.0
 40
0.9045858319749815
100
AcDbArc
 50
351.6516505166
 51
72.4223066096
  0
LINE
  5
26C
330
1F
100
AcDbEntity
  8
0
  6
Continuous
 62
     7
370
    15
100
AcDbLine
 10
744.1832521817
 20
558.9941329241
 30
0.0
 11
745.2124966616
 21
558.7842942936
 31
0.0
  0
LINE
  5
26D
330
1F
100
AcDbEntity
  8
0
  6
Continuous
 62
     7
370
    15
100
AcDbLine
 10
745.6791855541
 20
561.0146107254
 30
0.0
 11
744.1832506012
 21
561.3195957235
 31
0.0
  0
ARC
  5
26E
330
1F
100
AcDbEntity
  8
0
  6
Continuous
 62
     7
370
    15
100
AcDbCircle
 10
743.5331826426
 20
558.3719249413
 30
0.0
 40
1.354041437573549
100
AcDbArc
 50
358.5474561401
 51
21.5809522421
  0
LWPOLYLINE
  5
26F
330
1F
100
AcDbEntity
  8
0
  6
Continuous
 62
     7
370
    15
100
AcDbPolyline
 90
        3
 70
   128
 43
0.0
 10
745.8867071532
 20
560.9366133882
 10
745.8158540861
 20
560.9720928927
 10
745.6791855541
 20
561.0146107254
  0
LINE
  5
270
330
1F
100
AcDbEntity
  8
0
  6
Continuous
 62
     7
370
    15
100
AcDbLine
 10
724.2689284269
 20
551.5269048129
 30
0.0
 11
724.2689284269
 21
555.3942759567
 31
0.0
  0
LINE
  5
271
330
1F
100
AcDbEntity
  8
0
  6
Continuous
 62
     7
370
    15
100
AcDbLine
 10
724.2689284269
 20
558.0262270725
 30
0.0
 11
724.2689284269
 21
564.181629077
 31
0.0
  0
ARC
  5
272
330
1F
100
AcDbEntity
  8
0
  6
Continuous
 62
     7
370
    15
100
AcDbCircle
 10
722.9995935226
 20
551.5178277912
 30
0.0
 40
1.269367358795559
100
AcDbArc
 50
331.8813803022
 51
0.4097154879
  0
LINE
  5
273
330
1F
100
AcDbEntity
  8
0
  6
Continuous
 62
     7
370
    15
100
AcDbLine
 10
721.1779652216
 20
550.3719445011
 30
0.0
 11
721.8404746943
 21
550.2694647531
 31
0.0
  0
LWPOLYLINE
  5
274
330
1F
100
AcDbEntity
  8
0
  6
Continuous
 62
     7
370
    15
100
AcDbPolyline
 90
        3
 70
   128
 43
0.0
 10
720.5523979884
 20
550.5567014834
 10
720.8010807265
 20
550.4616215853
 10
721.1779652216
 20
550.3719445011
  0
LINE
  5
275
330
1F
100
AcDbEntity
  8
0
  6
Continuous
 62
     7
370
    15
100
AcDbLine
 10
721.8404746943
 20
551.9025472529
 30
0.0
 11
721.8150230028
 21
551.9064844419
 31
0.0
  0
LINE
  5
276
330
1F
100
AcDbEntity
  8
0
  6
Continuous
 62
     7
370
    15
100
AcDbLine
 10
722.3370762589
 20
565.2968627579
 30
0.0
 11
722.3370762589
 21
556.8982521839
 31
0.0
  0
LINE
  5
277
330
1F
100
AcDbEntity
  8
0
  6
Continuous
 62
     7
370
    15
100
AcDbLine
 10
724.6157453603
 20
554.7205881871
 30
0.0
 11
724.6157453603
 21
555.5967241761
 31
0.0
  0
LINE
  5
278
330
1F
100
AcDbEntity
  8
0
  6
Continuous
 62
     7
370
    15
100
AcDbLine
 10
724.6157453603
 20
558.170909314
 30
0.0
 11
724.6157453603
 21
563.9814152374
 31
0.0
  0
LINE
  5
279
330
1F
100
AcDbEntity
  8
0
  6
Continuous
 62
     7
370
    15
100
AcDbLine
 10
698.1059771858
 20
566.6304550763
 30
0.0
 11
698.1059771858
 21
570.4978262201
 31
0.0
  0
LINE
  5
27A
330
1F
100
AcDbEntity
  8
0
  6
Continuous
 62
     7
370
    15
100
AcDbLine
 10
698.1059771858
 20
573.1297773359
 30
0.0
 11
698.1059771858
 21
579.2851793404
 31
0.0
  0
ARC
  5
27B
330
1F
100
AcDbEntity
  8
0
  6
Continuous
 62
     7
370
    15
100
AcDbCircle
 10
696.8366552535
 20
566.6213723138
 30
0.0
 40
1.269354428258161
100
AcDbArc
 50
331.8813310875
 51
0.4099787939
  0
LINE
  5
27C
330
1F
100
AcDbEntity
  8
0
  6
Continuous
 62
     7
370
    15
100
AcDbLine
 10
695.0150145073
 20
565.4754944604
 30
0.0
 11
695.6775234533
 21
565.3730150165
 31
0.0
  0
LWPOLYLINE
  5
27D
330
1F
100
AcDbEntity
  8
0
  6
Continuous
 62
     7
370
    15
100
AcDbPolyline
 90
        3
 70
   128
 43
0.0
 10
694.3894467473
 20
565.6602517468
 10
694.6381289586
 20
565.5651721528
 10
695.0150145073
 20
565.4754944604
  0
LINE
  5
27E
330
1F
100
AcDbEntity
  8
0
  6
Continuous
 62
     7
370
    15
100
AcDbLine
 10
695.6775234533
 20
567.0060975163
 30
0.0
 11
695.6520722885
 21
567.0100344012
 31
0.0
  0
LINE
  5
27F
330
1F
100
AcDbEntity
  8
0
  6
Continuous
 62
     7
370
    15
100
AcDbLine
 10
696.1741255447
 20
580.4004127172
 30
0.0
 11
696.1741255447
 21
572.0018021432
 31
0.0
  0
LINE
  5
280
330
1F
100
AcDbEntity
  8
0
  6
Continuous
 62
     7
370
    15
100
AcDbLine
 10
698.452794646
 20
569.8241381463
 30
0.0
 11
698.452794646
 21
570.7002741354
 31
0.0
  0
LINE
  5
281
330
1F
100
AcDbEntity
  8
0
  6
Continuous
 62
     7
370
    15
100
AcDbLine
 10
698.452794646
 20
573.2744592732
 30
0.0
 11
698.452794646
 21
579.0849651966
 31
0.0
  0
LINE
  5
282
330
1F
100
AcDbEntity
  8
0
  6
Continuous
 62
     7
370
    15
100
AcDbLine
 10
711.5627433603
 20
569.7696247962
 30
0.0
 11
711.5627433603
 21
571.5167530033
 31
0.0
  0
ARC
  5
283
330
1F
100
AcDbEntity
  8
0
  6
Continuous
 62
     7
370
    15
100
AcDbCircle
 10
720.1423647786
 20
569.8935920166
 30
0.0
 40
8.580516974663762
100
AcDbArc
 50
180.827810919
 51
193.2522041411
  0
LINE
  5
284
330
1F
100
AcDbEntity
  8
0
  6
Continuous
 62
     7
370
    15
100
AcDbLine
 10
713.1023859123
 20
562.2997277023
 30
0.0
 11
711.7903431912
 21
567.9266128719
 31
0.0
  0
ARC
  5
285
330
1F
100
AcDbEntity
  8
0
  6
Continuous
 62
     7
370
    15
100
AcDbCircle
 10
704.7502126096
 20
560.3327298219
 30
0.0
 40
8.580668944713493
100
AcDbArc
 50
0.8279213748
 51
13.2520936853
  0
LINE
  5
286
330
1F
100
AcDbEntity
  8
0
  6
Continuous
 62
     7
370
    15
100
AcDbLine
 10
713.3299857431
 20
545.7589817968
 30
0.0
 11
713.3299857431
 21
560.456715778
 31
0.0
  0
LWPOLYLINE
  5
287
330
1F
100
AcDbEntity
  8
0
  6
Continuous
 62
     7
370
    15
100
AcDbPolyline
 90
        9
 70
   128
 43
0.0
 10
712.8123471059
 20
545.241133663
 10
712.9133346428
 20
545.0549417035
 10
713.0104388744
 20
544.9386638221
 10
713.0999313852
 20
544.8967674963
 10
713.1783724654
 20
544.9308646156
 10
713.2427491424
 20
545.039640349
 10
713.2905821276
 20
545.2189198007
 10
713.3200401405
 20
545.4618119256
 10
713.3299857431
 20
545.7589817968
  0
LINE
  5
288
330
1F
100
AcDbEntity
  8
0
  6
Continuous
 62
     7
370
    15
100
AcDbLine
 10
712.501764345
 20
545.910274526
 30
0.0
 11
712.8123471059
 21
545.241133663
 31
0.0
  0
ARC
  5
289
330
1F
100
AcDbEntity
  8
0
  6
Continuous
 62
     7
370
    15
100
AcDbCircle
 10
718.3192468517
 20
548.2992483595
 30
0.0
 40
6.288902821075625
100
AcDbArc
 50
187.5120726235
 51
202.3257123241
  0
ARC
  5
28A
330
1F
100
AcDbEntity
  8
0
  6
Continuous
 62
     7
370
    15
100
AcDbCircle
 10
713.8778296309
 20
547.7906738392
 30
0.0
 40
1.35312888688696
100
AcDbArc
 50
191.390308334
 51
202.8811769225
  0
LINE
  5
28B
330
1F
100
AcDbEntity
  8
0
  6
Continuous
 62
     7
370
    15
100
AcDbLine
 10
712.6829378417
 20
547.1530249825
 30
0.0
 11
712.631174136
 21
547.2645485103
 31
0.0
  0
LWPOLYLINE
  5
28C
330
1F
100
AcDbEntity
  8
0
  6
Continuous
 62
     7
370
    15
100
AcDbPolyline
 90
        9
 70
   128
 43
0.0
 10
712.8123471059
 20
547.2824861795
 10
712.8098604418
 20
547.2081935595
 10
712.8024963337
 20
547.1474701481
 10
712.7905392728
 20
547.1026509697
 10
712.7744439182
 20
547.0754563518
 10
712.7548345701
 20
547.0669332128
 10
712.7324609155
 20
547.0774075983
 10
712.7081848576
 20
547.1064770687
 10
712.6829378417
 20
547.1530249825
  0
LINE
  5
28D
330
1F
100
AcDbEntity
  8
0
  6
Continuous
 62
     7
370
    15
100
AcDbLine
 10
712.8123471059
 20
560.7050358323
 30
0.0
 11
712.8123471059
 21
547.2824861795
 31
0.0
  0
ARC
  5
28E
330
1F
100
AcDbEntity
  8
0
  6
Continuous
 62
     7
370
    15
100
AcDbCircle
 10
704.2326588316
 20
560.5810603557
 30
0.0
 40
8.580583942954036
100
AcDbArc
 50
0.8278595938
 51
13.2521554663
  0
LINE
  5
28F
330
1F
100
AcDbEntity
  8
0
  6
Continuous
 62
     7
370
    15
100
AcDbLine
 10
711.2727048174
 20
568.1749330783
 30
0.0
 11
712.5847472751
 21
562.5480477566
 31
0.0
  0
ARC
  5
290
330
1F
100
AcDbEntity
  8
0
  6
Continuous
 62
     7
370
    15
100
AcDbCircle
 10
719.6248780812
 20
570.1419321904
 30
0.0
 40
8.580669189321707
100
AcDbArc
 50
180.8279305922
 51
193.2521017503
  0
LINE
  5
291
330
1F
100
AcDbEntity
  8
0
  6
Continuous
 62
     7
370
    15
100
AcDbLine
 10
711.0451047231
 20
571.8155793525
 30
0.0
 11
711.0451047231
 21
570.0179448505
 31
0.0
  0
LINE
  5
292
330
1F
100
AcDbEntity
  8
0
  6
Continuous
 62
     7
370
    15
100
AcDbLine
 10
714.3967251131
 20
562.4999420728
 30
0.0
 11
713.0846844993
 21
568.1268260259
 31
0.0
  0
LINE
  5
293
330
1F
100
AcDbEntity
  8
0
  6
Continuous
 62
     7
370
    15
100
AcDbLine
 10
712.8570822977
 20
569.9698390147
 30
0.0
 11
712.8570822977
 21
570.7695472664
 31
0.0
  0
ARC
  5
294
330
1F
100
AcDbEntity
  8
0
  6
Continuous
 62
     7
370
    15
100
AcDbCircle
 10
706.0445913442
 20
560.5329393461
 30
0.0
 40
8.580631574642183
100
AcDbArc
 50
0.8279492202
 51
13.2521856975
  0
LINE
  5
295
330
1F
100
AcDbEntity
  8
0
  6
Continuous
 62
     7
370
    15
100
AcDbLine
 10
714.6243270512
 20
545.9591949508
 30
0.0
 11
714.6243270512
 21
560.656928932
 31
0.0
  0
ARC
  5
296
330
1F
100
AcDbEntity
  8
0
  6
Continuous
 62
     7
370
    15
100
AcDbCircle
 10
721.4368066386
 20
570.0938285529
 30
0.0
 40
8.580620208995459
100
AcDbArc
 50
180.827949999
 51
193.252202201
  0
LWPOLYLINE
  5
297
330
1F
100
AcDbEntity
  8
0
  6
Continuous
 62
     7
370
    15
100
AcDbPolyline
 90
        6
 70
   128
 43
0.0
 10
714.4124200726
 20
545.0979354546
 10
714.4727137736
 20
545.1310777696
 10
714.5370883432
 20
545.2398547195
 10
714.5849234357
 20
545.4191329547
 10
714.6143793413
 20
545.6620262961
 10
714.6243270512
 20
545.9591949508
  0
ARC
  5
298
330
1F
100
AcDbEntity
  8
0
  6
Continuous
 62
     7
370
    15
100
AcDbCircle
 10
676.6796273546
 20
589.140473567
 30
0.0
 40
1.389523482823391
100
AcDbArc
 50
291.6579143553
 51
329.1814266571
  0
LINE
  5
299
330
1F
100
AcDbEntity
  8
0
  6
Continuous
 62
     7
370
    15
100
AcDbLine
 10
677.1924506979
 20
587.8490450061
 30
0.0
 11
672.2958414283
 21
585.8063380352
 31
0.0
  0
ARC
  5
29A
330
1F
100
AcDbEntity
  8
0
  6
Continuous
 62
     7
370
    15
100
AcDbCircle
 10
672.7595539935
 20
584.5777882729
 30
0.0
 40
1.313150357615619
100
AcDbArc
 50
110.67886956
 51
179.6820605597
  0
LINE
  5
29B
330
1F
100
AcDbEntity
  8
0
  6
Continuous
 62
     7
370
    15
100
AcDbLine
 10
671.4464238533
 20
584.5850750251
 30
0.0
 11
671.4464238533
 21
571.267043392
 31
0.0
  0
LWPOLYLINE
  5
29C
330
1F
100
AcDbEntity
  8
0
  6
Continuous
 62
     7
370
    15
100
AcDbPolyline
 90
        9
 70
   128
 43
0.0
 10
671.3502410572
 20
569.1380779611
 10
671.0695388314
 20
569.2108508524
 10
670.7071365203
 20
569.3598404518
 10
670.3731448729
 20
569.5624163267
 10
670.0803991852
 20
569.8107950061
 10
669.840148451
 20
570.0954284007
 10
669.6616259911
 20
570.4053800695
 10
669.5516927856
 20
570.7287410318
 10
669.5145724756
 20
571.0530814761
  0
LINE
  5
29D
330
1F
100
AcDbEntity
  8
0
  6
Continuous
 62
     7
370
    15
100
AcDbLine
 10
669.5145724756
 20
571.0530814761
 30
0.0
 11
669.5145724756
 21
585.7508154573
 31
0.0
  0
ARC
  5
29E
330
1F
100
AcDbEntity
  8
0
  6
Continuous
 62
     7
370
    15
100
AcDbCircle
 10
670.8277031351
 20
585.7435288499
 30
0.0
 40
1.31315087618621
100
AcDbArc
 50
110.678909812
 51
179.682067001
  0
LINE
  5
29F
330
1F
100
AcDbEntity
  8
0
  6
Continuous
 62
     7
370
    15
100
AcDbLine
 10
670.3639895238
 20
586.9720787716
 30
0.0
 11
675.2605990568
 21
589.0147852863
 31
0.0
  0
ARC
  5
2A0
330
1F
100
AcDbEntity
  8
0
  6
Continuous
 62
     7
370
    15
100
AcDbCircle
 10
674.7968845549
 20
590.2433358275
 30
0.0
 40
1.313151770132941
100
AcDbArc
 50
290.6789366209
 51
359.6820401921
  0
LINE
  5
2A1
330
1F
100
AcDbEntity
  8
0
  6
Continuous
 62
     7
370
    15
100
AcDbLine
 10
676.110016105
 20
590.2360486007
 30
0.0
 11
676.110016105
 21
592.0574040696
 31
0.0
  0
ARC
  5
2A2
330
1F
100
AcDbEntity
  8
0
  6
Continuous
 62
     7
370
    15
100
AcDbCircle
 10
675.0552615361
 20
591.1161529363
 30
0.0
 40
1.46240422327989
100
AcDbArc
 50
292.183033079
 51
315.7480609778
  0
LINE
  5
2A3
330
1F
100
AcDbEntity
  8
0
  6
Continuous
 62
     7
370
    15
100
AcDbLine
 10
670.710806984
 20
587.7192857999
 30
0.0
 11
675.607416517
 21
589.7619923146
 31
0.0
  0
ARC
  5
2A4
330
1F
100
AcDbEntity
  8
0
  6
Continuous
 62
     7
370
    15
100
AcDbCircle
 10
671.2060465809
 20
586.4510964139
 30
0.0
 40
1.361457519492607
100
AcDbArc
 50
111.3311015793
 51
154.3133102034
  0
LINE
  5
2A5
330
1F
100
AcDbEntity
  8
0
  6
Continuous
 62
     7
370
    15
100
AcDbLine
 10
671.8005076936
 20
585.4726650546
 30
0.0
 11
671.7932415769
 21
585.3322822054
 31
0.0
  0
LINE
  5
2A6
330
1F
100
AcDbEntity
  8
0
  6
Continuous
 62
     7
370
    15
100
AcDbLine
 10
671.7932415769
 20
585.3322822054
 30
0.0
 11
671.7932415769
 21
572.1582250572
 31
0.0
  0
LINE
  5
2A7
330
1F
100
AcDbEntity
  8
0
  6
Continuous
 62
     7
370
    15
100
AcDbLine
 10
743.8364373557
 20
557.6467370581
 30
0.0
 11
743.8364373557
 21
562.1972606105
 31
0.0
  0
ARC
  5
2A8
330
1F
100
AcDbEntity
  8
0
  6
Continuous
 62
     7
370
    15
100
AcDbCircle
 10
745.738238956
 20
557.7501518697
 30
0.0
 40
1.904611233352715
100
AcDbArc
 50
183.1125236687
 51
236.4580679341
  0
LINE
  5
2A9
330
1F
100
AcDbEntity
  8
0
  6
Continuous
 62
     7
370
    15
100
AcDbLine
 10
749.5824610393
 20
552.605134537
 30
0.0
 11
744.6858515063
 21
556.162693333
 31
0.0
  0
ARC
  5
2AA
330
1F
100
AcDbEntity
  8
0
  6
Continuous
 62
     7
370
    15
100
AcDbCircle
 10
748.5300741437
 20
551.0176707377
 30
0.0
 40
1.904615313400239
100
AcDbArc
 50
3.1126068194
 51
56.4581693031
  0
LINE
  5
2AB
330
1F
100
AcDbEntity
  8
0
  6
Continuous
 62
     7
370
    15
100
AcDbLine
 10
750.431879668
 20
536.4233545495
 30
0.0
 11
750.431879668
 21
551.1210885308
 31
0.0
  0
LWPOLYLINE
  5
2AC
330
1F
100
AcDbEntity
  8
0
  6
Continuous
 62
     7
370
    15
100
AcDbPolyline
 90
        9
 70
   128
 43
0.0
 10
748.5000275
 20
535.0890983222
 10
748.8769119951
 20
535.0621807195
 10
749.2393153599
 20
535.0990543347
 10
749.573306217
 20
535.1983038998
 10
749.8660524315
 20
535.3561167398
 10
750.1063047463
 20
535.5664233177
 10
750.2848256257
 20
535.8211472849
 10
750.3947577775
 20
536.1104985743
 10
750.431879668
 20
536.4233545495
  0
LINE
  5
2AD
330
1F
100
AcDbEntity
  8
0
  6
Continuous
 62
     7
370
    15
100
AcDbLine
 10
747.3409164627
 20
535.2683942378
 30
0.0
 11
748.5000275
 21
535.0890983222
 31
0.0
  0
LWPOLYLINE
  5
2AE
330
1F
100
AcDbEntity
  8
0
  6
Continuous
 62
     7
370
    15
100
AcDbPolyline
 90
        3
 70
   128
 43
0.0
 10
746.7153492295
 20
535.45315122
 10
746.9640319676
 20
535.358071322
 10
747.3409164627
 20
535.2683942378
  0
LINE
  5
2AF
330
1F
100
AcDbEntity
  8
0
  6
Continuous
 62
     7
370
    15
100
AcDbLine
 10
748.0170625482
 20
536.7968887208
 30
0.0
 11
747.9779721365
 21
536.8029353951
 31
0.0
  0
ARC
  5
2B0
330
1F
100
AcDbEntity
  8
0
  6
Continuous
 62
     7
370
    15
100
AcDbCircle
 10
748.1216775774
 20
537.1618403041
 30
0.0
 40
0.3796497892646052
100
AcDbArc
 50
254.0048096012
 51
355.2573678654
  0
LINE
  5
2B1
330
1F
100
AcDbEntity
  8
0
  6
Continuous
 62
     7
370
    15
100
AcDbLine
 10
748.5000275
 20
550.5530004914
 30
0.0
 11
748.5000275
 21
537.1304508386
 31
0.0
  0
ARC
  5
2B2
330
1F
100
AcDbEntity
  8
0
  6
Continuous
 62
     7
370
    15
100
AcDbCircle
 10
746.5982282915
 20
550.4495866628
 30
0.0
 40
1.904608791698936
100
AcDbArc
 50
3.1124980521
 51
56.4582576872
  0
LINE
  5
2B3
330
1F
100
AcDbEntity
  8
0
  6
Continuous
 62
     7
370
    15
100
AcDbLine
 10
742.75399947
 20
555.5946053697
 30
0.0
 11
747.6506091348
 21
552.0370466497
 31
0.0
  0
ARC
  5
2B4
330
1F
100
AcDbEntity
  8
0
  6
Continuous
 62
     7
370
    15
100
AcDbCircle
 10
743.8063931536
 20
557.1820676485
 30
0.0
 40
1.904617796841683
100
AcDbArc
 50
183.1126279617
 51
236.4579738327
  0
LINE
  5
2B5
330
1F
100
AcDbEntity
  8
0
  6
Continuous
 62
     7
370
    15
100
AcDbLine
 10
741.9045851877
 20
559.3668496148
 30
0.0
 11
741.9045851877
 21
557.0786490188
 31
0.0
  0
LINE
  5
2B6
330
1F
100
AcDbEntity
  8
0
  6
Continuous
 62
     7
370
    15
100
AcDbLine
 10
744.1832519183
 20
558.3939454551
 30
0.0
 11
744.1832519183
 21
562.9444690074
 31
0.0
  0
LINE
  5
2B7
330
1F
100
AcDbEntity
  8
0
  6
Continuous
 62
     7
370
    15
100
AcDbLine
 10
749.92928008
 20
553.3523406529
 30
0.0
 11
745.032670547
 21
556.9098994489
 31
0.0
  0
ARC
  5
2B8
330
1F
100
AcDbEntity
  8
0
  6
Continuous
 62
     7
370
    15
100
AcDbCircle
 10
746.0850601357
 20
558.4973647896
 30
0.0
 40
1.904618086278135
100
AcDbArc
 50
183.1126487233
 51
236.4581273992
  0
ARC
  5
2B9
330
1F
100
AcDbEntity
  8
0
  6
Continuous
 62
     7
370
    15
100
AcDbCircle
 10
748.8768940809
 20
551.7648825983
 30
0.0
 40
1.904610029955382
100
AcDbArc
 50
3.1125156934
 51
56.4580962926
  0
LINE
  5
2BA
330
1F
100
AcDbEntity
  8
0
  6
Continuous
 62
     7
370
    15
100
AcDbLine
 10
750.778694494
 20
537.1705630985
 30
0.0
 11
750.778694494
 21
551.8682970798
 31
0.0
  0
LWPOLYLINE
  5
2BB
330
1F
100
AcDbEntity
  8
0
  6
Continuous
 62
     7
370
    15
100
AcDbPolyline
 90
        3
 70
   128
 43
0.0
 10
750.660956219
 20
536.6273651455
 10
750.7415768182
 20
536.8577046902
 10
750.778694494
 20
537.1705630985
  0
LWPOLYLINE
  5
2BC
330
1F
100
AcDbEntity
  8
0
  6
Continuous
 62
     7
370
    15
100
AcDbPolyline
 90
        3
 70
   128
 43
0.0
 10
748.5000267098
 20
537.5395928212
 10
748.4581037664
 20
537.5373654361
 10
748.4458327114
 20
537.5373395759
  0
LINE
  5
2BD
330
1F
100
AcDbEntity
  8
0
  6
Continuous
 62
     7
370
    15
100
AcDbLine
 10
706.3976299532
 20
573.6915617187
 30
0.0
 11
706.3976299532
 21
570.7368336496
 31
0.0
  0
ARC
  5
2BE
330
1F
100
AcDbEntity
  8
0
  6
Continuous
 62
     7
370
    15
100
AcDbCircle
 10
703.3695952385
 20
570.8681306358
 30
0.0
 40
3.030879927022669
100
AcDbArc
 50
322.5515571735
 51
357.5171837178
  0
LINE
  5
2BF
330
1F
100
AcDbEntity
  8
0
  6
Continuous
 62
     7
370
    15
100
AcDbLine
 10
705.7758132626
 20
569.025212311
 30
0.0
 11
702.1912464507
 21
564.155753282
 31
0.0
  0
ARC
  5
2C0
330
1F
100
AcDbEntity
  8
0
  6
Continuous
 62
     7
370
    15
100
AcDbCircle
 10
704.5974670539
 20
562.3128340202
 30
0.0
 40
3.030882544184533
100
AcDbArc
 50
142.5515727566
 51
177.5171681347
  0
LINE
  5
2C1
330
1F
100
AcDbEntity
  8
0
  6
Continuous
 62
     7
370
    15
100
AcDbLine
 10
701.5694297602
 20
562.4441319433
 30
0.0
 11
701.5694297602
 21
549.0215822905
 31
0.0
  0
ARC
  5
2C2
330
1F
100
AcDbEntity
  8
0
  6
Continuous
 62
     7
370
    15
100
AcDbCircle
 10
701.7849669383
 20
548.9866189675
 30
0.0
 40
0.2183545490667716
100
AcDbArc
 50
170.7860341325
 51
309.2033619827
  0
LINE
  5
2C3
330
1F
100
AcDbEntity
  8
0
  6
Continuous
 62
     7
370
    15
100
AcDbLine
 10
701.9229833405
 20
548.8174144113
 30
0.0
 11
702.0644049833
 21
548.899055388
 31
0.0
  0
ARC
  5
2C4
330
1F
100
AcDbEntity
  8
0
  6
Continuous
 62
     7
370
    15
100
AcDbCircle
 10
701.7344925092
 20
549.4467849283
 30
0.0
 40
0.6394137080116926
100
AcDbArc
 50
301.0617047267
 51
318.3286711711
  0
ARC
  5
2C5
330
1F
100
AcDbEntity
  8
0
  6
Continuous
 62
     7
370
    15
100
AcDbCircle
 10
700.8930078707
 20
549.9155172189
 30
0.0
 40
2.881954568746894
100
AcDbArc
 50
301.9472083961
 51
330.9364773967
  0
LINE
  5
2C6
330
1F
100
AcDbEntity
  8
0
  6
Continuous
 62
     7
370
    15
100
AcDbLine
 10
702.4179585635
 20
547.4700750256
 30
0.0
 11
701.5694297602
 21
546.9802297741
 31
0.0
  0
LWPOLYLINE
  5
2C7
330
1F
100
AcDbEntity
  8
0
  6
Continuous
 62
     7
370
    15
100
AcDbPolyline
 90
        9
 70
   128
 43
0.0
 10
701.5694297602
 20
546.9802297741
 10
701.2935312215
 20
546.8523366786
 10
701.0282336689
 20
546.792115877
 10
700.783735586
 20
546.8018824779
 10
700.5694304517
 20
546.881262669
 10
700.3935548138
 20
547.0272022669
 10
700.2628669197
 20
547.2340951133
 10
700.1823906734
 20
547.493992987
 10
700.1552164929
 20
547.7969043324
  0
LINE
  5
2C8
330
1F
100
AcDbEntity
  8
0
  6
Continuous
 62
     7
370
    15
100
AcDbLine
 10
700.1552164929
 20
547.7969043324
 30
0.0
 11
700.1552164929
 21
562.4946383136
 31
0.0
  0
ARC
  5
2C9
330
1F
100
AcDbEntity
  8
0
  6
Continuous
 62
     7
370
    15
100
AcDbCircle
 10
703.1832425655
 20
562.363344467
 30
0.0
 40
3.030871157065053
100
AcDbArc
 50
142.5515049555
 51
177.5172359358
  0
LINE
  5
2CA
330
1F
100
AcDbEntity
  8
0
  6
Continuous
 62
     7
370
    15
100
AcDbLine
 10
700.7770331834
 20
564.2062596523
 30
0.0
 11
704.3615999953
 21
569.0757186813
 31
0.0
  0
ARC
  5
2CB
330
1F
100
AcDbEntity
  8
0
  6
Continuous
 62
     7
370
    15
100
AcDbCircle
 10
701.9553888736
 20
570.9186335899
 30
0.0
 40
3.030872369887961
100
AcDbArc
 50
322.5515291044
 51
357.517236411
  0
LINE
  5
2CC
330
1F
100
AcDbEntity
  8
0
  6
Continuous
 62
     7
370
    15
100
AcDbLine
 10
704.983416159
 20
570.7873397158
 30
0.0
 11
704.983416159
 21
575.3149176693
 31
0.0
  0
LINE
  5
2CD
330
1F
100
AcDbEntity
  8
0
  6
Continuous
 62
     7
370
    15
100
AcDbLine
 10
704.0358917842
 20
571.3343338943
 30
0.0
 11
704.0358917842
 21
575.8619118478
 31
0.0
  0
LINE
  5
2CE
330
1F
100
AcDbEntity
  8
0
  6
Continuous
 62
     7
370
    15
100
AcDbLine
 10
699.8295088086
 20
564.7532538308
 30
0.0
 11
703.4140756205
 21
569.6227128598
 31
0.0
  0
ARC
  5
2CF
330
1F
100
AcDbEntity
  8
0
  6
Continuous
 62
     7
370
    15
100
AcDbCircle
 10
702.2357181907
 20
562.9103386455
 30
0.0
 40
3.030871157066231
100
AcDbArc
 50
142.5515049555
 51
177.5172359358
  0
ARC
  5
2D0
330
1F
100
AcDbEntity
  8
0
  6
Continuous
 62
     7
370
    15
100
AcDbCircle
 10
701.0078644988
 20
571.4656277683
 30
0.0
 40
3.030872369884954
100
AcDbArc
 50
322.5515291044
 51
357.517236411
  0
LINE
  5
2D1
330
1F
100
AcDbEntity
  8
0
  6
Continuous
 62
     7
370
    15
100
AcDbLine
 10
699.2076921181
 20
548.3438985108
 30
0.0
 11
699.2076921181
 21
563.0416324921
 31
0.0
  0
ARC
  5
2D2
330
1F
100
AcDbEntity
  8
0
  6
Continuous
 62
     7
370
    15
100
AcDbCircle
 10
700.1928262359
 20
548.2380462539
 30
0.0
 40
0.9908046882943895
100
AcDbArc
 50
173.8671219676
 51
234.8207192248
  0
LINE
  5
2D3
330
1F
100
AcDbEntity
  8
0
  6
Continuous
 62
     7
370
    15
100
AcDbLine
 10
737.7256924941
 20
554.6660757494
 30
0.0
 11
737.7256924941
 21
559.2165993018
 31
0.0
  0
ARC
  5
2D4
330
1F
100
AcDbEntity
  8
0
  6
Continuous
 62
     7
370
    15
100
AcDbCircle
 10
746.3053538926
 20
554.7900561586
 30
0.0
 40
8.58055714132151
100
AcDbArc
 50
180.8278951201
 51
193.2522397976
  0
LINE
  5
2D5
330
1F
100
AcDbEntity
  8
0
  6
Continuous
 62
     7
370
    15
100
AcDbLine
 10
739.2653371533
 20
547.1961774389
 30
0.0
 11
737.9532944322
 21
552.8230626086
 31
0.0
  0
ARC
  5
2D6
330
1F
100
AcDbEntity
  8
0
  6
Continuous
 62
     7
370
    15
100
AcDbCircle
 10
730.9130896714
 20
545.2291801264
 30
0.0
 40
8.580741018564957
100
AcDbArc
 50
0.8279187518
 51
13.2519764504
  0
LINE
  5
2D7
330
1F
100
AcDbEntity
  8
0
  6
Continuous
 62
     7
370
    15
100
AcDbLine
 10
739.4929348768
 20
530.65543275
 30
0.0
 11
739.4929348768
 21
545.3531667312
 31
0.0
  0
LWPOLYLINE
  5
2D8
330
1F
100
AcDbEntity
  8
0
  6
Continuous
 62
     7
370
    15
100
AcDbPolyline
 90
        9
 70
   128
 43
0.0
 10
738.9753004543
 20
530.1375821831
 10
739.0762858838
 20
529.9513914401
 10
739.1733922228
 20
529.8351123422
 10
739.2628847336
 20
529.7932160164
 10
739.3413258139
 20
529.8273131357
 10
739.4056982761
 20
529.9360913021
 10
739.453535476
 20
530.1153683208
 10
739.4829913816
 20
530.3582616622
 10
739.4929348768
 20
530.65543275
  0
LINE
  5
2D9
330
1F
100
AcDbEntity
  8
0
  6
Continuous
 62
     7
370
    15
100
AcDbLine
 10
738.6647176934
 20
530.8067230461
 30
0.0
 11
738.9753004543
 21
530.1375821831
 31
0.0
  0
ARC
  5
2DA
330
1F
100
AcDbEntity
  8
0
  6
Continuous
 62
     7
370
    15
100
AcDbCircle
 10
744.4823222897
 20
533.1957449037
 30
0.0
 40
6.289034001738909
100
AcDbArc
 50
187.5123339775
 51
202.3256945212
  0
ARC
  5
2DB
330
1F
100
AcDbEntity
  8
0
  6
Continuous
 62
     7
370
    15
100
AcDbCircle
 10
740.0400125529
 20
532.6868771488
 30
0.0
 40
1.352325210245767
100
AcDbArc
 50
191.3865702491
 51
202.8842148331
  0
LINE
  5
2DC
330
1F
100
AcDbEntity
  8
0
  6
Continuous
 62
     7
370
    15
100
AcDbLine
 10
738.8458890828
 20
532.0494747191
 30
0.0
 11
738.7941253771
 21
532.160998247
 31
0.0
  0
LWPOLYLINE
  5
2DD
330
1F
100
AcDbEntity
  8
0
  6
Continuous
 62
     7
370
    15
100
AcDbPolyline
 90
        9
 70
   128
 43
0.0
 10
738.9753004543
 20
532.1789346995
 10
738.9728137902
 20
532.1046420796
 10
738.9654496821
 20
532.0439186682
 10
738.9534884065
 20
531.9991019228
 10
738.9373972666
 20
531.9719048719
 10
738.9177858111
 20
531.9633829494
 10
738.8954121566
 20
531.9738573349
 10
738.8711360987
 20
532.0029268054
 10
738.8458890828
 20
532.0494747191
  0
LINE
  5
2DE
330
1F
100
AcDbEntity
  8
0
  6
Continuous
 62
     7
370
    15
100
AcDbLine
 10
738.9753004543
 20
545.6014843524
 30
0.0
 11
738.9753004543
 21
532.1789346995
 31
0.0
  0
ARC
  5
2DF
330
1F
100
AcDbEntity
  8
0
  6
Continuous
 62
     7
370
    15
100
AcDbCircle
 10
730.3950937522
 20
545.4774366012
 30
0.0
 40
8.581103361218474
100
AcDbArc
 50
0.8282921051
 51
13.2518428125
  0
LINE
  5
2E0
330
1F
100
AcDbEntity
  8
0
  6
Continuous
 62
     7
370
    15
100
AcDbLine
 10
737.4356560584
 20
553.0713828149
 30
0.0
 11
738.7476985161
 21
547.4444974932
 31
0.0
  0
ARC
  5
2E1
330
1F
100
AcDbEntity
  8
0
  6
Continuous
 62
     7
370
    15
100
AcDbCircle
 10
745.7877551548
 20
555.0383824962
 30
0.0
 40
8.580597127390025
100
AcDbArc
 50
180.8279332227
 51
193.2522189773
  0
LINE
  5
2E2
330
1F
100
AcDbEntity
  8
0
  6
Continuous
 62
     7
370
    15
100
AcDbLine
 10
737.2080538569
 20
558.0787226547
 30
0.0
 11
737.2080538569
 21
554.9143958036
 31
0.0
  0
LINE
  5
2E3
330
1F
100
AcDbEntity
  8
0
  6
Continuous
 62
     7
370
    15
100
AcDbLine
 10
740.5596763541
 20
547.3963918095
 30
0.0
 11
739.247633633
 21
553.0232769791
 31
0.0
  0
LINE
  5
2E4
330
1F
100
AcDbEntity
  8
0
  6
Continuous
 62
     7
370
    15
100
AcDbLine
 10
739.0200356461
 20
554.8662875348
 30
0.0
 11
739.0200356461
 21
559.4168110871
 31
0.0
  0
ARC
  5
2E5
330
1F
100
AcDbEntity
  8
0
  6
Continuous
 62
     7
370
    15
100
AcDbCircle
 10
732.2075772193
 20
545.4293933599
 30
0.0
 40
8.580596882402759
100
AcDbArc
 50
0.827924005
 51
13.2522109126
  0
LINE
  5
2E6
330
1F
100
AcDbEntity
  8
0
  6
Continuous
 62
     7
370
    15
100
AcDbLine
 10
740.7872782923
 20
530.8556446874
 30
0.0
 11
740.7872782923
 21
545.5533786686
 31
0.0
  0
ARC
  5
2E7
330
1F
100
AcDbEntity
  8
0
  6
Continuous
 62
     7
370
    15
100
AcDbCircle
 10
747.5998694845
 20
554.9902740919
 30
0.0
 40
8.580729651932472
100
AcDbArc
 50
180.8279195302
 51
193.2519929545
  0
LWPOLYLINE
  5
2E8
330
1F
100
AcDbEntity
  8
0
  6
Continuous
 62
     7
370
    15
100
AcDbPolyline
 90
        6
 70
   128
 43
0.0
 10
740.5753692064
 20
529.9943864078
 10
740.6356650147
 20
530.0275275062
 10
740.7000416916
 20
530.1363032396
 10
740.7478746768
 20
530.3155826913
 10
740.7773305824
 20
530.5584760327
 10
740.7872782923
 20
530.8556446874
  0
LINE
  5
2E9
330
1F
100
AcDbEntity
  8
0
  6
Continuous
 62
     7
370
    15
100
AcDbLine
 10
680.2346780535
 20
588.7951123622
 30
0.0
 11
680.2346780535
 21
585.8403842932
 31
0.0
  0
ARC
  5
2EA
330
1F
100
AcDbEntity
  8
0
  6
Continuous
 62
     7
370
    15
100
AcDbCircle
 10
677.2066433388
 20
585.9716812794
 30
0.0
 40
3.030879927023138
100
AcDbArc
 50
322.5515571735
 51
357.5171837178
  0
LINE
  5
2EB
330
1F
100
AcDbEntity
  8
0
  6
Continuous
 62
     7
370
    15
100
AcDbLine
 10
679.612861363
 20
584.1287629545
 30
0.0
 11
676.0282945511
 21
579.2593039255
 31
0.0
  0
ARC
  5
2EC
330
1F
100
AcDbEntity
  8
0
  6
Continuous
 62
     7
370
    15
100
AcDbCircle
 10
678.4345151543
 20
577.4163846637
 30
0.0
 40
3.030882544185461
100
AcDbArc
 50
142.5515727566
 51
177.5171681347
  0
LINE
  5
2ED
330
1F
100
AcDbEntity
  8
0
  6
Continuous
 62
     7
370
    15
100
AcDbLine
 10
675.4064778606
 20
577.5476825868
 30
0.0
 11
675.4064778606
 21
564.125132934
 31
0.0
  0
ARC
  5
2EE
330
1F
100
AcDbEntity
  8
0
  6
Continuous
 62
     7
370
    15
100
AcDbCircle
 10
675.6220150387
 20
564.0901696111
 30
0.0
 40
0.2183545490667012
100
AcDbArc
 50
170.7860341325
 51
309.2033619827
  0
LINE
  5
2EF
330
1F
100
AcDbEntity
  8
0
  6
Continuous
 62
     7
370
    15
100
AcDbLine
 10
675.7600314408
 20
563.9209650549
 30
0.0
 11
675.9014530837
 21
564.0026060315
 31
0.0
  0
ARC
  5
2F0
330
1F
100
AcDbEntity
  8
0
  6
Continuous
 62
     7
370
    15
100
AcDbCircle
 10
675.5715406095
 20
564.5503355719
 30
0.0
 40
0.6394137080299632
100
AcDbArc
 50
301.0617047269
 51
318.3286711708
  0
ARC
  5
2F1
330
1F
100
AcDbEntity
  8
0
  6
Continuous
 62
     7
370
    15
100
AcDbCircle
 10
674.7300559711
 20
565.0190678624
 30
0.0
 40
2.881954568748081
100
AcDbArc
 50
301.9472083961
 51
330.9364773967
  0
LINE
  5
2F2
330
1F
100
AcDbEntity
  8
0
  6
Continuous
 62
     7
370
    15
100
AcDbLine
 10
676.2550066639
 20
562.5736256691
 30
0.0
 11
675.4064778606
 21
562.0837804176
 31
0.0
  0
LWPOLYLINE
  5
2F3
330
1F
100
AcDbEntity
  8
0
  6
Continuous
 62
     7
370
    15
100
AcDbPolyline
 90
        9
 70
   128
 43
0.0
 10
675.4064778606
 20
562.0837804176
 10
675.1305793219
 20
561.9558873222
 10
674.8652817692
 20
561.8956665205
 10
674.6207836863
 20
561.9054331215
 10
674.406478552
 20
561.9848133126
 10
674.2306029142
 20
562.1307529104
 10
674.09991502
 20
562.3376457568
 10
674.0194387738
 20
562.5975436305
 10
673.9922645932
 20
562.9004549759
  0
LINE
  5
2F4
330
1F
100
AcDbEntity
  8
0
  6
Continuous
 62
     7
370
    15
100
AcDbLine
 10
673.9922645932
 20
562.9004549759
 30
0.0
 11
673.9922645932
 21
577.5981889572
 31
0.0
  0
ARC
  5
2F5
330
1F
100
AcDbEntity
  8
0
  6
Continuous
 62
     7
370
    15
100
AcDbCircle
 10
677.0202906659
 20
577.4668951105
 30
0.0
 40
3.030871157065642
100
AcDbArc
 50
142.5515049555
 51
177.5172359358
  0
LINE
  5
2F6
330
1F
100
AcDbEntity
  8
0
  6
Continuous
 62
     7
370
    15
100
AcDbLine
 10
674.6140812838
 20
579.3098102958
 30
0.0
 11
678.1986480957
 21
584.1792693248
 31
0.0
  0
ARC
  5
2F7
330
1F
100
AcDbEntity
  8
0
  6
Continuous
 62
     7
370
    15
100
AcDbCircle
 10
675.792436974
 20
586.0221842334
 30
0.0
 40
3.0308723698837
100
AcDbArc
 50
322.5515291044
 51
357.517236411
  0
LINE
  5
2F8
330
1F
100
AcDbEntity
  8
0
  6
Continuous
 62
     7
370
    15
100
AcDbLine
 10
678.8204642594
 20
585.8908903594
 30
0.0
 11
678.8204642594
 21
590.4184683128
 31
0.0
  0
LINE
  5
2F9
330
1F
100
AcDbEntity
  8
0
  6
Continuous
 62
     7
370
    15
100
AcDbLine
 10
677.8729412017
 20
586.4378837775
 30
0.0
 11
677.8729412017
 21
590.9884073299
 31
0.0
  0
LINE
  5
2FA
330
1F
100
AcDbEntity
  8
0
  6
Continuous
 62
     7
370
    15
100
AcDbLine
 10
673.666558226
 20
579.856803714
 30
0.0
 11
677.251125038
 21
584.726262743
 31
0.0
  0
ARC
  5
2FB
330
1F
100
AcDbEntity
  8
0
  6
Continuous
 62
     7
370
    15
100
AcDbCircle
 10
676.0727676082
 20
578.0138885287
 30
0.0
 40
3.030871157067549
100
AcDbArc
 50
142.5515049555
 51
177.5172359358
  0
ARC
  5
2FC
330
1F
100
AcDbEntity
  8
0
  6
Continuous
 62
     7
370
    15
100
AcDbCircle
 10
674.8449139162
 20
586.5691776515
 30
0.0
 40
3.030872369883932
100
AcDbArc
 50
322.5515291044
 51
357.517236411
  0
LINE
  5
2FD
330
1F
100
AcDbEntity
  8
0
  6
Continuous
 62
     7
370
    15
100
AcDbLine
 10
673.0447415355
 20
563.447448394
 30
0.0
 11
673.0447415355
 21
578.1451823753
 31
0.0
  0
ARC
  5
2FE
330
1F
100
AcDbEntity
  8
0
  6
Continuous
 62
     7
370
    15
100
AcDbCircle
 10
674.0298756539
 20
563.3415961374
 30
0.0
 40
0.9908046888337233
100
AcDbArc
 50
173.867121986
 51
234.8207192064
  0
ARC
  5
2FF
330
1F
100
AcDbEntity
  8
0
  6
Continuous
 62
     7
370
    15
100
AcDbCircle
 10
729.0055353321
 20
558.9333581521
 30
0.0
 40
1.389508094683636
100
AcDbArc
 50
291.6579458869
 51
329.1818359877
  0
LINE
  5
300
330
1F
100
AcDbEntity
  8
0
  6
Continuous
 62
     7
370
    15
100
AcDbLine
 10
729.5183537069
 20
557.6419441753
 30
0.0
 11
724.6217439105
 21
555.5992375085
 31
0.0
  0
ARC
  5
301
330
1F
100
AcDbEntity
  8
0
  6
Continuous
 62
     7
370
    15
100
AcDbCircle
 10
725.0854545465
 20
554.3706879513
 30
0.0
 40
1.313149484411144
100
AcDbArc
 50
110.6787939721
 51
179.6820427608
  0
LINE
  5
302
330
1F
100
AcDbEntity
  8
0
  6
Continuous
 62
     7
370
    15
100
AcDbLine
 10
723.7723252818
 20
554.3779751066
 30
0.0
 11
723.7723252818
 21
541.0599434735
 31
0.0
  0
LWPOLYLINE
  5
303
330
1F
100
AcDbEntity
  8
0
  6
Continuous
 62
     7
370
    15
100
AcDbPolyline
 90
        9
 70
   128
 43
0.0
 10
723.6761419588
 20
538.9309783468
 10
723.3954413136
 20
539.0037503257
 10
723.0330374219
 20
539.1527408375
 10
722.6990468283
 20
539.3553161041
 10
722.4063006137
 20
539.6036950876
 10
722.166048299
 20
539.8883293946
 10
721.9875274196
 20
540.198280151
 10
721.8775952677
 20
540.5216405051
 10
721.8404733772
 20
540.8459818617
  0
LINE
  5
304
330
1F
100
AcDbEntity
  8
0
  6
Continuous
 62
     7
370
    15
100
AcDbLine
 10
721.8404733772
 20
540.8459818617
 30
0.0
 11
721.8404733772
 21
555.543715843
 31
0.0
  0
ARC
  5
305
330
1F
100
AcDbEntity
  8
0
  6
Continuous
 62
     7
370
    15
100
AcDbCircle
 10
723.1536015929
 20
555.5364294174
 30
0.0
 40
1.31314843130099
100
AcDbArc
 50
110.6787623899
 51
179.682074343
  0
LINE
  5
306
330
1F
100
AcDbEntity
  8
0
  6
Continuous
 62
     7
370
    15
100
AcDbLine
 10
722.6898920059
 20
556.7649782449
 30
0.0
 11
727.586501539
 21
558.8076847596
 31
0.0
  0
ARC
  5
307
330
1F
100
AcDbEntity
  8
0
  6
Continuous
 62
     7
370
    15
100
AcDbCircle
 10
727.1227817778
 20
560.0362361173
 30
0.0
 40
1.313154391271775
100
AcDbArc
 50
290.6791387291
 51
359.6820715509
  0
LINE
  5
308
330
1F
100
AcDbEntity
  8
0
  6
Continuous
 62
     7
370
    15
100
AcDbLine
 10
728.435915953
 20
560.0289495946
 30
0.0
 11
728.435915953
 21
561.7760778017
 31
0.0
  0
ARC
  5
309
330
1F
100
AcDbEntity
  8
0
  6
Continuous
 62
     7
370
    15
100
AcDbCircle
 10
727.3811874599
 20
560.9090307249
 30
0.0
 40
1.462372890263647
100
AcDbArc
 50
292.1824303273
 51
315.7480344976
  0
LINE
  5
30A
330
1F
100
AcDbEntity
  8
0
  6
Continuous
 62
     7
370
    15
100
AcDbLine
 10
723.0367110466
 20
557.5121843608
 30
0.0
 11
727.933316365
 21
559.5548933086
 31
0.0
  0
ARC
  5
30B
330
1F
100
AcDbEntity
  8
0
  6
Continuous
 62
     7
370
    15
100
AcDbCircle
 10
723.5318391544
 20
556.2441140607
 30
0.0
 40
1.361306038034149
100
AcDbArc
 50
111.3285538103
 51
154.3157912114
  0
LINE
  5
30C
330
1F
100
AcDbEntity
  8
0
  6
Continuous
 62
     7
370
    15
100
AcDbLine
 10
724.1264107026
 20
555.2655642237
 30
0.0
 11
724.1191445859
 21
555.1251813746
 31
0.0
  0
LINE
  5
30D
330
1F
100
AcDbEntity
  8
0
  6
Continuous
 62
     7
370
    15
100
AcDbLine
 10
724.1191445859
 20
555.1251813746
 30
0.0
 11
724.1191445859
 21
541.9511242263
 31
0.0
  0
ARC
  5
30E
330
1F
100
AcDbEntity
  8
0
  6
Continuous
 62
     7
370
    15
100
AcDbCircle
 10
702.8425683135
 20
574.0369327744
 30
0.0
 40
1.389536556881291
100
AcDbArc
 50
291.6581798317
 51
329.1813081347
  0
LINE
  5
30F
330
1F
100
AcDbEntity
  8
0
  6
Continuous
 62
     7
370
    15
100
AcDbLine
 10
703.3554024659
 20
572.7454944386
 30
0.0
 11
698.4587926694
 21
570.7027877719
 31
0.0
  0
ARC
  5
310
330
1F
100
AcDbEntity
  8
0
  6
Continuous
 62
     7
370
    15
100
AcDbCircle
 10
698.9225092172
 20
569.4742341029
 30
0.0
 40
1.313155418918739
100
AcDbArc
 50
110.678971944
 51
179.6818647889
  0
LINE
  5
311
330
1F
100
AcDbEntity
  8
0
  6
Continuous
 62
     7
370
    15
100
AcDbLine
 10
697.6093740407
 20
569.48152537
 30
0.0
 11
697.6093740407
 21
556.1634937369
 31
0.0
  0
LWPOLYLINE
  5
312
330
1F
100
AcDbEntity
  8
0
  6
Continuous
 62
     7
370
    15
100
AcDbPolyline
 90
        9
 70
   128
 43
0.0
 10
697.5131928251
 20
554.0345273936
 10
697.2324900725
 20
554.107300589
 10
696.8700882882
 20
554.2562898843
 10
696.5360955872
 20
554.4588663675
 10
696.2433493726
 20
554.707245351
 10
696.0030991652
 20
554.9918784414
 10
695.8245772321
 20
555.3018298061
 10
695.7146440267
 20
555.6251907685
 10
695.6775231898
 20
555.9495315168
  0
LINE
  5
313
330
1F
100
AcDbEntity
  8
0
  6
Continuous
 62
     7
370
    15
100
AcDbLine
 10
695.6775231898
 20
555.9495315168
 30
0.0
 11
695.6775231898
 21
570.6472654981
 31
0.0
  0
ARC
  5
314
330
1F
100
AcDbEntity
  8
0
  6
Continuous
 62
     7
370
    15
100
AcDbCircle
 10
696.9906556285
 20
570.6399771472
 30
0.0
 40
1.313152665004449
100
AcDbArc
 50
110.6789387571
 51
179.6819913625
  0
LINE
  5
315
330
1F
100
AcDbEntity
  8
0
  6
Continuous
 62
     7
370
    15
100
AcDbLine
 10
696.5269407649
 20
571.8685285083
 30
0.0
 11
701.4235502979
 21
573.911235023
 31
0.0
  0
ARC
  5
316
330
1F
100
AcDbEntity
  8
0
  6
Continuous
 62
     7
370
    15
100
AcDbCircle
 10
700.9598351787
 20
575.1397854252
 30
0.0
 40
1.313151858199487
100
AcDbArc
 50
290.6789639624
 51
359.682059544
  0
LINE
  5
317
330
1F
100
AcDbEntity
  8
0
  6
Continuous
 62
     7
370
    15
100
AcDbLine
 10
702.2729668192
 20
575.1324986414
 30
0.0
 11
702.2729668192
 21
576.8796268485
 31
0.0
  0
ARC
  5
318
330
1F
100
AcDbEntity
  8
0
  6
Continuous
 62
     7
370
    15
100
AcDbCircle
 10
701.2182043726
 20
576.0126198398
 30
0.0
 40
1.462422812196809
100
AcDbArc
 50
292.1830694355
 51
315.7478148769
  0
LINE
  5
319
330
1F
100
AcDbEntity
  8
0
  6
Continuous
 62
     7
370
    15
100
AcDbLine
 10
696.8737576982
 20
572.6157358407
 30
0.0
 11
701.7703672312
 21
574.6584423554
 31
0.0
  0
ARC
  5
31A
330
1F
100
AcDbEntity
  8
0
  6
Continuous
 62
     7
370
    15
100
AcDbCircle
 10
697.3690383299
 20
571.3475009576
 30
0.0
 40
1.361514826556081
100
AcDbArc
 50
111.3320136612
 51
154.3123313605
  0
LINE
  5
31B
330
1F
100
AcDbEntity
  8
0
  6
Continuous
 62
     7
370
    15
100
AcDbLine
 10
697.9634594615
 20
570.3691144871
 30
0.0
 11
697.9561933448
 21
570.2287316379
 31
0.0
  0
LINE
  5
31C
330
1F
100
AcDbEntity
  8
0
  6
Continuous
 62
     7
370
    15
100
AcDbLine
 10
697.9561933448
 20
570.2287316379
 30
0.0
 11
697.9561933448
 21
557.0546744897
 31
0.0
  0
LINE
  5
31D
330
1F
100
AcDbEntity
  8
0
  6
Continuous
 62
     7
370
    15
100
AcDbLine
 10
704.983416159
 20
575.3149176693
 30
0.0
 11
704.983416159
 21
574.2436983097
 31
0.0
  0
ARC
  5
31E
330
1F
100
AcDbEntity
  8
0
  6
Continuous
 62
     7
370
    15
100
AcDbCircle
 10
709.7719872279
 20
584.4855761494
 30
0.0
 40
11.3060370848974
100
AcDbArc
 50
244.9416470754
 51
263.9059399969
  0
LINE
  5
31F
330
1F
100
AcDbEntity
  8
0
  6
Continuous
 62
     7
370
    15
100
AcDbLine
 10
704.0358917842
 20
575.8619118478
 30
0.0
 11
704.0358917842
 21
574.7906924881
 31
0.0
  0
ARC
  5
320
330
1F
100
AcDbEntity
  8
0
  6
Continuous
 62
     7
370
    15
100
AcDbCircle
 10
706.2705122902
 20
578.4202585989
 30
0.0
 40
4.262309111034821
100
AcDbArc
 50
201.4412891624
 51
238.380575884
  0
LWPOLYLINE
  5
321
330
1F
100
AcDbEntity
  8
0
  6
Continuous
 62
     7
370
    15
100
AcDbPolyline
 90
        9
 70
   128
 43
0.0
 10
675.9836838242
 20
593.9690703874
 10
675.9849076633
 20
593.8882840321
 10
676.0367237891
 20
593.4381453719
 10
676.1643699979
 20
592.9930723962
 10
676.3666287726
 20
592.5573126645
 10
676.6415696559
 20
592.1350237883
 10
676.9865697967
 20
591.7302357179
 10
677.3983368017
 20
591.3468107869
 10
677.8729412017
 20
590.9884073299
  0
LINE
  5
322
330
1F
100
AcDbEntity
  8
0
  6
Continuous
 62
     7
370
    15
100
AcDbLine
 10
678.8204642594
 20
590.4184683128
 30
0.0
 11
678.8204642594
 21
589.3472489532
 31
0.0
  0
ARC
  5
323
330
1F
100
AcDbEntity
  8
0
  6
Continuous
 62
     7
370
    15
100
AcDbCircle
 10
683.6090815524
 20
599.58928356
 30
0.0
 40
11.30619867447025
100
AcDbArc
 50
244.9417713543
 51
263.9058005716
  0
LINE
  5
324
330
1F
100
AcDbEntity
  8
0
  6
Continuous
 62
     7
370
    15
100
AcDbLine
 10
677.8729412017
 20
590.9884073299
 30
0.0
 11
677.8729412017
 21
589.8942423713
 31
0.0
  0
LWPOLYLINE
  5
325
330
1F
100
AcDbEntity
  8
0
  6
Continuous
 62
     7
370
    15
100
AcDbPolyline
 90
        9
 70
   128
 43
0.0
 10
675.9836838242
 20
592.8749054289
 10
675.9849076633
 20
592.7941190736
 10
676.0367237891
 20
592.3439804133
 10
676.1643699979
 20
591.8989074376
 10
676.3666287726
 20
591.463147706
 10
676.6415696559
 20
591.0408588298
 10
676.9865697967
 20
590.6360707594
 10
677.3983368017
 20
590.2526458284
 10
677.8729412017
 20
589.8942423713
  0
LWPOLYLINE
  5
326
330
1F
100
AcDbEntity
  8
0
  6
Continuous
 62
     7
370
    15
100
AcDbPolyline
 90
        3
 70
   128
 43
0.0
 10
744.1832519183
 20
562.9444690074
 10
744.2838514407
 20
563.3918473319
 10
744.3095831454
 20
563.7619713813
  0
LWPOLYLINE
  5
327
330
1F
100
AcDbEntity
  8
0
  6
Continuous
 62
     7
370
    15
100
AcDbPolyline
 90
       10
 70
   128
 43
0.0
 10
739.0200356461
 20
559.4168110871
 10
739.7414722083
 20
559.5902076821
 10
740.4301667278
 20
559.8034081917
 10
741.0795376449
 20
560.054384449
 10
741.683396617
 20
560.3407367469
 10
742.2359777575
 20
560.6597350492
 10
742.7320082323
 20
561.0083354136
 10
743.1667589674
 20
561.3832092647
 10
743.5360730983
 20
561.7807841481
 10
743.8364373557
 20
562.1972606105
  0
ARC
  5
328
330
1F
100
AcDbEntity
  8
0
  6
Continuous
 62
     7
370
    15
100
AcDbCircle
 10
736.2763240922
 20
571.6226040144
 30
0.0
 40
12.49038116691058
100
AcDbArc
 50
245.7503834827
 51
276.663543025
  0
LINE
  5
329
330
1F
100
AcDbEntity
  8
0
  6
Continuous
 62
     7
370
    15
100
AcDbLine
 10
731.1463652927
 20
560.2343142214
 30
0.0
 11
731.1463652927
 21
559.1401492628
 31
0.0
  0
LINE
  5
32A
330
1F
100
AcDbEntity
  8
0
  6
Continuous
 62
     7
370
    15
100
AcDbLine
 10
737.7256924941
 20
559.2165993018
 30
0.0
 11
737.7256924941
 21
558.1224343432
 31
0.0
  0
ARC
  5
32B
330
1F
100
AcDbEntity
  8
0
  6
Continuous
 62
     7
370
    15
100
AcDbCircle
 10
736.2763240922
 20
570.5284390559
 30
0.0
 40
12.49038116690992
100
AcDbArc
 50
245.7503834827
 51
276.663543025
  0
LINE
  5
32C
330
1F
100
AcDbEntity
  8
0
  6
Continuous
 62
     7
370
    15
100
AcDbLine
 10
739.0200356461
 20
559.4168110871
 30
0.0
 11
739.0200356461
 21
558.3226461286
 31
0.0
  0
LINE
  5
32D
330
1F
100
AcDbEntity
  8
0
  6
Continuous
 62
     7
370
    15
100
AcDbLine
 10
743.8364373557
 20
562.1972606105
 30
0.0
 11
743.8364373557
 21
561.103095652
 31
0.0
  0
LWPOLYLINE
  5
32E
330
1F
100
AcDbEntity
  8
0
  6
Continuous
 62
     7
370
    15
100
AcDbPolyline
 90
       10
 70
   128
 43
0.0
 10
739.0200356461
 20
558.3226461286
 10
739.7414722083
 20
558.4960427236
 10
740.4301667278
 20
558.7092432332
 10
741.0795376449
 20
558.9602194904
 10
741.683396617
 20
559.2465717883
 10
742.2359777575
 20
559.5655700907
 10
742.7320082323
 20
559.9141704551
 10
743.1667589674
 20
560.2890443061
 10
743.5360730983
 20
560.6866191896
 10
743.8364373557
 20
561.103095652
  0
LINE
  5
32F
330
1F
100
AcDbEntity
  8
0
  6
Continuous
 62
     7
370
    15
100
AcDbLine
 10
730.1988409179
 20
560.7583628009
 30
0.0
 11
730.1988409179
 21
559.6871434413
 31
0.0
  0
ARC
  5
330
330
1F
100
AcDbEntity
  8
0
  6
Continuous
 62
     7
370
    15
100
AcDbCircle
 10
732.4333969822
 20
563.3166525285
 30
0.0
 40
4.262226767610579
100
AcDbArc
 50
201.4409179045
 51
238.3809116737
  0
LINE
  5
331
330
1F
100
AcDbEntity
  8
0
  6
Continuous
 62
     7
370
    15
100
AcDbLine
 10
744.1832519183
 20
562.9444690074
 30
0.0
 11
744.1832519183
 21
561.8503040489
 31
0.0
  0
LWPOLYLINE
  5
332
330
1F
100
AcDbEntity
  8
0
  6
Continuous
 62
     7
370
    15
100
AcDbPolyline
 90
        3
 70
   128
 43
0.0
 10
744.1832519183
 20
561.8503040489
 10
744.2838514407
 20
562.2976823734
 10
744.3095831454
 20
562.6678064228
  0
ARC
  5
333
330
1F
100
AcDbEntity
  8
0
  6
Continuous
 62
     7
370
    15
100
AcDbCircle
 10
702.2312344046
 20
554.9130327962
 30
0.0
 40
4.084602578970746
100
AcDbArc
 50
180.0676178695
 51
195.6647656838
  0
LWPOLYLINE
  5
334
330
1F
100
AcDbEntity
  8
0
  6
Continuous
 62
     7
370
    15
100
AcDbPolyline
 90
       13
 70
   128
 43
0.0
 10
721.8404744309
 20
553.3065100761
 10
721.5644979205
 20
552.8167159194
 10
721.2107854994
 20
552.3192354927
 10
720.7921432239
 20
551.8388459728
 10
720.3110298358
 20
551.3783657856
 10
719.7702679229
 20
550.9404973669
 10
719.1730292658
 20
550.5278114051
 10
718.5228224417
 20
550.1427275182
 10
717.823459814
 20
549.7875073642
 10
717.0790456461
 20
549.4642356128
 10
716.2939508791
 20
549.1748078185
 10
715.4727805171
 20
548.9209237576
 10
714.6243275781
 20
548.7049807041
  0
LWPOLYLINE
  5
335
330
1F
100
AcDbEntity
  8
0
  6
Continuous
 62
     7
370
    15
100
AcDbPolyline
 90
       15
 70
   128
 43
0.0
 10
712.8123486864
 20
548.3824815715
 10
711.9263028658
 20
548.2873156793
 10
711.0002654812
 20
548.2290460122
 10
710.0692168364
 20
548.2118711639
 10
709.1386244311
 20
548.235889066
 10
708.2139483897
 20
548.3009598161
 10
707.3006119579
 20
548.4067032445
 10
706.4039772685
 20
548.5524970897
 10
705.5293068824
 20
548.7374864259
 10
704.6817327052
 20
548.9605851847
 10
703.8662285918
 20
549.22048467
 10
703.0875792633
 20
549.5156599452
 10
702.3503560722
 20
549.8443777409
 10
701.6588848657
 20
550.2047095325
 10
701.5694297602
 20
550.2555692368
  0
ARC
  5
336
330
1F
100
AcDbEntity
  8
0
  6
Continuous
 62
     7
370
    15
100
AcDbCircle
 10
702.5141979574
 20
555.2352603208
 30
0.0
 40
4.511701027320055
100
AcDbArc
 50
165.4782358146
 51
222.8721617176
  0
ARC
  5
337
330
1F
100
AcDbEntity
  8
0
  6
Continuous
 62
     7
370
    15
100
AcDbCircle
 10
744.2167826625
 20
539.8106093891
 30
0.0
 40
4.092807833373733
100
AcDbArc
 50
344.3232658318
 51
359.9167426615
  0
ARC
  5
338
330
1F
100
AcDbEntity
  8
0
  6
Continuous
 62
     7
370
    15
100
AcDbCircle
 10
728.394401116
 20
539.8095059759
 30
0.0
 40
4.084818076903304
100
AcDbArc
 50
180.067943127
 51
195.6642418379
  0
LWPOLYLINE
  5
339
330
1F
100
AcDbEntity
  8
0
  6
Continuous
 62
     7
370
    15
100
AcDbPolyline
 90
       19
 70
   128
 43
0.0
 10
748.3095840674
 20
541.2630101252
 10
748.3979891895
 20
540.8886397328
 10
748.4633810787
 20
540.352210621
 10
748.4574489097
 20
539.8144658181
 10
748.3802295612
 20
539.2785604281
 10
748.2321782191
 20
538.7476379977
 10
748.0141557328
 20
538.2248183512
 10
747.7274491616
 20
537.713165656
 10
747.3737346331
 20
537.2156864458
 10
746.9550944649
 20
536.7352957094
 10
746.4739810769
 20
536.2748155222
 10
745.9332191639
 20
535.8369471035
 10
745.3359805069
 20
535.4242611417
 10
744.6857736828
 20
535.0391772549
 10
743.9864089477
 20
534.6839583174
 10
743.2419968872
 20
534.3606853495
 10
742.4569000128
 20
534.0712587716
 10
741.6357317582
 20
533.8173734943
 10
740.7872788191
 20
533.6014304408
  0
LWPOLYLINE
  5
33A
330
1F
100
AcDbEntity
  8
0
  6
Continuous
 62
     7
370
    15
100
AcDbPolyline
 90
       15
 70
   128
 43
0.0
 10
738.9752978201
 20
533.2789325247
 10
738.0892541069
 20
533.183765416
 10
737.1632167223
 20
533.1254957489
 10
736.2321701848
 20
533.108319684
 10
735.3015756722
 20
533.1323388026
 10
734.3768996308
 20
533.1974095527
 10
733.463563199
 20
533.3031529812
 10
732.5669285096
 20
533.4489468263
 10
731.6922581235
 20
533.6339361626
 10
730.8446839463
 20
533.8570349213
 10
730.0291798329
 20
534.1169344066
 10
729.2505305044
 20
534.4121096818
 10
728.5133094206
 20
534.740826261
 10
727.8218361067
 20
535.1011592691
 10
727.7323810013
 20
535.1520189735
  0
ARC
  5
33B
330
1F
100
AcDbEntity
  8
0
  6
Continuous
 62
     7
370
    15
100
AcDbCircle
 10
728.6771488999
 20
540.1317132703
 30
0.0
 40
4.511702277710305
100
AcDbArc
 50
165.4782661167
 51
222.8722237302
  0
ARC
  5
33C
330
1F
100
AcDbEntity
  8
0
  6
Continuous
 62
     7
370
    15
100
AcDbCircle
 10
676.0683828392
 20
570.0165968307
 30
0.0
 40
4.084702270823954
100
AcDbArc
 50
180.0678093868
 51
195.6645741665
  0
LWPOLYLINE
  5
33D
330
1F
100
AcDbEntity
  8
0
  6
Continuous
 62
     7
370
    15
100
AcDbPolyline
 90
       13
 70
   128
 43
0.0
 10
695.6775237167
 20
568.4100600354
 10
695.4015461526
 20
567.9202664869
 10
695.0478337314
 20
567.4227860602
 10
694.6291925096
 20
566.942395932
 10
694.1480791216
 20
566.4819157448
 10
693.6073166818
 20
566.0440476303
 10
693.0100790784
 20
565.6313610602
 10
692.3598712006
 20
565.2462777816
 10
691.6605085729
 20
564.8910576276
 10
690.9160949319
 20
564.5677855721
 10
690.130999638
 20
564.2783580818
 10
689.309829276
 20
564.024474021
 10
688.4613758102
 20
563.8085312716
  0
LWPOLYLINE
  5
33E
330
1F
100
AcDbEntity
  8
0
  6
Continuous
 62
     7
370
    15
100
AcDbPolyline
 90
       15
 70
   128
 43
0.0
 10
686.6493969185
 20
563.486032139
 10
685.7633516248
 20
563.3908659427
 10
684.8373137133
 20
563.3325965798
 10
683.9062671758
 20
563.3154205149
 10
682.9756737169
 20
563.3394390252
 10
682.0509966218
 20
563.4045103836
 10
681.1376607169
 20
563.5102535079
 10
680.2410262909
 20
563.656047201
 10
679.3663559048
 20
563.8410365372
 10
678.5187814641
 20
564.0641354481
 10
677.7032773508
 20
564.3240349333
 10
676.9246290759
 20
564.6192096003
 10
676.1874059507
 20
564.947927358
 10
675.4959346618
 20
565.3082591971
 10
675.4064783977
 20
565.3591195703
  0
ARC
  5
33F
330
1F
100
AcDbEntity
  8
0
  6
Continuous
 62
     7
370
    15
100
AcDbCircle
 10
676.3512452568
 20
570.3388106004
 30
0.0
 40
4.511699610295188
100
AcDbArc
 50
165.4782313661
 51
222.8721892448
  0
ARC
  5
340
330
1F
100
AcDbEntity
  8
0
  6
Continuous
 62
     7
370
    15
100
AcDbCircle
 10
729.1987609645
 20
278.6170692858
 30
0.0
 40
0.4200000000000159
100
AcDbArc
 50
270.0
 51
90.0
  0
ARC
  5
341
330
1F
100
AcDbEntity
  8
0
  6
Continuous
 62
     7
370
    15
100
AcDbCircle
 10
704.5987609645
 20
278.6170692858
 30
0.0
 40
0.4200000000000159
100
AcDbArc
 50
90.0
 51
270.0
  0
LINE
  5
342
330
1F
100
AcDbEntity
  8
0
  6
Continuous
 62
     7
370
    15
100
AcDbLine
 10
729.1987613043
 20
279.0370700611
 30
0.0
 11
724.8789981207
 21
279.0370700611
 31
0.0
  0
LINE
  5
343
330
1F
100
AcDbEntity
  8
0
  6
Continuous
 62
     7
370
    15
100
AcDbLine
 10
722.7185238352
 20
279.0370700611
 30
0.0
 11
711.0789980939
 21
279.0370700611
 31
0.0
  0
LINE
  5
344
330
1F
100
AcDbEntity
  8
0
  6
Continuous
 62
     7
370
    15
100
AcDbLine
 10
708.9185238084
 20
279.0370700611
 30
0.0
 11
704.5987606248
 21
279.0370700611
 31
0.0
  0
LINE
  5
345
330
1F
100
AcDbEntity
  8
0
  6
Continuous
 62
     7
370
    15
100
AcDbLine
 10
704.5987606248
 20
278.197070743
 30
0.0
 11
708.9185238084
 21
278.197070743
 31
0.0
  0
LINE
  5
346
330
1F
100
AcDbEntity
  8
0
  6
Continuous
 62
     7
370
    15
100
AcDbLine
 10
711.0789980939
 20
278.197070743
 30
0.0
 11
722.7185238352
 21
278.197070743
 31
0.0
  0
LINE
  5
347
330
1F
100
AcDbEntity
  8
0
  6
Continuous
 62
     7
370
    15
100
AcDbLine
 10
724.8789981207
 20
278.197070743
 30
0.0
 11
729.1987613043
 21
278.197070743
 31
0.0
  0
LINE
  5
348
330
1F
100
AcDbEntity
  8
0
  6
Continuous
 62
     7
370
    15
100
AcDbLine
 10
728.8987606963
 20
279.0370700611
 30
0.0
 11
728.8987606963
 21
294.7677163137
 31
0.0
  0
LINE
  5
349
330
1F
100
AcDbEntity
  8
0
  6
Continuous
 62
     7
370
    15
100
AcDbLine
 10
704.8987612327
 20
294.7677163137
 30
0.0
 11
704.8987612327
 21
279.0370700611
 31
0.0
  0
ARC
  5
34A
330
1F
100
AcDbEntity
  8
0
  6
Continuous
 62
     7
370
    15
100
AcDbCircle
 10
727.2987609645
 20
294.7677162739
 30
0.0
 40
1.600000000000066
100
AcDbArc
 50
0.0
 51
55.9228047199
  0
ARC
  5
34B
330
1F
100
AcDbEntity
  8
0
  6
Continuous
 62
     7
370
    15
100
AcDbCircle
 10
706.4987609645
 20
294.7677162739
 30
0.0
 40
1.600000000000023
100
AcDbArc
 50
124.0771952801
 51
180.0
  0
LINE
  5
34C
330
1F
100
AcDbEntity
  8
0
  6
Continuous
 62
     7
370
    15
100
AcDbLine
 10
728.1952560147
 20
296.092970456
 30
0.0
 11
722.8022661259
 21
299.7411681069
 31
0.0
  0
LINE
  5
34D
330
1F
100
AcDbEntity
  8
0
  6
Continuous
 62
     7
370
    15
100
AcDbLine
 10
710.9952558031
 20
299.7411681069
 30
0.0
 11
705.6022659143
 21
296.092970456
 31
0.0
  0
ARC
  5
34E
330
1F
100
AcDbEntity
  8
0
  6
Continuous
 62
     7
370
    15
100
AcDbCircle
 10
723.6987609645
 20
301.0664222978
 30
0.0
 40
1.600000000000023
100
AcDbArc
 50
180.0
 51
235.9228047199
  0
ARC
  5
34F
330
1F
100
AcDbEntity
  8
0
  6
Continuous
 62
     7
370
    15
100
AcDbCircle
 10
710.0987609645
 20
301.0664222978
 30
0.0
 40
1.600000000000136
100
AcDbArc
 50
304.0771952801
 51
0.0
  0
ARC
  5
350
330
1F
100
AcDbEntity
  8
0
  6
Continuous
 62
     7
370
    15
100
AcDbCircle
 10
721.8987609645
 20
306.4170692858
 30
0.0
 40
0.2000000000000455
100
AcDbArc
 50
0.0
 51
90.0
  0
ARC
  5
351
330
1F
100
AcDbEntity
  8
0
  6
Continuous
 62
     7
370
    15
100
AcDbCircle
 10
711.8987609645
 20
306.4170692858
 30
0.0
 40
0.1999999999999318
100
AcDbArc
 50
90.0
 51
180.0
  0
LINE
  5
352
330
1F
100
AcDbEntity
  8
0
  6
Continuous
 62
     7
370
    15
100
AcDbLine
 10
722.0987610718
 20
301.0664222492
 30
0.0
 11
722.0987610718
 21
306.4170693709
 31
0.0
  0
LINE
  5
353
330
1F
100
AcDbEntity
  8
0
  6
Continuous
 62
     7
370
    15
100
AcDbLine
 10
711.6987608572
 20
306.4170693709
 30
0.0
 11
711.6987608572
 21
301.0664222492
 31
0.0
  0
LINE
  5
354
330
1F
100
AcDbEntity
  8
0
  6
Continuous
 62
     7
370
    15
100
AcDbLine
 10
708.8987611433
 20
310.6370692803
 30
0.0
 11
708.8987611433
 21
309.2970693214
 31
0.0
  0
LINE
  5
355
330
1F
100
AcDbEntity
  8
0
  6
Continuous
 62
     7
370
    15
100
AcDbLine
 10
724.8987607857
 20
310.6370692803
 30
0.0
 11
724.8987607857
 21
309.2970693214
 31
0.0
  0
LINE
  5
356
330
1F
100
AcDbEntity
  8
0
  6
Continuous
 62
     7
370
    15
100
AcDbLine
 10
708.8987611433
 20
309.2970693214
 30
0.0
 11
724.8987607857
 21
309.2970693214
 31
0.0
  0
LINE
  5
357
330
1F
100
AcDbEntity
  8
0
  6
Continuous
 62
     7
370
    15
100
AcDbLine
 10
708.8987611433
 20
310.6370692803
 30
0.0
 11
724.8987607857
 21
310.6370692803
 31
0.0
  0
LINE
  5
358
330
1F
100
AcDbEntity
  8
0
  6
Continuous
 62
     7
370
    15
100
AcDbLine
 10
708.8987611433
 20
309.2970693214
 30
0.0
 11
708.8987611433
 21
307.9570693625
 31
0.0
  0
LINE
  5
359
330
1F
100
AcDbEntity
  8
0
  6
Continuous
 62
     7
370
    15
100
AcDbLine
 10
724.8987607857
 20
309.2970693214
 30
0.0
 11
724.8987607857
 21
307.9570693625
 31
0.0
  0
LINE
  5
35A
330
1F
100
AcDbEntity
  8
0
  6
Continuous
 62
     7
370
    15
100
AcDbLine
 10
708.8987611433
 20
307.9570693625
 30
0.0
 11
724.8987607857
 21
307.9570693625
 31
0.0
  0
LINE
  5
35B
330
1F
100
AcDbEntity
  8
0
  6
Continuous
 62
     7
370
    15
100
AcDbLine
 10
710.9268665513
 20
306.6170690311
 30
0.0
 11
710.9268665513
 21
301.3224495305
 31
0.0
  0
ARC
  5
35C
330
1F
100
AcDbEntity
  8
0
  6
Continuous
 62
     7
370
    15
100
AcDbCircle
 10
708.9268665849
 20
301.3224496822
 30
0.0
 40
1.999999999999964
100
AcDbArc
 50
304.0771952801
 51
0.0
  0
LINE
  5
35D
330
1F
100
AcDbEntity
  8
0
  6
Continuous
 62
     7
370
    15
100
AcDbLine
 10
710.0474849542
 20
299.6658829702
 30
0.0
 11
704.9781419536
 21
296.2366206302
 31
0.0
  0
ARC
  5
35E
330
1F
100
AcDbEntity
  8
0
  6
Continuous
 62
     7
370
    15
100
AcDbCircle
 10
706.0987609645
 20
294.5800545269
 30
0.0
 40
2.0
100
AcDbArc
 50
124.0771952801
 51
180.0
  0
LINE
  5
35F
330
1F
100
AcDbEntity
  8
0
  6
Continuous
 62
     7
370
    15
100
AcDbLine
 10
704.0987603566
 20
294.5800540699
 30
0.0
 11
704.0987603566
 21
278.1417457117
 31
0.0
  0
ARC
  5
360
330
1F
100
AcDbEntity
  8
0
  6
Continuous
 62
     7
370
    15
100
AcDbCircle
 10
704.5987609645
 20
278.1417457918
 30
0.0
 40
0.5000000000001137
100
AcDbArc
 50
180.0
 51
270.0
  0
LINE
  5
361
330
1F
100
AcDbEntity
  8
0
  6
Continuous
 62
     7
370
    15
100
AcDbLine
 10
704.5987606248
 20
277.6417461885
 30
0.0
 11
704.7987610301
 21
277.6417461885
 31
0.0
  0
ARC
  5
362
330
1F
100
AcDbEntity
  8
0
  6
Continuous
 62
     7
370
    15
100
AcDbCircle
 10
704.7987609645
 20
278.1417457918
 30
0.0
 40
0.5
100
AcDbArc
 50
270.0
 51
0.0
  0
LINE
  5
363
330
1F
100
AcDbEntity
  8
0
  6
Continuous
 62
     7
370
    15
100
AcDbLine
 10
705.2987612983
 20
278.1417457117
 30
0.0
 11
705.2987612983
 21
278.197070743
 31
0.0
  0
LINE
  5
364
330
1F
100
AcDbEntity
  8
0
  6
Continuous
 62
     7
370
    15
100
AcDbLine
 10
707.2987608811
 20
278.197070743
 30
0.0
 11
707.2987608811
 21
277.6417461885
 31
0.0
  0
ARC
  5
365
330
1F
100
AcDbEntity
  8
0
  6
Continuous
 62
     7
370
    15
100
AcDbCircle
 10
705.2987609645
 20
277.6417457918
 30
0.0
 40
2.000000000000114
100
AcDbArc
 50
270.0
 51
360.0
  0
LINE
  5
366
330
1F
100
AcDbEntity
  8
0
  6
Continuous
 62
     7
370
    15
100
AcDbLine
 10
705.2987612983
 20
275.6417451156
 30
0.0
 11
704.0987603566
 21
275.6417451156
 31
0.0
  0
ARC
  5
367
330
1F
100
AcDbEntity
  8
0
  6
Continuous
 62
     7
370
    15
100
AcDbCircle
 10
704.0987609645
 20
277.6417457918
 30
0.0
 40
2.000000000000114
100
AcDbArc
 50
180.0
 51
270.0
  0
LINE
  5
368
330
1F
100
AcDbEntity
  8
0
  6
Continuous
 62
     7
370
    15
100
AcDbLine
 10
702.0987607738
 20
277.6417461885
 30
0.0
 11
702.0987607738
 21
295.6417454137
 31
0.0
  0
ARC
  5
369
330
1F
100
AcDbEntity
  8
0
  6
Continuous
 62
     7
370
    15
100
AcDbCircle
 10
704.0987609645
 20
295.6417457918
 30
0.0
 40
1.999999999999964
100
AcDbArc
 50
124.0771952801
 51
180.0
  0
LINE
  5
36A
330
1F
100
AcDbEntity
  8
0
  6
Continuous
 62
     7
370
    15
100
AcDbLine
 10
702.9781423708
 20
297.2983119739
 30
0.0
 11
708.0474853715
 21
300.727574314
 31
0.0
  0
ARC
  5
36B
330
1F
100
AcDbEntity
  8
0
  6
Continuous
 62
     7
370
    15
100
AcDbCircle
 10
706.9268665849
 20
302.3841409472
 30
0.0
 40
2.0
100
AcDbArc
 50
304.0771952801
 51
0.0
  0
LINE
  5
36C
330
1F
100
AcDbEntity
  8
0
  6
Continuous
 62
     7
370
    15
100
AcDbLine
 10
708.9268662235
 20
302.3841408743
 30
0.0
 11
708.9268662235
 21
307.9570693625
 31
0.0
  0
LINE
  5
36D
330
1F
100
AcDbEntity
  8
0
  6
Continuous
 62
     7
370
    15
100
AcDbLine
 10
724.8706557056
 20
302.3841408743
 30
0.0
 11
724.8706557056
 21
307.9570693625
 31
0.0
  0
ARC
  5
36E
330
1F
100
AcDbEntity
  8
0
  6
Continuous
 62
     7
370
    15
100
AcDbCircle
 10
726.8706553442
 20
302.3841409472
 30
0.0
 40
2.000000000000028
100
AcDbArc
 50
180.0
 51
235.9228047199
  0
LINE
  5
36F
330
1F
100
AcDbEntity
  8
0
  6
Continuous
 62
     7
370
    15
100
AcDbLine
 10
730.8193795582
 20
297.2983119739
 30
0.0
 11
725.7500365576
 21
300.727574314
 31
0.0
  0
ARC
  5
370
330
1F
100
AcDbEntity
  8
0
  6
Continuous
 62
     7
370
    15
100
AcDbCircle
 10
729.6987609645
 20
295.6417457918
 30
0.0
 40
2.0
100
AcDbArc
 50
0.0
 51
55.9228047199
  0
LINE
  5
371
330
1F
100
AcDbEntity
  8
0
  6
Continuous
 62
     7
370
    15
100
AcDbLine
 10
731.6987611553
 20
277.6417461885
 30
0.0
 11
731.6987611553
 21
295.6417454137
 31
0.0
  0
ARC
  5
372
330
1F
100
AcDbEntity
  8
0
  6
Continuous
 62
     7
370
    15
100
AcDbCircle
 10
729.6987609645
 20
277.6417457918
 30
0.0
 40
2.0
100
AcDbArc
 50
270.0
 51
0.0
  0
LINE
  5
373
330
1F
100
AcDbEntity
  8
0
  6
Continuous
 62
     7
370
    15
100
AcDbLine
 10
728.4987606307
 20
275.6417451156
 30
0.0
 11
729.6987615725
 21
275.6417451156
 31
0.0
  0
ARC
  5
374
330
1F
100
AcDbEntity
  8
0
  6
Continuous
 62
     7
370
    15
100
AcDbCircle
 10
728.4987609645
 20
277.6417457918
 30
0.0
 40
2.0
100
AcDbArc
 50
180.0
 51
270.0
  0
LINE
  5
375
330
1F
100
AcDbEntity
  8
0
  6
Continuous
 62
     7
370
    15
100
AcDbLine
 10
726.498761048
 20
278.197070743
 30
0.0
 11
726.498761048
 21
277.6417461885
 31
0.0
  0
LINE
  5
376
330
1F
100
AcDbEntity
  8
0
  6
Continuous
 62
     7
370
    15
100
AcDbLine
 10
728.4987606307
 20
278.1417457117
 30
0.0
 11
728.4987606307
 21
278.197070743
 31
0.0
  0
ARC
  5
377
330
1F
100
AcDbEntity
  8
0
  6
Continuous
 62
     7
370
    15
100
AcDbCircle
 10
728.9987609645
 20
278.1417457918
 30
0.0
 40
0.5
100
AcDbArc
 50
180.0
 51
270.0
  0
LINE
  5
378
330
1F
100
AcDbEntity
  8
0
  6
Continuous
 62
     7
370
    15
100
AcDbLine
 10
729.1987613043
 20
277.6417461885
 30
0.0
 11
728.998760899
 21
277.6417461885
 31
0.0
  0
ARC
  5
379
330
1F
100
AcDbEntity
  8
0
  6
Continuous
 62
     7
370
    15
100
AcDbCircle
 10
729.1987609645
 20
278.1417457918
 30
0.0
 40
0.5000000000001137
100
AcDbArc
 50
270.0
 51
0.0
  0
LINE
  5
37A
330
1F
100
AcDbEntity
  8
0
  6
Continuous
 62
     7
370
    15
100
AcDbLine
 10
729.6987615725
 20
294.5800540699
 30
0.0
 11
729.6987615725
 21
278.1417457117
 31
0.0
  0
ARC
  5
37B
330
1F
100
AcDbEntity
  8
0
  6
Continuous
 62
     7
370
    15
100
AcDbCircle
 10
727.6987609645
 20
294.5800545269
 30
0.0
 40
2.000000000000011
100
AcDbArc
 50
0.0
 51
55.9228047199
  0
LINE
  5
37C
330
1F
100
AcDbEntity
  8
0
  6
Continuous
 62
     7
370
    15
100
AcDbLine
 10
723.7500369748
 20
299.6658829702
 30
0.0
 11
728.8193799754
 21
296.2366206302
 31
0.0
  0
ARC
  5
37D
330
1F
100
AcDbEntity
  8
0
  6
Continuous
 62
     7
370
    15
100
AcDbCircle
 10
724.8706553442
 20
301.3224496822
 30
0.0
 40
2.000000000000028
100
AcDbArc
 50
180.0
 51
235.9228047199
  0
LINE
  5
37E
330
1F
100
AcDbEntity
  8
0
  6
Continuous
 62
     7
370
    15
100
AcDbLine
 10
722.8706553778
 20
306.6170690311
 30
0.0
 11
722.8706553778
 21
301.3224495305
 31
0.0
  0
LINE
  5
37F
330
1F
100
AcDbEntity
  8
0
  6
Continuous
 62
     7
370
    15
100
AcDbLine
 10
720.3044712743
 20
302.3841408743
 30
0.0
 11
720.3044712743
 21
307.9570693625
 31
0.0
  0
ARC
  5
380
330
1F
100
AcDbEntity
  8
0
  6
Continuous
 62
     7
370
    15
100
AcDbCircle
 10
723.202386765
 20
302.2666783299
 30
0.0
 40
2.900295095444205
100
AcDbArc
 50
177.678874376
 51
212.0508381771
  0
LINE
  5
381
330
1F
100
AcDbEntity
  8
0
  6
Continuous
 62
     7
370
    15
100
AcDbLine
 10
723.2788332006
 20
297.2983119739
 30
0.0
 11
720.7441617003
 21
300.727574314
 31
0.0
  0
ARC
  5
382
330
1F
100
AcDbEntity
  8
0
  6
Continuous
 62
     7
370
    15
100
AcDbCircle
 10
720.8206115082
 20
295.7592082014
 30
0.0
 40
2.900292107987757
100
AcDbArc
 50
357.6788671714
 51
32.0508694551
  0
LINE
  5
383
330
1F
100
AcDbEntity
  8
0
  6
Continuous
 62
     7
370
    15
100
AcDbLine
 10
723.7185239991
 20
277.6417461885
 30
0.0
 11
723.7185239991
 21
295.6417454137
 31
0.0
  0
LWPOLYLINE
  5
384
330
1F
100
AcDbEntity
  8
0
  6
Continuous
 62
     7
370
    15
100
AcDbPolyline
 90
        9
 70
   128
 43
0.0
 10
722.7185238352
 20
275.6417451156
 10
722.9136143079
 20
275.6801752104
 10
723.1012072613
 20
275.7939872993
 10
723.2740938863
 20
275.9788064016
 10
723.4256305
 20
276.227533604
 10
723.5499933561
 20
276.5306053413
 10
723.6424036523
 20
276.8763778461
 10
723.6993089517
 20
277.2515652431
 10
723.7185239991
 20
277.6417461885
  0
LINE
  5
385
330
1F
100
AcDbEntity
  8
0
  6
Continuous
 62
     7
370
    15
100
AcDbLine
 10
722.1185241094
 20
275.6417451156
 30
0.0
 11
722.7185238352
 21
275.6417451156
 31
0.0
  0
LWPOLYLINE
  5
386
330
1F
100
AcDbEntity
  8
0
  6
Continuous
 62
     7
370
    15
100
AcDbPolyline
 90
        9
 70
   128
 43
0.0
 10
721.1185239455
 20
277.6417461885
 10
721.1377386203
 20
277.2515652431
 10
721.1946442922
 20
276.8763778461
 10
721.2870542159
 20
276.5306053413
 10
721.4114170721
 20
276.227533604
 10
721.5629536858
 20
275.9788064016
 10
721.7358406832
 20
275.7939872993
 10
721.9234336367
 20
275.6801752104
 10
722.1185241094
 20
275.6417451156
  0
LINE
  5
387
330
1F
100
AcDbEntity
  8
0
  6
Continuous
 62
     7
370
    15
100
AcDbLine
 10
721.1185239455
 20
278.197070743
 30
0.0
 11
721.1185239455
 21
277.6417461885
 31
0.0
  0
LINE
  5
388
330
1F
100
AcDbEntity
  8
0
  6
Continuous
 62
     7
370
    15
100
AcDbLine
 10
722.1185241094
 20
278.1417457117
 30
0.0
 11
722.1185241094
 21
278.197070743
 31
0.0
  0
LWPOLYLINE
  5
389
330
1F
100
AcDbEntity
  8
0
  6
Continuous
 62
     7
370
    15
100
AcDbPolyline
 90
        9
 70
   128
 43
0.0
 10
722.368523871
 20
277.6417461885
 10
722.3197512528
 20
277.6513544573
 10
722.2728532007
 20
277.6798067344
 10
722.2296312651
 20
277.7260122551
 10
722.1917472979
 20
277.7881918205
 10
722.1606563976
 20
277.8639612449
 10
722.1375540098
 20
277.950402881
 10
722.1233274987
 20
278.0441997303
 10
722.1185241094
 20
278.1417457117
  0
LINE
  5
38A
330
1F
100
AcDbEntity
  8
0
  6
Continuous
 62
     7
370
    15
100
AcDbLine
 10
722.4685240736
 20
277.6417461885
 30
0.0
 11
722.368523871
 21
277.6417461885
 31
0.0
  0
LWPOLYLINE
  5
38B
330
1F
100
AcDbEntity
  8
0
  6
Continuous
 62
     7
370
    15
100
AcDbPolyline
 90
        9
 70
   128
 43
0.0
 10
722.7185238352
 20
278.1417457117
 10
722.7137204459
 20
278.0441997303
 10
722.6994939348
 20
277.950402881
 10
722.6763911744
 20
277.8639612449
 10
722.6453006467
 20
277.7881918205
 10
722.6074166795
 20
277.7260122551
 10
722.5641947439
 20
277.6798067344
 10
722.5172966918
 20
277.6513544573
 10
722.4685240736
 20
277.6417461885
  0
LINE
  5
38C
330
1F
100
AcDbEntity
  8
0
  6
Continuous
 62
     7
370
    15
100
AcDbLine
 10
722.7185238352
 20
294.5800540699
 30
0.0
 11
722.7185238352
 21
278.1417457117
 31
0.0
  0
ARC
  5
38D
330
1F
100
AcDbEntity
  8
0
  6
Continuous
 62
     7
370
    15
100
AcDbCircle
 10
719.8206094377
 20
294.6975169044
 30
0.0
 40
2.900294014853263
100
AcDbArc
 50
357.6788677736
 51
32.0508447794
  0
LINE
  5
38E
330
1F
100
AcDbEntity
  8
0
  6
Continuous
 62
     7
370
    15
100
AcDbLine
 10
719.7441617226
 20
299.6658829702
 30
0.0
 11
722.2788334092
 21
296.2366206302
 31
0.0
  0
ARC
  5
38F
330
1F
100
AcDbEntity
  8
0
  6
Continuous
 62
     7
370
    15
100
AcDbCircle
 10
722.2024003879
 20
301.2049909219
 30
0.0
 40
2.900308711533685
100
AcDbArc
 50
177.6789630934
 51
212.0507614963
  0
LINE
  5
390
330
1F
100
AcDbEntity
  8
0
  6
Continuous
 62
     7
370
    15
100
AcDbLine
 10
719.3044711104
 20
306.6170690311
 30
0.0
 11
719.3044711104
 21
301.3224495305
 31
0.0
  0
ARC
  5
391
330
1F
100
AcDbEntity
  8
0
  6
Continuous
 62
     7
370
    15
100
AcDbCircle
 10
721.9810856297
 20
295.7592082014
 30
0.0
 40
2.90029210798629
100
AcDbArc
 50
357.6788671713
 51
32.0508694551
  0
LINE
  5
392
330
1F
100
AcDbEntity
  8
0
  6
Continuous
 62
     7
370
    15
100
AcDbLine
 10
724.8789981207
 20
277.6417461885
 30
0.0
 11
724.8789981207
 21
295.6417454137
 31
0.0
  0
LINE
  5
393
330
1F
100
AcDbEntity
  8
0
  6
Continuous
 62
     7
370
    15
100
AcDbLine
 10
722.7185238352
 20
275.6417451156
 30
0.0
 11
723.8789983293
 21
275.6417451156
 31
0.0
  0
LWPOLYLINE
  5
394
330
1F
100
AcDbEntity
  8
0
  6
Continuous
 62
     7
370
    15
100
AcDbPolyline
 90
        9
 70
   128
 43
0.0
 10
723.8789983293
 20
275.6417451156
 10
724.0740880569
 20
275.6801752104
 10
724.2616817554
 20
275.7939872993
 10
724.4345680078
 20
275.9788064016
 10
724.5861046215
 20
276.227533604
 10
724.7104674777
 20
276.5306053413
 10
724.8028777739
 20
276.8763778461
 10
724.8597830733
 20
277.2515652431
 10
724.8789981207
 20
277.6417461885
  0
LINE
  5
395
330
1F
100
AcDbEntity
  8
0
  6
Continuous
 62
     7
370
    15
100
AcDbLine
 10
724.4393073222
 20
297.2983119739
 30
0.0
 11
721.9046358218
 21
300.727574314
 31
0.0
  0
ARC
  5
396
330
1F
100
AcDbEntity
  8
0
  6
Continuous
 62
     7
370
    15
100
AcDbCircle
 10
724.3628655264
 20
302.2666802131
 30
0.0
 40
2.900300027472338
100
AcDbArc
 50
177.6789155589
 51
212.0508210675
  0
LINE
  5
397
330
1F
100
AcDbEntity
  8
0
  6
Continuous
 62
     7
370
    15
100
AcDbLine
 10
721.4649450233
 20
302.3841408743
 30
0.0
 11
721.4649450233
 21
307.9570693625
 31
0.0
  0
LINE
  5
398
330
1F
100
AcDbEntity
  8
0
  6
Continuous
 62
     7
370
    15
100
AcDbLine
 10
714.4930508187
 20
306.6170690311
 30
0.0
 11
714.4930508187
 21
301.3224495305
 31
0.0
  0
ARC
  5
399
330
1F
100
AcDbEntity
  8
0
  6
Continuous
 62
     7
370
    15
100
AcDbCircle
 10
711.5951215412
 20
301.2049909219
 30
0.0
 40
2.900308711534136
100
AcDbArc
 50
327.9492385037
 51
2.3210369066
  0
LINE
  5
39A
330
1F
100
AcDbEntity
  8
0
  6
Continuous
 62
     7
370
    15
100
AcDbLine
 10
714.0533602064
 20
299.6658829702
 30
0.0
 11
711.5186885198
 21
296.2366206302
 31
0.0
  0
ARC
  5
39B
330
1F
100
AcDbEntity
  8
0
  6
Continuous
 62
     7
370
    15
100
AcDbCircle
 10
713.9769124913
 20
294.6975169044
 30
0.0
 40
2.900294014850462
100
AcDbArc
 50
147.9491552205
 51
182.3211322264
  0
LINE
  5
39C
330
1F
100
AcDbEntity
  8
0
  6
Continuous
 62
     7
370
    15
100
AcDbLine
 10
711.0789980939
 20
294.5800540699
 30
0.0
 11
711.0789980939
 21
278.1417457117
 31
0.0
  0
LWPOLYLINE
  5
39D
330
1F
100
AcDbEntity
  8
0
  6
Continuous
 62
     7
370
    15
100
AcDbPolyline
 90
        9
 70
   128
 43
0.0
 10
711.0789980939
 20
278.1417457117
 10
711.0838014832
 20
278.0441997303
 10
711.0980279943
 20
277.950402881
 10
711.1211307546
 20
277.8639612449
 10
711.1522212824
 20
277.7881918205
 10
711.1901052495
 20
277.7260122551
 10
711.2333271852
 20
277.6798067344
 10
711.2802252373
 20
277.6513544573
 10
711.3289978554
 20
277.6417461885
  0
LINE
  5
39E
330
1F
100
AcDbEntity
  8
0
  6
Continuous
 62
     7
370
    15
100
AcDbLine
 10
711.3289978554
 20
277.6417461885
 30
0.0
 11
711.4289980581
 21
277.6417461885
 31
0.0
  0
LWPOLYLINE
  5
39F
330
1F
100
AcDbEntity
  8
0
  6
Continuous
 62
     7
370
    15
100
AcDbPolyline
 90
        9
 70
   128
 43
0.0
 10
711.4289980581
 20
277.6417461885
 10
711.4777706763
 20
277.6513544573
 10
711.5246687284
 20
277.6798067344
 10
711.567890664
 20
277.7260122551
 10
711.6057746312
 20
277.7881918205
 10
711.6368655315
 20
277.8639612449
 10
711.6599679192
 20
277.950402881
 10
711.6741944304
 20
278.0441997303
 10
711.6789978197
 20
278.1417457117
  0
LINE
  5
3A0
330
1F
100
AcDbEntity
  8
0
  6
Continuous
 62
     7
370
    15
100
AcDbLine
 10
711.6789978197
 20
278.1417457117
 30
0.0
 11
711.6789978197
 21
278.197070743
 31
0.0
  0
LINE
  5
3A1
330
1F
100
AcDbEntity
  8
0
  6
Continuous
 62
     7
370
    15
100
AcDbLine
 10
712.6789979836
 20
278.197070743
 30
0.0
 11
712.6789979836
 21
277.6417461885
 31
0.0
  0
LWPOLYLINE
  5
3A2
330
1F
100
AcDbEntity
  8
0
  6
Continuous
 62
     7
370
    15
100
AcDbPolyline
 90
        9
 70
   128
 43
0.0
 10
712.6789979836
 20
277.6417461885
 10
712.6597833088
 20
277.2515652431
 10
712.6028776368
 20
276.8763778461
 10
712.5104677131
 20
276.5306053413
 10
712.386104857
 20
276.227533604
 10
712.2345682433
 20
275.9788064016
 10
712.0616812458
 20
275.7939872993
 10
711.8740882924
 20
275.6801752104
 10
711.6789978197
 20
275.6417451156
  0
LINE
  5
3A3
330
1F
100
AcDbEntity
  8
0
  6
Continuous
 62
     7
370
    15
100
AcDbLine
 10
711.6789978197
 20
275.6417451156
 30
0.0
 11
711.0789980939
 21
275.6417451156
 31
0.0
  0
LWPOLYLINE
  5
3A4
330
1F
100
AcDbEntity
  8
0
  6
Continuous
 62
     7
370
    15
100
AcDbPolyline
 90
        9
 70
   128
 43
0.0
 10
711.0789980939
 20
275.6417451156
 10
710.8839076212
 20
275.6801752104
 10
710.6963146677
 20
275.7939872993
 10
710.5234280428
 20
275.9788064016
 10
710.3718914291
 20
276.227533604
 10
710.2475285729
 20
276.5306053413
 10
710.1551182767
 20
276.8763778461
 10
710.0982129773
 20
277.2515652431
 10
710.0789979299
 20
277.6417461885
  0
LINE
  5
3A5
330
1F
100
AcDbEntity
  8
0
  6
Continuous
 62
     7
370
    15
100
AcDbLine
 10
710.0789979299
 20
277.6417461885
 30
0.0
 11
710.0789979299
 21
295.6417454137
 31
0.0
  0
ARC
  5
3A6
330
1F
100
AcDbEntity
  8
0
  6
Continuous
 62
     7
370
    15
100
AcDbCircle
 10
712.9769104209
 20
295.7592082014
 30
0.0
 40
2.900292107986403
100
AcDbArc
 50
147.9491305449
 51
182.3211328287
  0
LINE
  5
3A7
330
1F
100
AcDbEntity
  8
0
  6
Continuous
 62
     7
370
    15
100
AcDbLine
 10
710.5186887285
 20
297.2983119739
 30
0.0
 11
713.0533602288
 21
300.727574314
 31
0.0
  0
ARC
  5
3A8
330
1F
100
AcDbEntity
  8
0
  6
Continuous
 62
     7
370
    15
100
AcDbCircle
 10
710.5951351641
 20
302.2666783299
 30
0.0
 40
2.900295095442967
100
AcDbArc
 50
327.9491618229
 51
2.321125624
  0
LINE
  5
3A9
330
1F
100
AcDbEntity
  8
0
  6
Continuous
 62
     7
370
    15
100
AcDbLine
 10
713.4930506548
 20
302.3841408743
 30
0.0
 11
713.4930506548
 21
307.9570693625
 31
0.0
  0
ARC
  5
3AA
330
1F
100
AcDbEntity
  8
0
  6
Continuous
 62
     7
370
    15
100
AcDbCircle
 10
711.8164362993
 20
295.7592082014
 30
0.0
 40
2.900292107987639
100
AcDbArc
 50
147.9491305449
 51
182.3211328286
  0
LINE
  5
3AB
330
1F
100
AcDbEntity
  8
0
  6
Continuous
 62
     7
370
    15
100
AcDbLine
 10
709.9185235998
 20
275.6417451156
 30
0.0
 11
711.0789980939
 21
275.6417451156
 31
0.0
  0
LWPOLYLINE
  5
3AC
330
1F
100
AcDbEntity
  8
0
  6
Continuous
 62
     7
370
    15
100
AcDbPolyline
 90
        9
 70
   128
 43
0.0
 10
709.9185235998
 20
275.6417451156
 10
709.7234338721
 20
275.6801752104
 10
709.5358401736
 20
275.7939872993
 10
709.3629539212
 20
275.9788064016
 10
709.2114173075
 20
276.227533604
 10
709.0870544514
 20
276.5306053413
 10
708.9946441552
 20
276.8763778461
 10
708.9377388557
 20
277.2515652431
 10
708.9185238084
 20
277.6417461885
  0
LINE
  5
3AD
330
1F
100
AcDbEntity
  8
0
  6
Continuous
 62
     7
370
    15
100
AcDbLine
 10
708.9185238084
 20
277.6417461885
 30
0.0
 11
708.9185238084
 21
295.6417454137
 31
0.0
  0
LINE
  5
3AE
330
1F
100
AcDbEntity
  8
0
  6
Continuous
 62
     7
370
    15
100
AcDbLine
 10
709.3582146069
 20
297.2983119739
 30
0.0
 11
711.8928861072
 21
300.727574314
 31
0.0
  0
ARC
  5
3AF
330
1F
100
AcDbEntity
  8
0
  6
Continuous
 62
     7
370
    15
100
AcDbCircle
 10
709.4346564026
 20
302.2666802131
 30
0.0
 40
2.900300027475032
100
AcDbArc
 50
327.9491789325
 51
2.321084441
  0
LINE
  5
3B0
330
1F
100
AcDbEntity
  8
0
  6
Continuous
 62
     7
370
    15
100
AcDbLine
 10
712.3325769057
 20
302.3841408743
 30
0.0
 11
712.3325769057
 21
307.9570693625
 31
0.0
  0
LINE
  5
3B1
330
1F
100
AcDbEntity
  8
0
  6
Continuous
 62
     7
370
    15
100
AcDbLine
 10
713.4930506548
 20
307.9570693625
 30
0.0
 11
713.4930506548
 21
306.6170690311
 31
0.0
  0
LINE
  5
3B2
330
1F
100
AcDbEntity
  8
0
  6
Continuous
 62
     7
370
    15
100
AcDbLine
 10
720.3044712743
 20
307.9570693625
 30
0.0
 11
720.3044712743
 21
306.6170690311
 31
0.0
  0
LINE
  5
3B3
330
1F
100
AcDbEntity
  8
0
  6
Continuous
 62
     7
370
    15
100
AcDbLine
 10
713.4930506548
 20
307.9570693625
 30
0.0
 11
720.3044712743
 21
307.9570693625
 31
0.0
  0
LINE
  5
3B4
330
1F
100
AcDbEntity
  8
0
  6
Continuous
 62
     7
370
    15
100
AcDbLine
 10
713.4930506548
 20
306.6170690311
 30
0.0
 11
720.3044712743
 21
306.6170690311
 31
0.0
  0
LINE
  5
3B5
330
1F
100
AcDbEntity
  8
0
  6
Continuous
 62
     7
370
    15
100
AcDbLine
 10
721.4649450233
 20
307.9570693625
 30
0.0
 11
721.4649450233
 21
306.6170690311
 31
0.0
  0
LINE
  5
3B6
330
1F
100
AcDbEntity
  8
0
  6
Continuous
 62
     7
370
    15
100
AcDbLine
 10
724.8706557056
 20
307.9570693625
 30
0.0
 11
724.8706557056
 21
306.6170690311
 31
0.0
  0
LINE
  5
3B7
330
1F
100
AcDbEntity
  8
0
  6
Continuous
 62
     7
370
    15
100
AcDbLine
 10
721.4649450233
 20
307.9570693625
 30
0.0
 11
724.8706557056
 21
307.9570693625
 31
0.0
  0
LINE
  5
3B8
330
1F
100
AcDbEntity
  8
0
  6
Continuous
 62
     7
370
    15
100
AcDbLine
 10
721.4649450233
 20
306.6170690311
 30
0.0
 11
724.8706557056
 21
306.6170690311
 31
0.0
  0
LINE
  5
3B9
330
1F
100
AcDbEntity
  8
0
  6
Continuous
 62
     7
370
    15
100
AcDbLine
 10
708.9268662235
 20
307.9570693625
 30
0.0
 11
708.9268662235
 21
306.6170690311
 31
0.0
  0
LINE
  5
3BA
330
1F
100
AcDbEntity
  8
0
  6
Continuous
 62
     7
370
    15
100
AcDbLine
 10
712.3325769057
 20
307.9570693625
 30
0.0
 11
712.3325769057
 21
306.6170690311
 31
0.0
  0
LINE
  5
3BB
330
1F
100
AcDbEntity
  8
0
  6
Continuous
 62
     7
370
    15
100
AcDbLine
 10
708.9268662235
 20
307.9570693625
 30
0.0
 11
712.3325769057
 21
307.9570693625
 31
0.0
  0
LINE
  5
3BC
330
1F
100
AcDbEntity
  8
0
  6
Continuous
 62
     7
370
    15
100
AcDbLine
 10
708.9268662235
 20
306.6170690311
 30
0.0
 11
712.3325769057
 21
306.6170690311
 31
0.0
  0
ENDSEC
  0
SECTION
  2
OBJECTS
  0
DICTIONARY
  5
C
330
0
100
AcDbDictionary
281
     1
  3
ACAD_GROUP
350
D
  3
ACAD_LAYOUT
350
1A
  3
ACAD_MLINESTYLE
350
17
  3
ACAD_PLOTSETTINGS
350
19
  3
ACAD_PLOTSTYLENAME
350
E
  3
ACAD_SCALELIST
350
47
  0
DICTIONARY
  5
D
102
{ACAD_REACTORS
330
C
102
}
330
C
100
AcDbDictionary
281
     1
  0
DICTIONARY
  5
1A
102
{ACAD_REACTORS
330
C
102
}
330
C
100
AcDbDictionary
281
     1
  3
Layout1
350
1E
  3
Layout2
350
26
  3
Model
350
22
  0
DICTIONARY
  5
17
102
{ACAD_REACTORS
330
C
102
}
330
C
100
AcDbDictionary
281
     1
  3
Standard
350
18
  0
DICTIONARY
  5
19
102
{ACAD_REACTORS
330
C
102
}
330
C
100
AcDbDictionary
281
     1
  0
ACDBDICTIONARYWDFLT
  5
E
102
{ACAD_REACTORS
330
C
102
}
330
C
100
AcDbDictionary
281
     1
  3
Normal
350
F
100
AcDbDictionaryWithDefault
340
F
  0
DICTIONARY
  5
47
102
{ACAD_REACTORS
330
C
102
}
330
C
100
AcDbDictionary
281
     1
  3
A0
350
48
  3
A1
350
49
  3
A2
350
4A
  3
A3
350
4B
  3
A4
350
4C
  3
A5
350
4D
  3
A6
350
4E
  3
A7
350
4F
  3
A8
350
50
  3
A9
350
51
  3
B0
350
52
  3
B1
350
53
  3
B2
350
54
  3
B3
350
55
  3
B4
350
56
  3
B5
350
57
  3
B6
350
58
  3
B7
350
59
  3
B8
350
5A
  3
B9
350
5B
  3
C0
350
5C
  3
C1
350
5D
  3
C2
350
5E
  3
C3
350
5F
  3
C4
350
60
  3
C5
350
61
  3
C6
350
62
  3
C7
350
63
  3
C8
350
64
  3
C9
350
65
  3
D0
350
66
  3
D1
350
67
  3
D2
350
68
  0
LAYOUT
  5
1E
102
{ACAD_REACTORS
330
1A
102
}
330
1A
100
AcDbPlotSettings
  1

  2
none_device
  4

  6

 40
0.0
 41
0.0
 42
0.0
 43
0.0
 44
0.0
 45
0.0
 46
0.0
 47
0.0
 48
0.0
 49
0.0
140
0.0
141
0.0
142
1.0
143
1.0
 70
   688
 72
     1
 73
     0
 74
     5
  7

 75
    16
147
1.0
148
0.0
149
0.0
100
AcDbLayout
  1
Layout1
 70
     1
 71
     1
 10
0.0
 20
0.0
 11
420.0
 21
297.0
 12
0.0
 22
0.0
 32
0.0
 14
1.0000000000E+20
 24
1.0000000000E+20
 34
1.0000000000E+20
 15
-1.0000000000E+20
 25
-1.0000000000E+20
 35
-1.0000000000E+20
146
0.0
 13
0.0
 23
0.0
 33
0.0
 16
1.0
 26
0.0
 36
0.0
 17
0.0
 27
1.0
 37
0.0
 76
     0
330
1B
  0
LAYOUT
  5
26
102
{ACAD_REACTORS
330
1A
102
}
330
1A
100
AcDbPlotSettings
  1

  2
none_device
  4

  6

 40
0.0
 41
0.0
 42
0.0
 43
0.0
 44
0.0
 45
0.0
 46
0.0
 47
0.0
 48
0.0
 49
0.0
140
0.0
141
0.0
142
1.0
143
1.0
 70
   688
 72
     1
 73
     0
 74
     5
  7

 75
    16
147
1.0
148
0.0
149
0.0
100
AcDbLayout
  1
Layout2
 70
     1
 71
     2
 10
0.0
 20
0.0
 11
0.0
 21
0.0
 12
0.0
 22
0.0
 32
0.0
 14
0.0
 24
0.0
 34
0.0
 15
0.0
 25
0.0
 35
0.0
146
0.0
 13
0.0
 23
0.0
 33
0.0
 16
1.0
 26
0.0
 36
0.0
 17
0.0
 27
1.0
 37
0.0
 76
     0
330
23
  0
LAYOUT
  5
22
102
{ACAD_REACTORS
330
1A
102
}
330
1A
100
AcDbPlotSettings
  1

  2
none_device
  4
Letter_(8.50_x_11.00_Inches)
  6

 40
6.35
 41
6.35
 42
6.35000508
 43
6.35000508
 44
215.9
 45
279.4
 46
0.0
 47
0.0
 48
0.0
 49
0.0
140
0.0
141
0.0
142
1.0
143
1.0
 70
  1712
 72
     1
 73
     0
 74
     0
  7

 75
     0
147
1.0
148
0.0
149
0.0
100
AcDbLayout
  1
Model
 70
     1
 71
     0
 10
0.0
 20
0.0
 11
1189.0
 21
841.0
 12
0.0
 22
0.0
 32
0.0
 14
0.0
 24
0.0
 34
0.0
 15
1189.0
 25
841.0
 35
0.0
146
0.0
 13
0.0
 23
0.0
 33
0.0
 16
1.0
 26
0.0
 36
0.0
 17
0.0
 27
1.0
 37
0.0
 76
     0
330
1F
331
29
  0
MLINESTYLE
  5
18
102
{ACAD_REACTORS
330
17
102
}
330
17
100
AcDbMlineStyle
  2
Standard
 70
     0
  3

 62
   256
 51
90.0
 52
90.0
 71
     2
 49
0.5
 62
   256
  6
BYLAYER
 49
-0.5
 62
   256
  6
BYLAYER
  0
ACDBPLACEHOLDER
  5
F
102
{ACAD_REACTORS
330
E
102
}
330
E
  0
SCALE
  5
48
102
{ACAD_REACTORS
330
47
102
}
330
47
100
AcDbScale
 70
     0
300
1:1
140
1.0
141
1.0
290
     1
  0
SCALE
  5
49
102
{ACAD_REACTORS
330
47
102
}
330
47
100
AcDbScale
 70
     0
300
1:2
140
1.0
141
2.0
290
     0
  0
SCALE
  5
4A
102
{ACAD_REACTORS
330
47
102
}
330
47
100
AcDbScale
 70
     0
300
1:4
140
1.0
141
4.0
290
     0
  0
SCALE
  5
4B
102
{ACAD_REACTORS
330
47
102
}
330
47
100
AcDbScale
 70
     0
300
1:5
140
1.0
141
5.0
290
     0
  0
SCALE
  5
4C
102
{ACAD_REACTORS
330
47
102
}
330
47
100
AcDbScale
 70
     0
300
1:8
140
1.0
141
8.0
290
     0
  0
SCALE
  5
4D
102
{ACAD_REACTORS
330
47
102
}
330
47
100
AcDbScale
 70
     0
300
1:10
140
1.0
141
10.0
290
     0
  0
SCALE
  5
4E
102
{ACAD_REACTORS
330
47
102
}
330
47
100
AcDbScale
 70
     0
300
1:16
140
1.0
141
16.0
290
     0
  0
SCALE
  5
4F
102
{ACAD_REACTORS
330
47
102
}
330
47
100
AcDbScale
 70
     0
300
1:20
140
1.0
141
20.0
290
     0
  0
SCALE
  5
50
102
{ACAD_REACTORS
330
47
102
}
330
47
100
AcDbScale
 70
     0
300
1:30
140
1.0
141
30.0
290
     0
  0
SCALE
  5
51
102
{ACAD_REACTORS
330
47
102
}
330
47
100
AcDbScale
 70
     0
300
1:40
140
1.0
141
40.0
290
     0
  0
SCALE
  5
52
102
{ACAD_REACTORS
330
47
102
}
330
47
100
AcDbScale
 70
     0
300
1:50
140
1.0
141
50.0
290
     0
  0
SCALE
  5
53
102
{ACAD_REACTORS
330
47
102
}
330
47
100
AcDbScale
 70
     0
300
1:100
140
1.0
141
100.0
290
     0
  0
SCALE
  5
54
102
{ACAD_REACTORS
330
47
102
}
330
47
100
AcDbScale
 70
     0
300
2:1
140
2.0
141
1.0
290
     0
  0
SCALE
  5
55
102
{ACAD_REACTORS
330
47
102
}
330
47
100
AcDbScale
 70
     0
300
4:1
140
4.0
141
1.0
290
     0
  0
SCALE
  5
56
102
{ACAD_REACTORS
330
47
102
}
330
47
100
AcDbScale
 70
     0
300
8:1
140
8.0
141
1.0
290
     0
  0
SCALE
  5
57
102
{ACAD_REACTORS
330
47
102
}
330
47
100
AcDbScale
 70
     0
300
10:1
140
10.0
141
1.0
290
     0
  0
SCALE
  5
58
102
{ACAD_REACTORS
330
47
102
}
330
47
100
AcDbScale
 70
     0
300
100:1
140
100.0
141
1.0
290
     0
  0
SCALE
  5
59
102
{ACAD_REACTORS
330
47
102
}
330
47
100
AcDbScale
 70
     0
300
1/128" = 1'-0"
140
0.0078125
141
12.0
290
     0
  0
SCALE
  5
5A
102
{ACAD_REACTORS
330
47
102
}
330
47
100
AcDbScale
 70
     0
300
1/64" = 1'-0"
140
0.015625
141
12.0
290
     0
  0
SCALE
  5
5B
102
{ACAD_REACTORS
330
47
102
}
330
47
100
AcDbScale
 70
     0
300
1/32" = 1'-0"
140
0.03125
141
12.0
290
     0
  0
SCALE
  5
5C
102
{ACAD_REACTORS
330
47
102
}
330
47
100
AcDbScale
 70
     0
300
1/16" = 1'-0"
140
0.0625
141
12.0
290
     0
  0
SCALE
  5
5D
102
{ACAD_REACTORS
330
47
102
}
330
47
100
AcDbScale
 70
     0
300
3/32" = 1'-0"
140
0.09375
141
12.0
290
     0
  0
SCALE
  5
5E
102
{ACAD_REACTORS
330
47
102
}
330
47
100
AcDbScale
 70
     0
300
1/8" = 1'-0"
140
0.125
141
12.0
290
     0
  0
SCALE
  5
5F
102
{ACAD_REACTORS
330
47
102
}
330
47
100
AcDbScale
 70
     0
300
3/16" = 1'-0"
140
0.1875
141
12.0
290
     0
  0
SCALE
  5
60
102
{ACAD_REACTORS
330
47
102
}
330
47
100
AcDbScale
 70
     0
300
1/4" = 1'-0"
140
0.25
141
12.0
290
     0
  0
SCALE
  5
61
102
{ACAD_REACTORS
330
47
102
}
330
47
100
AcDbScale
 70
     0
300
3/8" = 1'-0"
140
0.375
141
12.0
290
     0
  0
SCALE
  5
62
102
{ACAD_REACTORS
330
47
102
}
330
47
100
AcDbScale
 70
     0
300
1/2" = 1'-0"
140
0.5
141
12.0
290
     0
  0
SCALE
  5
63
102
{ACAD_REACTORS
330
47
102
}
330
47
100
AcDbScale
 70
     0
300
3/4" = 1'-0"
140
0.75
141
12.0
290
     0
  0
SCALE
  5
64
102
{ACAD_REACTORS
330
47
102
}
330
47
100
AcDbScale
 70
     0
300
1" = 1'-0"
140
1.0
141
12.0
290
     0
  0
SCALE
  5
65
102
{ACAD_REACTORS
330
47
102
}
330
47
100
AcDbScale
 70
     0
300
1-1/2" = 1'-0"
140
1.5
141
12.0
290
     0
  0
SCALE
  5
66
102
{ACAD_REACTORS
330
47
102
}
330
47
100
AcDbScale
 70
     0
300
3" = 1'-0"
140
3.0
141
12.0
290
     0
  0
SCALE
  5
67
102
{ACAD_REACTORS
330
47
102
}
330
47
100
AcDbScale
 70
     0
300
6" = 1'-0"
140
6.0
141
12.0
290
     0
  0
SCALE
  5
68
102
{ACAD_REACTORS
330
47
102
}
330
47
100
AcDbScale
 70
     0
300
1'-0" = 1'-0"
140
12.0
141
12.0
290
     0
  0
ENDSEC
  0
EOF
