  0
SECTION
  2
HEADER
  9
$ACADVER
  1
AC1015
  9
$ACADMAINTVER
 70
     6
  9
$DWGCODEPAGE
  3
ANSI_1252
  9
$INSBASE
 10
0.0
 20
0.0
 30
0.0
  9
$EXTMIN
 10
0.0
 20
0.0
 30
0.0
  9
$EXTMAX
 10
1189.0
 20
841.0
 30
0.0
  9
$LIMMIN
 10
0.0
 20
0.0
  9
$LIMMAX
 10
1189.0
 20
841.0
  9
$ORTHOMODE
 70
     0
  9
$REGENMODE
 70
     1
  9
$FILLMODE
 70
     1
  9
$QTEXTMODE
 70
     0
  9
$MIRRTEXT
 70
     1
  9
$LTSCALE
 40
1.0
  9
$ATTMODE
 70
     1
  9
$TEXTSIZE
 40
3.5
  9
$TRACEWID
 40
1.0
  9
$TEXTSTYLE
  7
Standard
  9
$CLAYER
  8
0
  9
$CELTYPE
  6
ByLayer
  9
$CECOLOR
 62
   256
  9
$CELTSCALE
 40
1.0
  9
$DISPSILH
 70
     0
  9
$DIMSCALE
 40
1.0
  9
$DIMASZ
 40
3.302
  9
$DIMEXO
 40
1.0
  9
$DIMDLI
 40
3.75
  9
$DIMRND
 40
0.0
  9
$DIMDLE
 40
0.0
  9
$DIMEXE
 40
1.0
  9
$DIMTP
 40
0.0
  9
$DIMTM
 40
0.0
  9
$DIMTXT
 40
3.5
  9
$DIMCEN
 40
2.5
  9
$DIMTSZ
 40
0.0
  9
$DIMTOL
 70
     0
  9
$DIMLIM
 70
     0
  9
$DIMTIH
 70
     1
  9
$DIMTOH
 70
     1
  9
$DIMSE1
 70
     0
  9
$DIMSE2
 70
     0
  9
$DIMTAD
 70
     1
  9
$DIMZIN
 70
     0
  9
$DIMBLK
  1

  9
$DIMASO
 70
     1
  9
$DIMSHO
 70
     1
  9
$DIMPOST
  1

  9
$DIMAPOST
  1

  9
$DIMALT
 70
     0
  9
$DIMALTD
 70
     3
  9
$DIMALTF
 40
0.0393700787
  9
$DIMLFAC
 40
5.0
  9
$DIMTOFL
 70
     1
  9
$DIMTVP
 40
0.0
  9
$DIMTIX
 70
     0
  9
$DIMSOXD
 70
     0
  9
$DIMSAH
 70
     0
  9
$DIMBLK1
  1

  9
$DIMBLK2
  1

  9
$DIMSTYLE
  2
ISO-25
  9
$DIMCLRD
 70
     0
  9
$DIMCLRE
 70
     0
  9
$DIMCLRT
 70
     0
  9
$DIMTFAC
 40
1.0
  9
$DIMGAP
 40
1.524
  9
$DIMJUST
 70
     0
  9
$DIMSD1
 70
     0
  9
$DIMSD2
 70
     0
  9
$DIMTOLJ
 70
     0
  9
$DIMTZIN
 70
     0
  9
$DIMALTZ
 70
     0
  9
$DIMALTTZ
 70
     0
  9
$DIMUPT
 70
     0
  9
$DIMDEC
 70
     2
  9
$DIMTDEC
 70
     2
  9
$DIMALTU
 70
     2
  9
$DIMALTTD
 70
     3
  9
$DIMTXSTY
  7
Standard
  9
$DIMAUNIT
 70
     0
  9
$DIMADEC
 70
     2
  9
$DIMALTRND
 40
0.0
  9
$DIMAZIN
 70
     0
  9
$DIMDSEP
 70
    44
  9
$DIMATFIT
 70
     3
  9
$DIMFRAC
 70
     0
  9
$DIMLDRBLK
  1

  9
$DIMLUNIT
 70
     2
  9
$DIMLWD
 70
    -2
  9
$DIMLWE
 70
    -2
  9
$DIMTMOVE
 70
     0
  9
$LUNITS
 70
     2
  9
$LUPREC
 70
     2
  9
$SKETCHINC
 40
1.0
  9
$FILLETRAD
 40
10.0
  9
$AUNITS
 70
     0
  9
$AUPREC
 70
     2
  9
$MENU
  1
.
  9
$ELEVATION
 40
0.0
  9
$PELEVATION
 40
0.0
  9
$THICKNESS
 40
0.0
  9
$LIMCHECK
 70
     0
  9
$CHAMFERA
 40
0.0
  9
$CHAMFERB
 40
0.0
  9
$CHAMFERC
 40
0.0
  9
$CHAMFERD
 40
0.0
  9
$SKPOLY
 70
     0
  9
$TDCREATE
 40
2458057.534846586
  9
$TDUCREATE
 40
2458057.534846586
  9
$TDUPDATE
 40
2458057.534846875
  9
$TDUUPDATE
 40
2458057.534846875
  9
$TDINDWG
 40
0.0000000116
  9
$TDUSRTIMER
 40
0.0000000116
  9
$USRTIMER
 70
     1
  9
$ANGBASE
 50
0.0
  9
$ANGDIR
 70
     0
  9
$PDMODE
 70
     0
  9
$PDSIZE
 40
-1.0
  9
$PLINEWID
 40
0.0
  9
$SPLFRAME
 70
     0
  9
$SPLINETYPE
 70
     6
  9
$SPLINESEGS
 70
     8
  9
$HANDSEED
  5
4B0
  9
$SURFTAB1
 70
     6
  9
$SURFTAB2
 70
     6
  9
$SURFTYPE
 70
     6
  9
$SURFU
 70
     6
  9
$SURFV
 70
     6
  9
$UCSBASE
  2

  9
$UCSNAME
  2

  9
$UCSORG
 10
0.0
 20
0.0
 30
0.0
  9
$UCSXDIR
 10
1.0
 20
0.0
 30
0.0
  9
$UCSYDIR
 10
0.0
 20
1.0
 30
0.0
  9
$UCSORTHOREF
  2

  9
$UCSORTHOVIEW
 70
     0
  9
$UCSORGTOP
 10
0.0
 20
0.0
 30
0.0
  9
$UCSORGBOTTOM
 10
0.0
 20
0.0
 30
0.0
  9
$UCSORGLEFT
 10
0.0
 20
0.0
 30
0.0
  9
$UCSORGRIGHT
 10
0.0
 20
0.0
 30
0.0
  9
$UCSORGFRONT
 10
0.0
 20
0.0
 30
0.0
  9
$UCSORGBACK
 10
0.0
 20
0.0
 30
0.0
  9
$PUCSBASE
  2

  9
$PUCSNAME
  2

  9
$PUCSORG
 10
0.0
 20
0.0
 30
0.0
  9
$PUCSXDIR
 10
1.0
 20
0.0
 30
0.0
  9
$PUCSYDIR
 10
0.0
 20
1.0
 30
0.0
  9
$PUCSORTHOREF
  2

  9
$PUCSORTHOVIEW
 70
     0
  9
$PUCSORGTOP
 10
0.0
 20
0.0
 30
0.0
  9
$PUCSORGBOTTOM
 10
0.0
 20
0.0
 30
0.0
  9
$PUCSORGLEFT
 10
0.0
 20
0.0
 30
0.0
  9
$PUCSORGRIGHT
 10
0.0
 20
0.0
 30
0.0
  9
$PUCSORGFRONT
 10
0.0
 20
0.0
 30
0.0
  9
$PUCSORGBACK
 10
0.0
 20
0.0
 30
0.0
  9
$USERI1
 70
     0
  9
$USERI2
 70
     0
  9
$USERI3
 70
     0
  9
$USERI4
 70
     0
  9
$USERI5
 70
     0
  9
$USERR1
 40
0.0
  9
$USERR2
 40
0.0
  9
$USERR3
 40
0.0
  9
$USERR4
 40
0.0
  9
$USERR5
 40
0.0
  9
$WORLDVIEW
 70
     1
  9
$SHADEDGE
 70
     3
  9
$SHADEDIF
 70
    70
  9
$TILEMODE
 70
     1
  9
$MAXACTVP
 70
    64
  9
$PINSBASE
 10
0.0
 20
0.0
 30
0.0
  9
$PLIMCHECK
 70
     0
  9
$PEXTMIN
 10
1.0000000000E+20
 20
1.0000000000E+20
 30
1.0000000000E+20
  9
$PEXTMAX
 10
-1.0000000000E+20
 20
-1.0000000000E+20
 30
-1.0000000000E+20
  9
$PLIMMIN
 10
0.0
 20
0.0
  9
$PLIMMAX
 10
420.0
 20
297.0
  9
$UNITMODE
 70
     0
  9
$VISRETAIN
 70
     1
  9
$PLINEGEN
 70
     0
  9
$PSLTSCALE
 70
     1
  9
$TREEDEPTH
 70
  3020
  9
$CMLSTYLE
  2
Standard
  9
$CMLJUST
 70
     0
  9
$CMLSCALE
 40
20.0
  9
$PROXYGRAPHICS
 70
     1
  9
$MEASUREMENT
 70
     1
  9
$CELWEIGHT
370
    -1
  9
$ENDCAPS
280
     0
  9
$JOINSTYLE
280
     0
  9
$LWDISPLAY
290
     1
  9
$INSUNITS
 70
     4
  9
$HYPERLINKBASE
  1

  9
$STYLESHEET
  1

  9
$XEDIT
290
     1
  9
$CEPSNTYPE
380
     0
  9
$PSTYLEMODE
290
     1
  9
$FINGERPRINTGUID
  2
{FDD93A2D-AD94-4E0F-B5FE-B70019C53898}
  9
$VERSIONGUID
  2
{FAEB1C32-E019-11D5-929B-00C0DF256EC4}
  9
$EXTNAMES
290
     1
  9
$PSVPSCALE
 40
0.0
  9
$OLESTARTUP
290
     0
  0
ENDSEC
  0
SECTION
  2
CLASSES
  0
CLASS
  1
ACDBDICTIONARYWDFLT
  2
AcDbDictionaryWithDefault
  3
ObjectDBX Classes
 90
        0
280
     0
281
     0
  0
CLASS
  1
VISUALSTYLE
  2
AcDbVisualStyle
  3
ObjectDBX Classes
 90
     4095
280
     0
281
     0
  0
CLASS
  1
MATERIAL
  2
AcDbMaterial
  3
ObjectDBX Classes
 90
     1153
280
     0
281
     0
  0
CLASS
  1
SCALE
  2
AcDbScale
  3
ObjectDBX Classes
 90
     1153
280
     0
281
     0
  0
CLASS
  1
TABLESTYLE
  2
AcDbTableStyle
  3
ObjectDBX Classes
 90
     4095
280
     0
281
     0
  0
CLASS
  1
MLEADERSTYLE
  2
AcDbMLeaderStyle
  3
ACDB_MLEADERSTYLE_CLASS
 90
     4095
280
     0
281
     0
  0
CLASS
  1
SUN
  2
AcDbSun
  3
SCENEOE
 90
     1153
280
     0
281
     0
  0
CLASS
  1
ACDBPLACEHOLDER
  2
AcDbPlaceHolder
  3
ObjectDBX Classes
 90
        0
280
     0
281
     0
  0
CLASS
  1
LAYOUT
  2
AcDbLayout
  3
ObjectDBX Classes
 90
        0
280
     0
281
     0
  0
ENDSEC
  0
SECTION
  2
TABLES
  0
TABLE
  2
VPORT
  5
8
330
0
100
AcDbSymbolTable
 70
     1
  0
VPORT
  5
29
330
8
100
AcDbSymbolTableRecord
100
AcDbViewportTableRecord
  2
*Active
 70
     0
 10
0.0
 20
0.0
 11
1.0
 21
1.0
 12
594.5
 22
420.5
 13
0.0
 23
0.0
 14
10.0
 24
10.0
 15
10.0
 25
10.0
 16
0.0
 26
0.0
 36
1.0
 17
0.0
 27
0.0
 37
0.0
 40
841.0
 41
1.4137931034
 42
50.0
 43
0.0
 44
0.0
 50
0.0
 51
0.0
 71
     0
 72
  2000
 73
     1
 74
     3
 75
     0
 76
     0
 77
     0
 78
     0
281
     0
 65
     1
110
0.0
120
0.0
130
0.0
111
1.0
121
0.0
131
0.0
112
0.0
122
1.0
132
0.0
 79
     0
146
0.0
  0
ENDTAB
  0
TABLE
  2
LTYPE
  5
5
330
0
100
AcDbSymbolTable
 70
     6
  0
LTYPE
  5
14
330
5
100
AcDbSymbolTableRecord
100
AcDbLinetypeTableRecord
  2
ByBlock
 70
     0
  3

 72
    65
 73
     0
 40
0.0
  0
LTYPE
  5
15
330
5
100
AcDbSymbolTableRecord
100
AcDbLinetypeTableRecord
  2
ByLayer
 70
     0
  3

 72
    65
 73
     0
 40
0.0
  0
LTYPE
  5
16
330
5
100
AcDbSymbolTableRecord
100
AcDbLinetypeTableRecord
  2
Continuous
 70
     0
  3
Solid line
 72
    65
 73
     0
 40
0.0
  0
LTYPE
  5
6E
330
5
100
AcDbSymbolTableRecord
100
AcDbLinetypeTableRecord
  2
HIDDEN
 70
     0
  3
Hidden __ __ __ __ __ __ __ __ __ __ __ __ __ __
 72
    65
 73
     2
 40
1.905
 49
1.27
 74
     0
 49
-0.635
 74
     0
  0
LTYPE
  5
6F
330
5
100
AcDbSymbolTableRecord
100
AcDbLinetypeTableRecord
  2
PHANTOM
 70
     0
  3
Phantom ______  __  __  ______  __  __  ______
 72
    65
 73
     6
 40
12.7
 49
6.35
 74
     0
 49
-1.27
 74
     0
 49
1.27
 74
     0
 49
-1.27
 74
     0
 49
1.27
 74
     0
 49
-1.27
 74
     0
  0
LTYPE
  5
70
330
5
100
AcDbSymbolTableRecord
100
AcDbLinetypeTableRecord
  2
CENTER
 70
     0
  3
Center ____ _ ____ _ ____ _ ____ _ ____ _ ____
 72
    65
 73
     4
 40
10.16
 49
6.35
 74
     0
 49
-1.27
 74
     0
 49
1.27
 74
     0
 49
-1.27
 74
     0
  0
LTYPE
  5
71
330
5
100
AcDbSymbolTableRecord
100
AcDbLinetypeTableRecord
  2
CENTERX2
 70
     0
  3
Center (2x) ________  __  ________  __  _____
 72
    65
 73
     4
 40
20.32
 49
12.7
 74
     0
 49
-2.54
 74
     0
 49
2.54
 74
     0
 49
-2.54
 74
     0
  0
LTYPE
  5
72
330
5
100
AcDbSymbolTableRecord
100
AcDbLinetypeTableRecord
  2
DOT2
 70
     0
  3
Dot (.5x) ........................................
 72
    65
 73
     2
 40
0.635
 49
0.0
 74
     0
 49
-0.635
 74
     0
  0
ENDTAB
  0
TABLE
  2
LAYER
  5
2
330
0
100
AcDbSymbolTable
 70
     2
  0
LAYER
  5
10
330
2
100
AcDbSymbolTableRecord
100
AcDbLayerTableRecord
  2
0
 70
     0
 62
     7
  6
Continuous
370
    -3
390
F
  0
LAYER
  5
73
330
2
100
AcDbSymbolTableRecord
100
AcDbLayerTableRecord
  2
FORMAT
 70
     0
 62
     7
  6
Continuous
370
    -3
390
F
  0
ENDTAB
  0
TABLE
  2
STYLE
  5
3
330
0
100
AcDbSymbolTable
 70
     1
  0
STYLE
  5
11
330
3
100
AcDbSymbolTableRecord
100
AcDbTextStyleTableRecord
  2
Standard
 70
     0
 40
0.0
 41
1.0
 50
0.0
 71
     0
 42
3.5
  3
txt
  4

  0
ENDTAB
  0
TABLE
  2
VIEW
  5
6
330
0
100
AcDbSymbolTable
 70
     0
  0
ENDTAB
  0
TABLE
  2
UCS
  5
7
330
0
100
AcDbSymbolTable
 70
     0
  0
ENDTAB
  0
TABLE
  2
APPID
  5
9
330
0
100
AcDbSymbolTable
 70
     1
  0
APPID
  5
12
330
9
100
AcDbSymbolTableRecord
100
AcDbRegAppTableRecord
  2
ACAD
 70
     0
  0
ENDTAB
  0
TABLE
  2
DIMSTYLE
  5
A
330
0
100
AcDbSymbolTable
 70
     1
100
AcDbDimStyleTable
  0
DIMSTYLE
105
27
330
A
100
AcDbSymbolTableRecord
100
AcDbDimStyleTableRecord
  2
ISO-25
 70
     0
 41
2.5
 42
0.625
 43
3.75
 44
1.25
 73
     0
 74
     0
 77
     1
 78
     8
140
2.5
141
2.5
143
0.0393700787
147
0.625
171
     3
172
     1
178
     0
271
     2
272
     2
274
     3
278
    44
283
     0
284
     8
340
11
  0
ENDTAB
  0
TABLE
  2
BLOCK_RECORD
  5
1
330
0
100
AcDbSymbolTable
 70
     1
  0
BLOCK_RECORD
  5
1F
330
1
100
AcDbSymbolTableRecord
100
AcDbBlockTableRecord
  2
*Model_Space
340
22
  0
BLOCK_RECORD
  5
1B
330
1
100
AcDbSymbolTableRecord
100
AcDbBlockTableRecord
  2
*Paper_Space
340
1E
  0
BLOCK_RECORD
  5
23
330
1
100
AcDbSymbolTableRecord
100
AcDbBlockTableRecord
  2
*Paper_Space0
340
26
  0
ENDTAB
  0
ENDSEC
  0
SECTION
  2
BLOCKS
  0
BLOCK
  5
20
330
1F
100
AcDbEntity
  8
0
100
AcDbBlockBegin
  2
*Model_Space
 70
     0
 10
0.0
 20
0.0
 30
0.0
  3
*Model_Space
  1

  0
ENDBLK
  5
21
330
1F
100
AcDbEntity
  8
0
100
AcDbBlockEnd
  0
BLOCK
  5
1C
330
1B
100
AcDbEntity
 67
     1
  8
0
100
AcDbBlockBegin
  2
*Paper_Space
 70
     0
 10
0.0
 20
0.0
 30
0.0
  3
*Paper_Space
  1

  0
ENDBLK
  5
1D
330
1B
100
AcDbEntity
 67
     1
  8
0
100
AcDbBlockEnd
  0
BLOCK
  5
24
330
23
100
AcDbEntity
  8
0
100
AcDbBlockBegin
  2
*Paper_Space0
 70
     0
 10
0.0
 20
0.0
 30
0.0
  3
*Paper_Space0
  1

  0
ENDBLK
  5
25
330
23
100
AcDbEntity
  8
0
100
AcDbBlockEnd
  0
ENDSEC
  0
SECTION
  2
ENTITIES
  0
LINE
  5
74
330
1F
100
AcDbEntity
  8
0
  6
Continuous
 62
     7
370
    15
100
AcDbLine
 10
461.2052710827
 20
275.7952514533
 30
0.0
 11
461.2052710827
 21
274.4874879215
 31
0.0
  0
LINE
  5
75
330
1F
100
AcDbEntity
  8
0
  6
Continuous
 62
     7
370
    15
100
AcDbLine
 10
477.2052707251
 20
274.4874879215
 30
0.0
 11
477.2052707251
 21
275.7952514533
 31
0.0
  0
LINE
  5
76
330
1F
100
AcDbEntity
  8
0
  6
Continuous
 62
     7
370
    15
100
AcDbLine
 10
420.2052714404
 20
275.7952514533
 30
0.0
 11
420.2052714404
 21
274.4874879215
 31
0.0
  0
LINE
  5
77
330
1F
100
AcDbEntity
  8
0
  6
Continuous
 62
     7
370
    15
100
AcDbLine
 10
436.2052710827
 20
274.4874879215
 30
0.0
 11
436.2052710827
 21
275.7952514533
 31
0.0
  0
LINE
  5
78
330
1F
100
AcDbEntity
  8
0
  6
Continuous
 62
     7
370
    15
100
AcDbLine
 10
468.5352714833
 20
240.1107303295
 30
0.0
 11
469.8752718147
 21
240.1107303295
 31
0.0
  0
LINE
  5
79
330
1F
100
AcDbEntity
  8
0
  6
Continuous
 62
     7
370
    15
100
AcDbLine
 10
427.5352703508
 20
240.1107303295
 30
0.0
 11
428.8752706822
 21
240.1107303295
 31
0.0
  0
LINE
  5
7A
330
1F
100
AcDbEntity
  8
0
  6
Continuous
 62
     7
370
    15
100
AcDbLine
 10
437.2096048768
 20
244.4214783106
 30
0.0
 11
437.8796042975
 21
244.1684655342
 31
0.0
  0
LINE
  5
7B
330
1F
100
AcDbEntity
  8
0
  6
Continuous
 62
     7
370
    15
100
AcDbLine
 10
439.6619575199
 20
241.5085546169
 30
0.0
 11
440.3319576856
 21
241.7615673933
 31
0.0
  0
LINE
  5
7C
330
1F
100
AcDbEntity
  8
0
  6
Continuous
 62
     7
370
    15
100
AcDbLine
 10
427.5352703508
 20
245.4305521641
 30
0.0
 11
428.8752706822
 21
245.4305521641
 31
0.0
  0
LINE
  5
7D
330
1F
100
AcDbEntity
  8
0
  6
Continuous
 62
     7
370
    15
100
AcDbLine
 10
418.5309382256
 20
244.1684655342
 30
0.0
 11
419.2009361561
 21
244.4214783106
 31
0.0
  0
LINE
  5
7E
330
1F
100
AcDbEntity
  8
0
  6
Continuous
 62
     7
370
    15
100
AcDbLine
 10
478.2096060093
 20
244.4214783106
 30
0.0
 11
478.8796039399
 21
244.1684655342
 31
0.0
  0
LINE
  5
7F
330
1F
100
AcDbEntity
  8
0
  6
Continuous
 62
     7
370
    15
100
AcDbLine
 10
480.6619586524
 20
241.5085546169
 30
0.0
 11
481.3319565829
 21
241.7615673933
 31
0.0
  0
LINE
  5
80
330
1F
100
AcDbEntity
  8
0
  6
Continuous
 62
     7
370
    15
100
AcDbLine
 10
459.530937868
 20
244.1684655342
 30
0.0
 11
460.2009372886
 21
244.4214783106
 31
0.0
  0
LINE
  5
81
330
1F
100
AcDbEntity
  8
0
  6
Continuous
 62
     7
370
    15
100
AcDbLine
 10
457.0785844799
 20
241.7615673933
 30
0.0
 11
457.7485846456
 21
241.5085546169
 31
0.0
  0
LINE
  5
82
330
1F
100
AcDbEntity
  8
0
  6
Continuous
 62
     7
370
    15
100
AcDbLine
 10
416.0785855826
 20
241.7615673933
 30
0.0
 11
416.7485835131
 21
241.5085546169
 31
0.0
  0
LINE
  5
83
330
1F
100
AcDbEntity
  8
0
  6
Continuous
 62
     7
370
    15
100
AcDbLine
 10
468.5352714833
 20
245.4305521641
 30
0.0
 11
469.8752718147
 21
245.4305521641
 31
0.0
  0
LINE
  5
84
330
1F
100
AcDbEntity
  8
0
  6
Continuous
 62
     7
370
    15
100
AcDbLine
 10
477.2052707251
 20
273.1797240171
 30
0.0
 11
477.2052707251
 21
274.4874879215
 31
0.0
  0
LINE
  5
85
330
1F
100
AcDbEntity
  8
0
  6
Continuous
 62
     7
370
    15
100
AcDbLine
 10
461.2052710827
 20
274.4874879215
 30
0.0
 11
461.2052710827
 21
273.1797240171
 31
0.0
  0
LINE
  5
86
330
1F
100
AcDbEntity
  8
0
  6
Continuous
 62
     7
370
    15
100
AcDbLine
 10
436.2052710827
 20
273.1797240171
 30
0.0
 11
436.2052710827
 21
274.4874879215
 31
0.0
  0
LINE
  5
87
330
1F
100
AcDbEntity
  8
0
  6
Continuous
 62
     7
370
    15
100
AcDbLine
 10
420.2052714404
 20
274.4874879215
 30
0.0
 11
420.2052714404
 21
273.1797240171
 31
0.0
  0
ARC
  5
88
330
1F
100
AcDbEntity
  8
0
  6
Continuous
 62
     7
370
    15
100
AcDbCircle
 10
428.8372536978
 20
286.0564021073
 30
0.0
 40
43.29634380156858
100
AcDbArc
 50
270.668909208
 51
279.8390418883
  0
LWPOLYLINE
  5
89
330
1F
100
AcDbEntity
  8
0
  6
Continuous
 62
     7
370
    15
100
AcDbPolyline
 90
        3
 70
   128
 43
0.0
 10
438.6549623784
 20
243.9969174061
 10
438.7729304012
 20
244.0350792799
 10
439.0755953368
 20
244.1492221746
  0
LWPOLYLINE
  5
8A
330
1F
100
AcDbEntity
  8
0
  6
Continuous
 62
     7
370
    15
100
AcDbPolyline
 90
       16
 70
   128
 43
0.0
 10
438.9553966101
 20
247.6030788813
 10
438.6333422836
 20
247.7191529665
 10
438.1261156972
 20
247.8761784229
 10
437.5774802741
 20
248.0232916269
 10
436.9892293688
 20
248.1605730448
 10
436.3634580847
 20
248.2879034672
 10
435.702543157
 20
248.4050474558
 10
435.0091176208
 20
248.5117129478
 10
434.2860313233
 20
248.6075810585
 10
433.5363255914
 20
248.6923388634
 10
432.7632101353
 20
248.7656823788
 10
431.9700287755
 20
248.8273493442
 10
431.160244542
 20
248.877098361
 10
430.3374158319
 20
248.9147386942
 10
429.5051740583
 20
248.9401243124
 10
428.8752706822
 20
248.9499173555
  0
LWPOLYLINE
  5
8B
330
1F
100
AcDbEntity
  8
0
  6
Continuous
 62
     7
370
    15
100
AcDbPolyline
 90
       16
 70
   128
 43
0.0
 10
427.5352703508
 20
248.949667016
 10
426.9889431175
 20
248.9419839773
 10
426.1561306294
 20
248.9178381357
 10
425.3324704345
 20
248.8814316187
 10
424.5216103371
 20
248.8329164181
 10
423.727128106
 20
248.7724922094
 10
422.9525150832
 20
248.7003944311
 10
422.2011538323
 20
248.6169032249
 10
421.4762957867
 20
248.5223315153
 10
420.781040388
 20
248.4170250091
 10
420.1183172043
 20
248.3013323936
 10
419.4908412274
 20
248.1756053362
 10
418.9011069115
 20
248.0401657019
 10
418.35133751
 20
247.8952638302
 10
417.8434493121
 20
247.7410219107
 10
417.455145913
 20
247.6041517649
  0
LWPOLYLINE
  5
8C
330
1F
100
AcDbEntity
  8
0
  6
Continuous
 62
     7
370
    15
100
AcDbPolyline
 90
        3
 70
   128
 43
0.0
 10
417.3368634757
 20
244.1489807758
 10
417.5257803973
 20
244.0748117361
 10
417.7559794959
 20
243.9976684246
  0
ARC
  5
8D
330
1F
100
AcDbEntity
  8
0
  6
Continuous
 62
     7
370
    15
100
AcDbCircle
 10
427.7005679779
 20
287.3265051294
 30
0.0
 40
44.56999570231082
100
AcDbArc
 50
260.278757163
 51
269.7875055189
  0
LWPOLYLINE
  5
8E
330
1F
100
AcDbEntity
  8
0
  6
Continuous
 62
     7
370
    15
100
AcDbPolyline
 90
        3
 70
   128
 43
0.0
 10
428.8752706822
 20
242.7562228832
 10
428.9779203113
 20
242.7568606529
 10
429.3427126583
 20
242.763008872
  0
LWPOLYLINE
  5
8F
330
1F
100
AcDbEntity
  8
0
  6
Continuous
 62
     7
370
    15
100
AcDbPolyline
 90
       18
 70
   128
 43
0.0
 10
417.4896003779
 20
246.7163703833
 10
417.5325157221
 20
246.7351816091
 10
417.9175676878
 20
246.8795708809
 10
418.3543237027
 20
247.0210633669
 10
418.8403161343
 20
247.1579752359
 10
419.3728001889
 20
247.2889385614
 10
419.9488284167
 20
247.4128178749
 10
420.5653043564
 20
247.5286654625
 10
421.2190033968
 20
247.6356736813
 10
421.9065846976
 20
247.7331540975
 10
422.6245971497
 20
247.8205136452
 10
423.3694912966
 20
247.8972427044
 10
424.1376223143
 20
247.9629091415
 10
424.9252693828
 20
248.0171523485
 10
425.7286356863
 20
248.0596832428
 10
426.5438722547
 20
248.0902693663
 10
427.3670824345
 20
248.1087497864
 10
427.5352703508
 20
248.110028306
  0
LWPOLYLINE
  5
90
330
1F
100
AcDbEntity
  8
0
  6
Continuous
 62
     7
370
    15
100
AcDbPolyline
 90
       18
 70
   128
 43
0.0
 10
428.8752706822
 20
248.1101266537
 10
429.0217207845
 20
248.1090716515
 10
429.8452632602
 20
248.0909041557
 10
430.6610392507
 20
248.0606190357
 10
431.4651625331
 20
248.0183712635
 10
432.253790098
 20
247.9643813763
 10
433.0231430109
 20
247.8989235554
 10
433.7695168432
 20
247.8223524485
 10
434.4892891224
 20
247.7350793276
 10
435.1789401945
 20
247.6375929508
 10
435.8350547131
 20
247.5304506216
 10
436.4543283459
 20
247.4143020306
 10
437.0335782047
 20
247.289895216
 10
437.5697406109
 20
247.1581033859
 10
438.0598740753
 20
247.019960681
 10
438.501158553
 20
246.8767158184
 10
438.8909163054
 20
246.7299453411
 10
438.9210829612
 20
246.716623703
  0
LINE
  5
91
330
1F
100
AcDbEntity
  8
0
  6
Continuous
 62
     7
370
    15
100
AcDbLine
 10
438.7869062003
 20
263.7726909909
 30
0.0
 11
433.7775649603
 21
266.8942979965
 31
0.0
  0
LINE
  5
92
330
1F
100
AcDbEntity
  8
0
  6
Continuous
 62
     7
370
    15
100
AcDbLine
 10
422.6329775628
 20
266.8942979965
 30
0.0
 11
417.6236363228
 21
263.7726909909
 31
0.0
  0
LWPOLYLINE
  5
93
330
1F
100
AcDbEntity
  8
0
  6
Continuous
 62
     7
370
    15
100
AcDbPolyline
 90
        8
 70
   128
 43
0.0
 10
433.7805735048
 20
266.8923593554
 10
433.7809370931
 20
266.8921417985
 10
433.7611572917
 20
266.9073767457
 10
433.7084474143
 20
266.9566012416
 10
433.6320998248
 20
267.0472911987
 10
433.535626727
 20
267.2047711406
 10
433.4524305638
 20
267.4196250234
 10
433.4115134653
 20
267.6574967298
  0
LWPOLYLINE
  5
94
330
1F
100
AcDbEntity
  8
0
  6
Continuous
 62
     7
370
    15
100
AcDbPolyline
 90
        8
 70
   128
 43
0.0
 10
422.993654209
 20
267.6478735599
 10
422.9745449599
 20
267.4846074972
 10
422.9019822653
 20
267.2623835001
 10
422.8126200016
 20
267.0964531097
 10
422.7290989932
 20
266.9859595094
 10
422.6660581406
 20
266.9217548761
 10
422.6328881558
 20
266.89447085
 10
422.6343812521
 20
266.8952933941
  0
ARC
  5
95
330
1F
100
AcDbEntity
  8
0
  6
Continuous
 62
     7
370
    15
100
AcDbCircle
 10
424.6941090051
 20
271.3597382455
 30
0.0
 40
2.520732431486053
100
AcDbArc
 50
105.514521476
 51
121.7287352284
  0
ARC
  5
96
330
1F
100
AcDbEntity
  8
0
  6
Continuous
 62
     7
370
    15
100
AcDbCircle
 10
430.1525215812
 20
266.8704181382
 30
0.0
 40
7.264734756785169
100
AcDbArc
 50
76.3488171444
 51
82.2015078549
  0
ARC
  5
97
330
1F
100
AcDbEntity
  8
0
  6
Continuous
 62
     7
370
    15
100
AcDbCircle
 10
431.2741333694
 20
270.4714354894
 30
0.0
 40
3.508952832835549
100
AcDbArc
 50
59.7456262253
 51
80.2715227809
  0
LWPOLYLINE
  5
98
330
1F
100
AcDbEntity
  8
0
  6
Continuous
 62
     7
370
    15
100
AcDbPolyline
 90
        3
 70
   128
 43
0.0
 10
470.3427137907
 20
248.9436260853
 10
469.9020343002
 20
248.950757781
 10
469.8752718147
 20
248.9508889112
  0
LWPOLYLINE
  5
99
330
1F
100
AcDbEntity
  8
0
  6
Continuous
 62
     7
370
    15
100
AcDbPolyline
 90
       17
 70
   128
 43
0.0
 10
468.5352714833
 20
248.949628273
 10
468.2232292469
 20
248.9465347919
 10
467.3885138806
 20
248.925837079
 10
466.5619211372
 20
248.8928518686
 10
465.7471137222
 20
248.8477102909
 10
464.9476917561
 20
248.79059414
 10
464.1671689328
 20
248.7217388544
 10
463.4089635786
 20
248.6414066944
 10
462.67636736
 20
248.549904624
 10
461.9725229319
 20
248.4475694094
 10
461.3004075464
 20
248.3347467575
 10
460.6628032502
 20
248.2117942963
 10
460.0622678276
 20
248.0790428314
 10
459.501102763
 20
247.9367725048
 10
458.9813144978
 20
247.7851472292
 10
458.5045734521
 20
247.6241193209
 10
458.4551455554
 20
247.6045928392
  0
LWPOLYLINE
  5
9A
330
1F
100
AcDbEntity
  8
0
  6
Continuous
 62
     7
370
    15
100
AcDbPolyline
 90
        3
 70
   128
 43
0.0
 10
458.3339551564
 20
244.1493443642
 10
458.4441447731
 20
244.1047839317
 10
458.7558569487
 20
243.9974419269
  0
ARC
  5
9B
330
1F
100
AcDbEntity
  8
0
  6
Continuous
 62
     7
370
    15
100
AcDbCircle
 10
468.6866554045
 20
287.2505054566
 30
0.0
 40
44.49366093774692
100
AcDbArc
 50
260.2799083888
 51
269.8050581516
  0
ARC
  5
9C
330
1F
100
AcDbEntity
  8
0
  6
Continuous
 62
     7
370
    15
100
AcDbCircle
 10
469.7547427991
 20
286.7298306324
 30
0.0
 40
43.9741126755029
100
AcDbArc
 50
270.1570426809
 51
279.7950281194
  0
LWPOLYLINE
  5
9D
330
1F
100
AcDbEntity
  8
0
  6
Continuous
 62
     7
370
    15
100
AcDbPolyline
 90
        3
 70
   128
 43
0.0
 10
479.6554448184
 20
243.996005455
 10
479.7074468907
 20
244.0124861393
 10
480.0794037159
 20
244.1496990118
  0
LWPOLYLINE
  5
9E
330
1F
100
AcDbEntity
  8
0
  6
Continuous
 62
     7
370
    15
100
AcDbPolyline
 90
       16
 70
   128
 43
0.0
 10
479.9553962525
 20
247.6026050243
 10
479.6994539078
 20
247.6968757305
 10
479.1980179127
 20
247.8552780542
 10
478.6549510535
 20
248.003735343
 10
478.0720057066
 20
248.142366806
 10
477.4512352522
 20
248.2710711155
 10
476.7949791726
 20
248.3896277342
 10
476.1058392104
 20
248.4977445993
 10
475.3866376456
 20
248.5951087866
 10
474.6403904732
 20
248.6814043913
 10
473.8702835616
 20
248.75633041
 10
473.07964583
 20
248.8196067009
 10
472.2719254073
 20
248.8710008058
 10
471.4506702598
 20
248.9103100691
 10
470.6194983896
 20
248.9373795185
 10
470.3427137907
 20
248.9436260853
  0
LWPOLYLINE
  5
9F
330
1F
100
AcDbEntity
  8
0
  6
Continuous
 62
     7
370
    15
100
AcDbPolyline
 90
       17
 70
   128
 43
0.0
 10
458.4902802583
 20
246.7151693497
 10
458.7058784541
 20
246.8028954658
 10
459.1153735395
 20
246.9461641703
 10
459.5754647728
 20
247.0857046041
 10
460.0835392352
 20
247.2199908886
 10
460.6367478248
 20
247.3477713261
 10
461.2320708211
 20
247.4680058155
 10
461.8663506683
 20
247.5798151884
 10
462.5363053854
 20
247.6824514065
 10
463.2385419782
 20
247.7752707395
 10
463.9695646342
 20
247.8577218447
 10
464.725776213
 20
247.9293308649
 10
465.5034946378
 20
247.9896984491
 10
466.2989633258
 20
248.038499752
 10
467.1083601292
 20
248.0754725132
 10
467.9278092559
 20
248.1004200373
 10
468.5352714833
 20
248.1098286304
  0
LWPOLYLINE
  5
A0
330
1F
100
AcDbEntity
  8
0
  6
Continuous
 62
     7
370
    15
100
AcDbPolyline
 90
       18
 70
   128
 43
0.0
 10
469.8752718147
 20
248.1098316107
 10
470.3258352455
 20
248.1037966404
 10
470.758493441
 20
248.0934015903
 10
471.5751515802
 20
248.06439499
 10
472.3806904729
 20
248.0234048757
 10
473.1711404499
 20
247.9706458244
 10
473.9427121457
 20
247.9063890371
 10
474.6916892107
 20
247.8309742603
 10
475.4144491728
 20
247.7448127661
 10
476.107451516
 20
247.6483813915
 10
476.7672749337
 20
247.5422314796
 10
477.3906024273
 20
247.4270037804
 10
477.9742362078
 20
247.303434411
 10
478.5151036557
 20
247.1723786983
 10
479.0102454003
 20
247.0348499212
 10
479.456830221
 20
246.8920818958
 10
479.8521669682
 20
246.7455975208
 10
479.9206586655
 20
246.7158726845
  0
LINE
  5
A1
330
1F
100
AcDbEntity
  8
0
  6
Continuous
 62
     7
370
    15
100
AcDbLine
 10
479.7869058426
 20
263.7726909909
 30
0.0
 11
474.7775646027
 21
266.8942979965
 31
0.0
  0
LINE
  5
A2
330
1F
100
AcDbEntity
  8
0
  6
Continuous
 62
     7
370
    15
100
AcDbLine
 10
463.6329772051
 20
266.8942979965
 30
0.0
 11
458.6236359652
 21
263.7726909909
 31
0.0
  0
ARC
  5
A3
330
1F
100
AcDbEntity
  8
0
  6
Continuous
 62
     7
370
    15
100
AcDbCircle
 10
462.9923133602
 20
267.6656139393
 30
0.0
 40
1.002467243495349
100
AcDbArc
 50
309.7247742028
 51
359.0883853442
  0
LWPOLYLINE
  5
A4
330
1F
100
AcDbEntity
  8
0
  6
Continuous
 62
     7
370
    15
100
AcDbPolyline
 90
        8
 70
   128
 43
0.0
 10
474.7758986529
 20
266.8955020103
 10
474.7768195446
 20
266.8950832877
 10
474.7416230019
 20
266.9243387375
 10
474.6771337565
 20
266.9909126553
 10
474.5943935688
 20
267.1018920336
 10
474.5001079615
 20
267.2822005544
 10
474.4292946633
 20
267.5163886938
 10
474.4176210936
 20
267.6465607676
  0
ARC
  5
A5
330
1F
100
AcDbEntity
  8
0
  6
Continuous
 62
     7
370
    15
100
AcDbCircle
 10
472.2340786341
 20
270.3873366212
 30
0.0
 40
3.604704651874873
100
AcDbArc
 50
59.896227973
 51
81.1834593914
  0
ARC
  5
A6
330
1F
100
AcDbEntity
  8
0
  6
Continuous
 62
     7
370
    15
100
AcDbCircle
 10
466.2174415343
 20
270.2348607191
 30
0.0
 40
3.757139543642781
100
AcDbArc
 50
100.6772386578
 51
119.4803642097
  0
LINE
  5
A7
330
1F
100
AcDbEntity
  8
0
  6
Continuous
 62
     7
370
    15
100
AcDbLine
 10
469.2052709039
 20
281.9494805727
 30
0.0
 11
428.2052712615
 21
281.9494805727
 31
0.0
  0
ARC
  5
A8
330
1F
100
AcDbEntity
  8
0
  6
Continuous
 62
     7
370
    15
100
AcDbCircle
 10
469.2052710827
 20
268.9494805727
 30
0.0
 40
13.00000000000006
100
AcDbArc
 50
344.1347093935
 51
90.0
  0
LINE
  5
A9
330
1F
100
AcDbEntity
  8
0
  6
Continuous
 62
     7
370
    15
100
AcDbLine
 10
441.3574474033
 20
255.9494815264
 30
0.0
 11
456.0530947622
 21
255.9494815264
 31
0.0
  0
ARC
  5
AA
330
1F
100
AcDbEntity
  8
0
  6
Continuous
 62
     7
370
    15
100
AcDbCircle
 10
428.2052710827
 20
268.9494805727
 30
0.0
 40
13.00000000000006
100
AcDbArc
 50
90.0
 51
195.8652906065
  0
ARC
  5
AB
330
1F
100
AcDbEntity
  8
0
  6
Continuous
 62
     7
370
    15
100
AcDbCircle
 10
421.7052710827
 20
268.9494805727
 30
0.0
 40
1.950000000000027
100
AcDbArc
 50
112.2658183163
 51
205.622525391
  0
ARC
  5
AC
330
1F
100
AcDbEntity
  8
0
  6
Continuous
 62
     7
370
    15
100
AcDbCircle
 10
475.7052710827
 20
268.9494805727
 30
0.0
 40
1.950000000000039
100
AcDbArc
 50
334.377474609
 51
67.7341816837
  0
LWPOLYLINE
  5
AD
330
1F
100
AcDbEntity
  8
0
  6
Continuous
 62
     7
370
    15
100
AcDbPolyline
 90
       37
 70
   128
 43
0.0
 10
477.2052707251
 20
275.7952514533
 10
477.2027822312
 20
275.8387557659
 10
477.1526994284
 20
275.9948811922
 10
477.0386310395
 20
276.1493991557
 10
476.8614919957
 20
276.3010661546
 10
476.622706848
 20
276.4486602936
 10
476.3242038067
 20
276.5909935776
 10
475.9683819588
 20
276.7269201074
 10
475.5581082877
 20
276.8553453926
 10
475.0966848906
 20
276.9752356652
 10
474.5878281172
 20
277.0856249574
 10
474.0356328066
 20
277.1856251601
 10
473.4445484456
 20
277.2744308654
 10
472.8193299945
 20
277.3513271902
 10
472.165014046
 20
277.4156946186
 10
471.4868666705
 20
277.4670153353
 10
470.7903506335
 20
277.5048762057
 10
470.0810717519
 20
277.5289721284
 10
469.364743131
 20
277.5391090158
 10
468.6471285399
 20
277.5352052841
 10
467.934008139
 20
277.5172925982
 10
467.2311233457
 20
277.4855151269
 10
466.5441336211
 20
277.4401284251
 10
465.8785702761
 20
277.3814983163
 10
465.2397902783
 20
277.3100967947
 10
464.6329389986
 20
277.2264983002
 10
464.0629010375
 20
277.1313763652
 10
463.5342659529
 20
277.0254969094
 10
463.0512910064
 20
276.9097122792
 10
462.617863911
 20
276.7849545423
 10
462.2374745186
 20
276.6522280369
 10
461.913186508
 20
276.5126019213
 10
461.6476105627
 20
276.3672001157
 10
461.442883509
 20
276.2171934787
 10
461.3006549057
 20
276.063789377
 10
461.2220691617
 20
275.9082231167
 10
461.2052710827
 20
275.7952514533
  0
LWPOLYLINE
  5
AE
330
1F
100
AcDbEntity
  8
0
  6
Continuous
 62
     7
370
    15
100
AcDbPolyline
 90
       37
 70
   128
 43
0.0
 10
477.2052707251
 20
274.4874879215
 10
477.2027822312
 20
274.5309918616
 10
477.1526994284
 20
274.6871172879
 10
477.0386310395
 20
274.8416356239
 10
476.8614919957
 20
274.9933026228
 10
476.622706848
 20
275.1408963892
 10
476.3242038067
 20
275.2832300458
 10
475.9683819588
 20
275.419156203
 10
475.5581082877
 20
275.5475818608
 10
475.0966848906
 20
275.6674721334
 10
474.5878281172
 20
275.7778614256
 10
474.0356328066
 20
275.8778612558
 10
473.4445484456
 20
275.9666669611
 10
472.8193299945
 20
276.0435632858
 10
472.165014046
 20
276.1079310868
 10
471.4868666705
 20
276.1592518035
 10
470.7903506335
 20
276.1971123013
 10
470.0810717519
 20
276.2212082241
 10
469.364743131
 20
276.2313451115
 10
468.6471285399
 20
276.2274413798
 10
467.934008139
 20
276.2095286939
 10
467.2311233457
 20
276.1777512226
 10
466.5441336211
 20
276.1323648933
 10
465.8785702761
 20
276.0737344119
 10
465.2397902783
 20
276.0023328904
 10
464.6329389986
 20
275.9187347684
 10
464.0629010375
 20
275.8236128334
 10
463.5342659529
 20
275.7177333776
 10
463.0512910064
 20
275.6019487474
 10
462.617863911
 20
275.4771910105
 10
462.2374745186
 20
275.3444641325
 10
461.913186508
 20
275.204838017
 10
461.6476105627
 20
275.0594362113
 10
461.442883509
 20
274.9094299469
 10
461.3006549057
 20
274.7560254726
 10
461.2220691617
 20
274.6004595849
 10
461.2052710827
 20
274.4874879215
  0
LWPOLYLINE
  5
AF
330
1F
100
AcDbEntity
  8
0
  6
Continuous
 62
     7
370
    15
100
AcDbPolyline
 90
       37
 70
   128
 43
0.0
 10
436.2052710827
 20
274.4874879215
 10
436.1884730037
 20
274.6004595849
 10
436.1098872598
 20
274.7560254726
 10
435.9676586565
 20
274.9094299469
 10
435.7629316028
 20
275.0594362113
 10
435.4973556574
 20
275.204838017
 10
435.1730676468
 20
275.3444641325
 10
434.7926782545
 20
275.4771910105
 10
434.359251159
 20
275.6019487474
 10
433.8762762125
 20
275.7177333776
 10
433.3476411279
 20
275.8236128334
 10
432.7776031669
 20
275.9187347684
 10
432.1707518872
 20
276.0023328904
 10
431.5319718894
 20
276.0737344119
 10
430.8664085444
 20
276.1323648933
 10
430.1794188198
 20
276.1777512226
 10
429.4765340265
 20
276.2095286939
 10
428.7634136256
 20
276.2274413798
 10
428.0457990344
 20
276.2313451115
 10
427.3294704135
 20
276.2212082241
 10
426.620191532
 20
276.1971123013
 10
425.923675495
 20
276.1592518035
 10
425.2455281194
 20
276.1079310868
 10
424.5912121709
 20
276.0435632858
 10
423.9659937199
 20
275.9666669611
 10
423.3749093588
 20
275.8778612558
 10
422.8227140482
 20
275.7778614256
 10
422.3138572749
 20
275.6674721334
 10
421.8524338778
 20
275.5475818608
 10
421.4421602066
 20
275.419156203
 10
421.0863383587
 20
275.2832300458
 10
420.7878353175
 20
275.1408963892
 10
420.5490501698
 20
274.9933026228
 10
420.371911126
 20
274.8416356239
 10
420.2578427371
 20
274.6871172879
 10
420.2077599343
 20
274.5309918616
 10
420.2052714404
 20
274.4874879215
  0
LWPOLYLINE
  5
B0
330
1F
100
AcDbEntity
  8
0
  6
Continuous
 62
     7
370
    15
100
AcDbPolyline
 90
       37
 70
   128
 43
0.0
 10
436.2052710827
 20
275.7952514533
 10
436.1884730037
 20
275.9082231167
 10
436.1098872598
 20
276.063789377
 10
435.9676586565
 20
276.2171934787
 10
435.7629316028
 20
276.3672001157
 10
435.4973556574
 20
276.5126019213
 10
435.1730676468
 20
276.6522280369
 10
434.7926782545
 20
276.7849545423
 10
434.359251159
 20
276.9097122792
 10
433.8762762125
 20
277.0254969094
 10
433.3476411279
 20
277.1313763652
 10
432.7776031669
 20
277.2264983002
 10
432.1707518872
 20
277.3100967947
 10
431.5319718894
 20
277.3814983163
 10
430.8664085444
 20
277.4401284251
 10
430.1794188198
 20
277.4855151269
 10
429.4765340265
 20
277.5172925982
 10
428.7634136256
 20
277.5352052841
 10
428.0457990344
 20
277.5391090158
 10
427.3294704135
 20
277.5289721284
 10
426.620191532
 20
277.5048762057
 10
425.923675495
 20
277.4670153353
 10
425.2455281194
 20
277.4156946186
 10
424.5912121709
 20
277.3513271902
 10
423.9659937199
 20
277.2744308654
 10
423.3749093588
 20
277.1856251601
 10
422.8227140482
 20
277.0856249574
 10
422.3138572749
 20
276.9752356652
 10
421.8524338778
 20
276.8553453926
 10
421.4421602066
 20
276.7269201074
 10
421.0863383587
 20
276.5909935776
 10
420.7878353175
 20
276.4486602936
 10
420.5490501698
 20
276.3010661546
 10
420.371911126
 20
276.1493991557
 10
420.2578427371
 20
275.9948811922
 10
420.2077599343
 20
275.8387557659
 10
420.2052714404
 20
275.7952514533
  0
LINE
  5
B1
330
1F
100
AcDbEntity
  8
0
  6
Continuous
 62
     7
370
    15
100
AcDbLine
 10
469.8752718147
 20
242.8084127102
 30
0.0
 11
469.8752718147
 21
240.4204748068
 31
0.0
  0
LINE
  5
B2
330
1F
100
AcDbEntity
  8
0
  6
Continuous
 62
     7
370
    15
100
AcDbLine
 10
468.5352714833
 20
242.8084127102
 30
0.0
 11
468.5352714833
 21
240.4204748068
 31
0.0
  0
LINE
  5
B3
330
1F
100
AcDbEntity
  8
0
  6
Continuous
 62
     7
370
    15
100
AcDbLine
 10
469.8752718147
 20
245.3458658848
 30
0.0
 11
469.8752718147
 21
242.8084127102
 31
0.0
  0
LINE
  5
B4
330
1F
100
AcDbEntity
  8
0
  6
Continuous
 62
     7
370
    15
100
AcDbLine
 10
468.5352714833
 20
245.3458658848
 30
0.0
 11
468.5352714833
 21
242.8084127102
 31
0.0
  0
LINE
  5
B5
330
1F
100
AcDbEntity
  8
0
  6
Continuous
 62
     7
370
    15
100
AcDbLine
 10
469.8752718147
 20
245.4305521641
 30
0.0
 11
469.8752718147
 21
245.3458658848
 31
0.0
  0
LINE
  5
B6
330
1F
100
AcDbEntity
  8
0
  6
Continuous
 62
     7
370
    15
100
AcDbLine
 10
468.5352714833
 20
245.4305521641
 30
0.0
 11
468.5352714833
 21
245.3458658848
 31
0.0
  0
LINE
  5
B7
330
1F
100
AcDbEntity
  8
0
  6
Continuous
 62
     7
370
    15
100
AcDbLine
 10
469.8752718147
 20
240.4204748068
 30
0.0
 11
469.8752718147
 21
240.158846179
 31
0.0
  0
LINE
  5
B8
330
1F
100
AcDbEntity
  8
0
  6
Continuous
 62
     7
370
    15
100
AcDbLine
 10
468.5352714833
 20
240.4204748068
 30
0.0
 11
468.5352714833
 21
240.158846179
 31
0.0
  0
LINE
  5
B9
330
1F
100
AcDbEntity
  8
0
  6
Continuous
 62
     7
370
    15
100
AcDbLine
 10
469.8752718147
 20
240.158846179
 30
0.0
 11
469.8752718147
 21
240.1107303295
 31
0.0
  0
LINE
  5
BA
330
1F
100
AcDbEntity
  8
0
  6
Continuous
 62
     7
370
    15
100
AcDbLine
 10
468.5352714833
 20
240.158846179
 30
0.0
 11
468.5352714833
 21
240.1107303295
 31
0.0
  0
LINE
  5
BB
330
1F
100
AcDbEntity
  8
0
  6
Continuous
 62
     7
370
    15
100
AcDbLine
 10
428.8752706822
 20
242.8084127102
 30
0.0
 11
428.8752706822
 21
240.4204748068
 31
0.0
  0
LINE
  5
BC
330
1F
100
AcDbEntity
  8
0
  6
Continuous
 62
     7
370
    15
100
AcDbLine
 10
427.5352703508
 20
242.8084127102
 30
0.0
 11
427.5352703508
 21
240.4204748068
 31
0.0
  0
LINE
  5
BD
330
1F
100
AcDbEntity
  8
0
  6
Continuous
 62
     7
370
    15
100
AcDbLine
 10
428.8752706822
 20
245.3458658848
 30
0.0
 11
428.8752706822
 21
242.8084127102
 31
0.0
  0
LINE
  5
BE
330
1F
100
AcDbEntity
  8
0
  6
Continuous
 62
     7
370
    15
100
AcDbLine
 10
427.5352703508
 20
245.3458658848
 30
0.0
 11
427.5352703508
 21
242.8084127102
 31
0.0
  0
LINE
  5
BF
330
1F
100
AcDbEntity
  8
0
  6
Continuous
 62
     7
370
    15
100
AcDbLine
 10
428.8752706822
 20
245.4305521641
 30
0.0
 11
428.8752706822
 21
245.3458658848
 31
0.0
  0
LINE
  5
C0
330
1F
100
AcDbEntity
  8
0
  6
Continuous
 62
     7
370
    15
100
AcDbLine
 10
427.5352703508
 20
245.4305521641
 30
0.0
 11
427.5352703508
 21
245.3458658848
 31
0.0
  0
LINE
  5
C1
330
1F
100
AcDbEntity
  8
0
  6
Continuous
 62
     7
370
    15
100
AcDbLine
 10
428.8752706822
 20
240.4204748068
 30
0.0
 11
428.8752706822
 21
240.158846179
 31
0.0
  0
LINE
  5
C2
330
1F
100
AcDbEntity
  8
0
  6
Continuous
 62
     7
370
    15
100
AcDbLine
 10
427.5352703508
 20
240.4204748068
 30
0.0
 11
427.5352703508
 21
240.158846179
 31
0.0
  0
LINE
  5
C3
330
1F
100
AcDbEntity
  8
0
  6
Continuous
 62
     7
370
    15
100
AcDbLine
 10
428.8752706822
 20
240.158846179
 30
0.0
 11
428.8752706822
 21
240.1107303295
 31
0.0
  0
LINE
  5
C4
330
1F
100
AcDbEntity
  8
0
  6
Continuous
 62
     7
370
    15
100
AcDbLine
 10
427.5352703508
 20
240.158846179
 30
0.0
 11
427.5352703508
 21
240.1107303295
 31
0.0
  0
LINE
  5
C5
330
1F
100
AcDbEntity
  8
0
  6
Continuous
 62
     7
370
    15
100
AcDbLine
 10
434.7741337594
 20
270.0441717598
 30
0.0
 11
434.7741337594
 21
275.4830322657
 31
0.0
  0
ARC
  5
C6
330
1F
100
AcDbEntity
  8
0
  6
Continuous
 62
     7
370
    15
100
AcDbCircle
 10
436.5423889874
 20
269.9785225946
 30
0.0
 40
1.769473470966059
100
AcDbArc
 50
177.8737835795
 51
235.3250782274
  0
LINE
  5
C7
330
1F
100
AcDbEntity
  8
0
  6
Continuous
 62
     7
370
    15
100
AcDbLine
 10
439.9258801814
 20
265.729179183
 30
0.0
 11
435.5357008155
 21
268.5233197603
 31
0.0
  0
ARC
  5
C8
330
1F
100
AcDbEntity
  8
0
  6
Continuous
 62
     7
370
    15
100
AcDbCircle
 10
438.9192021817
 20
264.2739814746
 30
0.0
 40
1.769463468285951
100
AcDbArc
 50
357.8736296036
 51
55.3252546787
  0
LINE
  5
C9
330
1F
100
AcDbEntity
  8
0
  6
Continuous
 62
     7
370
    15
100
AcDbLine
 10
440.6874472376
 20
246.6413519773
 30
0.0
 11
440.6874472376
 21
264.2083279285
 31
0.0
  0
ARC
  5
CA
330
1F
100
AcDbEntity
  8
0
  6
Continuous
 62
     7
370
    15
100
AcDbCircle
 10
438.5377486218
 20
246.5810417754
 30
0.0
 40
2.15054445644673
100
AcDbArc
 50
281.1983264521
 51
1.607022413
  0
LINE
  5
CB
330
1F
100
AcDbEntity
  8
0
  6
Continuous
 62
     7
370
    15
100
AcDbLine
 10
437.9161657866
 20
244.3406246099
 30
0.0
 11
438.9553966101
 21
244.4714419041
 31
0.0
  0
LWPOLYLINE
  5
CC
330
1F
100
AcDbEntity
  8
0
  6
Continuous
 62
     7
370
    15
100
AcDbPolyline
 90
        9
 70
   128
 43
0.0
 10
436.1841144141
 20
246.0744879637
 10
436.2173961576
 20
245.6978819761
 10
436.3159591433
 20
245.3441284094
 10
436.4760184761
 20
245.0268201027
 10
436.6914207216
 20
244.7581521664
 10
436.9538897749
 20
244.5484481249
 10
437.2533382948
 20
244.4057695064
 10
437.5782596048
 20
244.3355969582
 10
437.9161657866
 20
244.3406246099
  0
LINE
  5
CD
330
1F
100
AcDbEntity
  8
0
  6
Continuous
 62
     7
370
    15
100
AcDbLine
 10
436.1841144141
 20
247.4649808798
 30
0.0
 11
436.1841144141
 21
246.0744879637
 31
0.0
  0
LINE
  5
CE
330
1F
100
AcDbEntity
  8
0
  6
Continuous
 62
     7
370
    15
100
AcDbLine
 10
437.9161657866
 20
246.7804841194
 30
0.0
 11
437.9161657866
 21
247.0604650173
 31
0.0
  0
ARC
  5
CF
330
1F
100
AcDbEntity
  8
0
  6
Continuous
 62
     7
370
    15
100
AcDbCircle
 10
438.3158551256
 20
246.7467426816
 30
0.0
 40
0.4011110224757672
100
AcDbArc
 50
175.1745797158
 51
274.7655117901
  0
LINE
  5
D0
330
1F
100
AcDbEntity
  8
0
  6
Continuous
 62
     7
370
    15
100
AcDbLine
 10
438.522383767
 20
246.36882166
 30
0.0
 11
438.3491786297
 21
246.347018281
 31
0.0
  0
ARC
  5
D1
330
1F
100
AcDbEntity
  8
0
  6
Continuous
 62
     7
370
    15
100
AcDbCircle
 10
438.4179745981
 20
246.8962195342
 30
0.0
 40
0.5376335110401589
100
AcDbArc
 50
281.1980741207
 51
1.6071739761
  0
LINE
  5
D2
330
1F
100
AcDbEntity
  8
0
  6
Continuous
 62
     7
370
    15
100
AcDbLine
 10
438.9553966101
 20
262.9541523251
 30
0.0
 11
438.9553966101
 21
246.9112984333
 31
0.0
  0
ARC
  5
D3
330
1F
100
AcDbEntity
  8
0
  6
Continuous
 62
     7
370
    15
100
AcDbCircle
 10
437.1871470513
 20
263.0198036163
 30
0.0
 40
1.769467884455096
100
AcDbArc
 50
357.8737079757
 51
55.3251763066
  0
LINE
  5
D4
330
1F
100
AcDbEntity
  8
0
  6
Continuous
 62
     7
370
    15
100
AcDbLine
 10
433.803649443
 20
267.2691441569
 30
0.0
 11
438.1938295539
 21
264.4750035796
 31
0.0
  0
ARC
  5
D5
330
1F
100
AcDbEntity
  8
0
  6
Continuous
 62
     7
370
    15
100
AcDbCircle
 10
434.8103317199
 20
268.7243422747
 30
0.0
 40
1.769466238323885
100
AcDbArc
 50
177.8736461971
 51
235.3251483184
  0
LINE
  5
D6
330
1F
100
AcDbEntity
  8
0
  6
Continuous
 62
     7
370
    15
100
AcDbLine
 10
433.0420838769
 20
273.9572435114
 30
0.0
 11
433.0420838769
 21
268.7899954114
 31
0.0
  0
ARC
  5
D7
330
1F
100
AcDbEntity
  8
0
  6
Continuous
 62
     7
370
    15
100
AcDbCircle
 10
439.2077491455
 20
246.3280288566
 30
0.0
 40
2.150544102554362
100
AcDbArc
 50
281.1982983595
 51
1.6070264723
  0
LINE
  5
D8
330
1F
100
AcDbEntity
  8
0
  6
Continuous
 62
     7
370
    15
100
AcDbLine
 10
441.3574474033
 20
246.388339201
 30
0.0
 11
441.3574474033
 21
263.9553151522
 31
0.0
  0
LINE
  5
D9
330
1F
100
AcDbEntity
  8
0
  6
Continuous
 62
     7
370
    15
100
AcDbLine
 10
438.5861659523
 20
244.0876118336
 30
0.0
 11
439.6253960308
 21
244.2184291277
 31
0.0
  0
ARC
  5
DA
330
1F
100
AcDbEntity
  8
0
  6
Continuous
 62
     7
370
    15
100
AcDbCircle
 10
438.3943710016
 20
245.5392261419
 30
0.0
 40
1.464229969430628
100
AcDbArc
 50
249.4171543282
 51
277.5266254432
  0
LWPOLYLINE
  5
DB
330
1F
100
AcDbEntity
  8
0
  6
Continuous
 62
     7
370
    15
100
AcDbPolyline
 90
        3
 70
   128
 43
0.0
 10
438.6048229512
 20
246.3881246242
 10
438.5944860157
 20
246.4333198461
 10
438.5861659523
 20
246.527471343
  0
LINE
  5
DC
330
1F
100
AcDbEntity
  8
0
  6
Continuous
 62
     7
370
    15
100
AcDbLine
 10
438.5861659523
 20
246.527471343
 30
0.0
 11
438.5861659523
 21
246.8447051439
 31
0.0
  0
ARC
  5
DD
330
1F
100
AcDbEntity
  8
0
  6
Continuous
 62
     7
370
    15
100
AcDbCircle
 10
439.5891978445
 20
264.0209664434
 30
0.0
 40
1.769467884454926
100
AcDbArc
 50
357.8737079757
 51
55.3251763066
  0
LINE
  5
DE
330
1F
100
AcDbEntity
  8
0
  6
Continuous
 62
     7
370
    15
100
AcDbLine
 10
440.5958803471
 20
265.4761664066
 30
0.0
 11
436.2057009812
 21
268.2703069839
 31
0.0
  0
ARC
  5
DF
330
1F
100
AcDbEntity
  8
0
  6
Continuous
 62
     7
370
    15
100
AcDbCircle
 10
437.212380489
 20
269.7255046135
 30
0.0
 40
1.769464261396712
100
AcDbArc
 50
177.8736038588
 51
235.3252130648
  0
LINE
  5
E0
330
1F
100
AcDbEntity
  8
0
  6
Continuous
 62
     7
370
    15
100
AcDbLine
 10
434.7741337594
 20
275.4830322657
 30
0.0
 11
435.4441346701
 21
275.2300194893
 31
0.0
  0
LINE
  5
E1
330
1F
100
AcDbEntity
  8
0
  6
Continuous
 62
     7
370
    15
100
AcDbLine
 10
435.4441346701
 20
269.7911589835
 30
0.0
 11
435.4441346701
 21
275.2300194893
 31
0.0
  0
LINE
  5
E2
330
1F
100
AcDbEntity
  8
0
  6
Continuous
 62
     7
370
    15
100
AcDbLine
 10
441.3574474033
 20
243.4145770464
 30
0.0
 11
441.3574474033
 21
246.388339201
 31
0.0
  0
LWPOLYLINE
  5
E3
330
1F
100
AcDbEntity
  8
0
  6
Continuous
 62
     7
370
    15
100
AcDbPolyline
 90
        9
 70
   128
 43
0.0
 10
439.6253960308
 20
241.6807136927
 10
439.9633029576
 20
241.6756860409
 10
440.2882235225
 20
241.7458585892
 10
440.5876720425
 20
241.8885372076
 10
440.8501410957
 20
242.0982412491
 10
441.0655440863
 20
242.3669091854
 10
441.2256026741
 20
242.6842174921
 10
441.3241664048
 20
243.0379710588
 10
441.3574474033
 20
243.4145770464
  0
LINE
  5
E4
330
1F
100
AcDbEntity
  8
0
  6
Continuous
 62
     7
370
    15
100
AcDbLine
 10
438.5861659523
 20
241.8115309868
 30
0.0
 11
439.6253960308
 21
241.6807136927
 31
0.0
  0
ARC
  5
E5
330
1F
100
AcDbEntity
  8
0
  6
Continuous
 62
     7
370
    15
100
AcDbCircle
 10
439.0038116989
 20
243.9211290687
 30
0.0
 40
2.15054226576502
100
AcDbArc
 50
178.392928257
 51
258.8017228779
  0
LINE
  5
E6
330
1F
100
AcDbEntity
  8
0
  6
Continuous
 62
     7
370
    15
100
AcDbLine
 10
436.8541153248
 20
244.616936842
 30
0.0
 11
436.8541153248
 21
243.9814410601
 31
0.0
  0
ARC
  5
E7
330
1F
100
AcDbEntity
  8
0
  6
Continuous
 62
     7
370
    15
100
AcDbCircle
 10
439.1179510809
 20
244.2256978743
 30
0.0
 40
0.5261415244572292
100
AcDbArc
 50
194.8848162395
 51
259.17969001
  0
LINE
  5
E8
330
1F
100
AcDbEntity
  8
0
  6
Continuous
 62
     7
370
    15
100
AcDbLine
 10
439.1923831876
 20
243.6871073637
 30
0.0
 11
439.0191787954
 21
243.7089107428
 31
0.0
  0
ARC
  5
E9
330
1F
100
AcDbEntity
  8
0
  6
Continuous
 62
     7
370
    15
100
AcDbCircle
 10
439.225707658
 20
244.086830799
 30
0.0
 40
0.401110140817159
100
AcDbArc
 50
265.2343392052
 51
4.8255692889
  0
LINE
  5
EA
330
1F
100
AcDbEntity
  8
0
  6
Continuous
 62
     7
370
    15
100
AcDbLine
 10
439.6253960308
 20
244.2184291277
 30
0.0
 11
439.6253960308
 21
244.1205732021
 31
0.0
  0
ARC
  5
EB
330
1F
100
AcDbEntity
  8
0
  6
Continuous
 62
     7
370
    15
100
AcDbCircle
 10
436.02199818
 20
267.495373353
 30
0.0
 40
2.310212533118379
100
AcDbArc
 50
184.1508824452
 51
194.7992976501
  0
ARC
  5
EC
330
1F
100
AcDbEntity
  8
0
  6
Continuous
 62
     7
370
    15
100
AcDbCircle
 10
438.3338126718
 20
243.6681179393
 30
0.0
 40
2.150544102554268
100
AcDbArc
 50
178.3929735277
 51
258.8017016405
  0
LINE
  5
ED
330
1F
100
AcDbEntity
  8
0
  6
Continuous
 62
     7
370
    15
100
AcDbLine
 10
436.1841144141
 20
246.0744879637
 30
0.0
 11
436.1841144141
 21
243.7284282837
 31
0.0
  0
LINE
  5
EE
330
1F
100
AcDbEntity
  8
0
  6
Continuous
 62
     7
370
    15
100
AcDbLine
 10
437.9161657866
 20
241.5585182104
 30
0.0
 11
438.9553966101
 21
241.4277009163
 31
0.0
  0
ARC
  5
EF
330
1F
100
AcDbEntity
  8
0
  6
Continuous
 62
     7
370
    15
100
AcDbCircle
 10
439.1471913062
 20
242.879312706
 30
0.0
 40
1.464227439116504
100
AcDbArc
 50
262.4733715238
 51
290.5828623536
  0
LWPOLYLINE
  5
F0
330
1F
100
AcDbEntity
  8
0
  6
Continuous
 62
     7
370
    15
100
AcDbPolyline
 90
        3
 70
   128
 43
0.0
 10
438.9553966101
 20
243.8675604258
 10
438.9470758017
 20
243.7734089289
 10
438.9367388662
 20
243.728213707
  0
LINE
  5
F1
330
1F
100
AcDbEntity
  8
0
  6
Continuous
 62
     7
370
    15
100
AcDbLine
 10
438.9553966101
 20
244.1038928423
 30
0.0
 11
438.9553966101
 21
243.8675604258
 31
0.0
  0
LINE
  5
F2
330
1F
100
AcDbEntity
  8
0
  6
Continuous
 62
     7
370
    15
100
AcDbLine
 10
427.5352703508
 20
245.7402966413
 30
0.0
 11
427.5352703508
 21
248.1282345447
 31
0.0
  0
LINE
  5
F3
330
1F
100
AcDbEntity
  8
0
  6
Continuous
 62
     7
370
    15
100
AcDbLine
 10
428.8752706822
 20
245.7402966413
 30
0.0
 11
428.8752706822
 21
248.1282345447
 31
0.0
  0
LINE
  5
F4
330
1F
100
AcDbEntity
  8
0
  6
Continuous
 62
     7
370
    15
100
AcDbLine
 10
427.5352703508
 20
248.1282345447
 30
0.0
 11
427.5352703508
 21
265.6952104959
 31
0.0
  0
LINE
  5
F5
330
1F
100
AcDbEntity
  8
0
  6
Continuous
 62
     7
370
    15
100
AcDbLine
 10
428.8752706822
 20
248.1282345447
 30
0.0
 11
428.8752706822
 21
265.6952104959
 31
0.0
  0
LINE
  5
F6
330
1F
100
AcDbEntity
  8
0
  6
Continuous
 62
     7
370
    15
100
AcDbLine
 10
427.5352703508
 20
245.4786680136
 30
0.0
 11
427.5352703508
 21
245.7402966413
 31
0.0
  0
LINE
  5
F7
330
1F
100
AcDbEntity
  8
0
  6
Continuous
 62
     7
370
    15
100
AcDbLine
 10
428.8752706822
 20
245.4786680136
 30
0.0
 11
428.8752706822
 21
245.7402966413
 31
0.0
  0
LINE
  5
F8
330
1F
100
AcDbEntity
  8
0
  6
Continuous
 62
     7
370
    15
100
AcDbLine
 10
427.5352703508
 20
245.4305521641
 30
0.0
 11
427.5352703508
 21
245.4786680136
 31
0.0
  0
LINE
  5
F9
330
1F
100
AcDbEntity
  8
0
  6
Continuous
 62
     7
370
    15
100
AcDbLine
 10
428.8752706822
 20
245.4305521641
 30
0.0
 11
428.8752706822
 21
245.4786680136
 31
0.0
  0
LINE
  5
FA
330
1F
100
AcDbEntity
  8
0
  6
Continuous
 62
     7
370
    15
100
AcDbLine
 10
427.5352703508
 20
265.6952104959
 30
0.0
 11
427.5352703508
 21
267.1201981101
 31
0.0
  0
LINE
  5
FB
330
1F
100
AcDbEntity
  8
0
  6
Continuous
 62
     7
370
    15
100
AcDbLine
 10
428.8752706822
 20
265.6952104959
 30
0.0
 11
428.8752706822
 21
267.1201981101
 31
0.0
  0
LINE
  5
FC
330
1F
100
AcDbEntity
  8
0
  6
Continuous
 62
     7
370
    15
100
AcDbLine
 10
427.5352703508
 20
267.1201981101
 30
0.0
 11
427.5352703508
 21
269.3617157135
 31
0.0
  0
LINE
  5
FD
330
1F
100
AcDbEntity
  8
0
  6
Continuous
 62
     7
370
    15
100
AcDbLine
 10
428.8752706822
 20
267.1201981101
 30
0.0
 11
428.8752706822
 21
269.3617157135
 31
0.0
  0
LINE
  5
FE
330
1F
100
AcDbEntity
  8
0
  6
Continuous
 62
     7
370
    15
100
AcDbLine
 10
427.5352703508
 20
269.3617157135
 30
0.0
 11
427.5352703508
 21
270.7867033276
 31
0.0
  0
LINE
  5
FF
330
1F
100
AcDbEntity
  8
0
  6
Continuous
 62
     7
370
    15
100
AcDbLine
 10
428.8752706822
 20
269.3617157135
 30
0.0
 11
428.8752706822
 21
270.7867033276
 31
0.0
  0
LINE
  5
100
330
1F
100
AcDbEntity
  8
0
  6
Continuous
 62
     7
370
    15
100
AcDbLine
 10
427.5352703508
 20
276.2255638335
 30
0.0
 11
428.8752706822
 21
276.2255638335
 31
0.0
  0
LINE
  5
101
330
1F
100
AcDbEntity
  8
0
  6
Continuous
 62
     7
370
    15
100
AcDbLine
 10
427.5352703508
 20
270.7867033276
 30
0.0
 11
427.5352703508
 21
276.2255638335
 31
0.0
  0
LINE
  5
102
330
1F
100
AcDbEntity
  8
0
  6
Continuous
 62
     7
370
    15
100
AcDbLine
 10
428.8752706822
 20
270.7867033276
 30
0.0
 11
428.8752706822
 21
276.2255638335
 31
0.0
  0
LINE
  5
103
330
1F
100
AcDbEntity
  8
0
  6
Continuous
 62
     7
370
    15
100
AcDbLine
 10
423.3684601363
 20
273.9572435114
 30
0.0
 11
423.3684601363
 21
268.7899954114
 31
0.0
  0
ARC
  5
104
330
1F
100
AcDbEntity
  8
0
  6
Continuous
 62
     7
370
    15
100
AcDbCircle
 10
421.6002008838
 20
268.7243499607
 30
0.0
 40
1.76947735481386
100
AcDbArc
 50
304.6749345575
 51
2.1260913936
  0
LINE
  5
105
330
1F
100
AcDbEntity
  8
0
  6
Continuous
 62
     7
370
    15
100
AcDbLine
 10
422.60689159
 20
267.2691441569
 30
0.0
 11
418.216711479
 21
264.4750035796
 31
0.0
  0
ARC
  5
106
330
1F
100
AcDbEntity
  8
0
  6
Continuous
 62
     7
370
    15
100
AcDbCircle
 10
419.2233938009
 20
263.0198054394
 30
0.0
 40
1.769466282351998
100
AcDbArc
 50
124.6748524629
 51
182.1263530215
  0
LINE
  5
107
330
1F
100
AcDbEntity
  8
0
  6
Continuous
 62
     7
370
    15
100
AcDbLine
 10
417.455145913
 20
262.9541523251
 30
0.0
 11
417.455145913
 21
246.9112984333
 31
0.0
  0
ARC
  5
108
330
1F
100
AcDbEntity
  8
0
  6
Continuous
 62
     7
370
    15
100
AcDbCircle
 10
417.992567925
 20
246.8962195342
 30
0.0
 40
0.537633511040103
100
AcDbArc
 50
178.3928260239
 51
258.8019258793
  0
LINE
  5
109
330
1F
100
AcDbEntity
  8
0
  6
Continuous
 62
     7
370
    15
100
AcDbLine
 10
417.8881587561
 20
246.36882166
 30
0.0
 11
418.0613638934
 21
246.347018281
 31
0.0
  0
ARC
  5
10A
330
1F
100
AcDbEntity
  8
0
  6
Continuous
 62
     7
370
    15
100
AcDbCircle
 10
418.0946873975
 20
246.7467426816
 30
0.0
 40
0.4011110224757672
100
AcDbArc
 50
265.2344882099
 51
4.8254202842
  0
LINE
  5
10B
330
1F
100
AcDbEntity
  8
0
  6
Continuous
 62
     7
370
    15
100
AcDbLine
 10
418.4943767365
 20
246.7804841194
 30
0.0
 11
418.4943767365
 21
247.0605186615
 31
0.0
  0
LINE
  5
10C
330
1F
100
AcDbEntity
  8
0
  6
Continuous
 62
     7
370
    15
100
AcDbLine
 10
420.226428109
 20
247.46498386
 30
0.0
 11
420.226428109
 21
246.0744879637
 31
0.0
  0
LWPOLYLINE
  5
10D
330
1F
100
AcDbEntity
  8
0
  6
Continuous
 62
     7
370
    15
100
AcDbPolyline
 90
        9
 70
   128
 43
0.0
 10
420.226428109
 20
246.0744879637
 10
420.1931448754
 20
245.6978819761
 10
420.0945826348
 20
245.3441284094
 10
419.9345233019
 20
245.0268201027
 10
419.7191210564
 20
244.7581521664
 10
419.4566520031
 20
244.5484481249
 10
419.1572042283
 20
244.4057695064
 10
418.8322814282
 20
244.3355969582
 10
418.4943767365
 20
244.3406246099
  0
LINE
  5
10E
330
1F
100
AcDbEntity
  8
0
  6
Continuous
 62
     7
370
    15
100
AcDbLine
 10
418.4943767365
 20
244.3406246099
 30
0.0
 11
417.455145913
 21
244.4714419041
 31
0.0
  0
ARC
  5
10F
330
1F
100
AcDbEntity
  8
0
  6
Continuous
 62
     7
370
    15
100
AcDbCircle
 10
417.8727945151
 20
246.5810430034
 30
0.0
 40
2.150545780357413
100
AcDbArc
 50
178.3930113086
 51
258.8016638596
  0
LINE
  5
110
330
1F
100
AcDbEntity
  8
0
  6
Continuous
 62
     7
370
    15
100
AcDbLine
 10
415.7230945405
 20
246.6413519773
 30
0.0
 11
415.7230945405
 21
264.2083279285
 31
0.0
  0
ARC
  5
111
330
1F
100
AcDbEntity
  8
0
  6
Continuous
 62
     7
370
    15
100
AcDbCircle
 10
417.4913328169
 20
264.273983883
 30
0.0
 40
1.769456782969607
100
AcDbArc
 50
124.6745694773
 51
182.1264564738
  0
LINE
  5
112
330
1F
100
AcDbEntity
  8
0
  6
Continuous
 62
     7
370
    15
100
AcDbLine
 10
416.4846630867
 20
265.729179183
 30
0.0
 11
420.8748402174
 21
268.5233197603
 31
0.0
  0
ARC
  5
113
330
1F
100
AcDbEntity
  8
0
  6
Continuous
 62
     7
370
    15
100
AcDbCircle
 10
419.8681591753
 20
269.9785207569
 30
0.0
 40
1.769467903368859
100
AcDbArc
 50
304.6747657658
 51
2.1262826606
  0
LINE
  5
114
330
1F
100
AcDbEntity
  8
0
  6
Continuous
 62
     7
370
    15
100
AcDbLine
 10
421.6364087637
 20
270.0441717598
 30
0.0
 11
421.6364087637
 21
275.4830322657
 31
0.0
  0
ARC
  5
115
330
1F
100
AcDbEntity
  8
0
  6
Continuous
 62
     7
370
    15
100
AcDbCircle
 10
417.2027936044
 20
246.3280302271
 30
0.0
 40
2.150545780357413
100
AcDbArc
 50
178.3930113086
 51
258.8016638596
  0
LINE
  5
116
330
1F
100
AcDbEntity
  8
0
  6
Continuous
 62
     7
370
    15
100
AcDbLine
 10
415.0530936297
 20
246.388339201
 30
0.0
 11
415.0530936297
 21
263.9553151522
 31
0.0
  0
LINE
  5
117
330
1F
100
AcDbEntity
  8
0
  6
Continuous
 62
     7
370
    15
100
AcDbLine
 10
417.8243758257
 20
244.0876118336
 30
0.0
 11
416.7851450022
 21
244.2184291277
 31
0.0
  0
ARC
  5
118
330
1F
100
AcDbEntity
  8
0
  6
Continuous
 62
     7
370
    15
100
AcDbCircle
 10
418.0161694466
 20
245.5392425069
 30
0.0
 40
1.464246019249729
100
AcDbArc
 50
262.4735100252
 51
290.5826965546
  0
LWPOLYLINE
  5
119
330
1F
100
AcDbEntity
  8
0
  6
Continuous
 62
     7
370
    15
100
AcDbPolyline
 90
        3
 70
   128
 43
0.0
 10
417.8057195719
 20
246.3881246242
 10
417.8160550173
 20
246.4333198461
 10
417.8243758257
 20
246.527471343
  0
LINE
  5
11A
330
1F
100
AcDbEntity
  8
0
  6
Continuous
 62
     7
370
    15
100
AcDbLine
 10
417.8243758257
 20
246.527471343
 30
0.0
 11
417.8243758257
 21
246.8446246777
 31
0.0
  0
ARC
  5
11B
330
1F
100
AcDbEntity
  8
0
  6
Continuous
 62
     7
370
    15
100
AcDbCircle
 10
416.8213497332
 20
264.0209621797
 30
0.0
 40
1.769474266469151
100
AcDbArc
 50
124.6748797505
 51
182.1261462006
  0
LINE
  5
11C
330
1F
100
AcDbEntity
  8
0
  6
Continuous
 62
     7
370
    15
100
AcDbLine
 10
415.814662176
 20
265.4761664066
 30
0.0
 11
420.2048422869
 21
268.2703069839
 31
0.0
  0
ARC
  5
11D
330
1F
100
AcDbEntity
  8
0
  6
Continuous
 62
     7
370
    15
100
AcDbCircle
 10
419.1981567327
 20
269.725506775
 30
0.0
 40
1.769469478930251
100
AcDbArc
 50
304.6749081293
 51
2.1263198305
  0
LINE
  5
11E
330
1F
100
AcDbEntity
  8
0
  6
Continuous
 62
     7
370
    15
100
AcDbLine
 10
420.966407853
 20
275.2300194893
 30
0.0
 11
421.6364087637
 21
275.4830322657
 31
0.0
  0
LINE
  5
11F
330
1F
100
AcDbEntity
  8
0
  6
Continuous
 62
     7
370
    15
100
AcDbLine
 10
420.966407853
 20
269.7911589835
 30
0.0
 11
420.966407853
 21
275.2300194893
 31
0.0
  0
LINE
  5
120
330
1F
100
AcDbEntity
  8
0
  6
Continuous
 62
     7
370
    15
100
AcDbLine
 10
475.7741334017
 20
270.0441717598
 30
0.0
 11
475.7741334017
 21
275.4830322657
 31
0.0
  0
ARC
  5
121
330
1F
100
AcDbEntity
  8
0
  6
Continuous
 62
     7
370
    15
100
AcDbCircle
 10
477.5423829901
 20
269.9785207569
 30
0.0
 40
1.769467903368859
100
AcDbArc
 50
177.8737173394
 51
235.3252342342
  0
LINE
  5
122
330
1F
100
AcDbEntity
  8
0
  6
Continuous
 62
     7
370
    15
100
AcDbLine
 10
480.9258790787
 20
265.729179183
 30
0.0
 11
476.535701948
 21
268.5233197603
 31
0.0
  0
ARC
  5
123
330
1F
100
AcDbEntity
  8
0
  6
Continuous
 62
     7
370
    15
100
AcDbCircle
 10
479.9192093485
 20
264.273983883
 30
0.0
 40
1.769456782969716
100
AcDbArc
 50
357.8735435262
 51
55.3254305227
  0
LINE
  5
124
330
1F
100
AcDbEntity
  8
0
  6
Continuous
 62
     7
370
    15
100
AcDbLine
 10
481.687447625
 20
246.6413519773
 30
0.0
 11
481.687447625
 21
264.2083279285
 31
0.0
  0
ARC
  5
125
330
1F
100
AcDbEntity
  8
0
  6
Continuous
 62
     7
370
    15
100
AcDbCircle
 10
479.5377476503
 20
246.5810430034
 30
0.0
 40
2.150545780357469
100
AcDbArc
 50
281.1983361404
 51
1.6069886914
  0
LINE
  5
126
330
1F
100
AcDbEntity
  8
0
  6
Continuous
 62
     7
370
    15
100
AcDbLine
 10
478.916165429
 20
244.3406246099
 30
0.0
 11
479.9553962525
 21
244.4714419041
 31
0.0
  0
LWPOLYLINE
  5
127
330
1F
100
AcDbEntity
  8
0
  6
Continuous
 62
     7
370
    15
100
AcDbPolyline
 90
        9
 70
   128
 43
0.0
 10
477.1841140564
 20
246.0744879637
 10
477.2173972901
 20
245.6978819761
 10
477.3159595307
 20
245.3441284094
 10
477.4760188635
 20
245.0268201027
 10
477.6914211091
 20
244.7581521664
 10
477.9538901623
 20
244.5484481249
 10
478.2533379372
 20
244.4057695064
 10
478.5782607373
 20
244.3355969582
 10
478.916165429
 20
244.3406246099
  0
LINE
  5
128
330
1F
100
AcDbEntity
  8
0
  6
Continuous
 62
     7
370
    15
100
AcDbLine
 10
477.1841140564
 20
247.4651745949
 30
0.0
 11
477.1841140564
 21
246.0744879637
 31
0.0
  0
LINE
  5
129
330
1F
100
AcDbEntity
  8
0
  6
Continuous
 62
     7
370
    15
100
AcDbLine
 10
478.916165429
 20
246.7804841194
 30
0.0
 11
478.916165429
 21
247.0609805975
 31
0.0
  0
ARC
  5
12A
330
1F
100
AcDbEntity
  8
0
  6
Continuous
 62
     7
370
    15
100
AcDbCircle
 10
479.315854768
 20
246.7467426816
 30
0.0
 40
0.4011110224757702
100
AcDbArc
 50
175.1745797158
 51
274.7655117901
  0
LINE
  5
12B
330
1F
100
AcDbEntity
  8
0
  6
Continuous
 62
     7
370
    15
100
AcDbLine
 10
479.5223834094
 20
246.36882166
 30
0.0
 11
479.3491782721
 21
246.347018281
 31
0.0
  0
ARC
  5
12C
330
1F
100
AcDbEntity
  8
0
  6
Continuous
 62
     7
370
    15
100
AcDbCircle
 10
479.4179742405
 20
246.8962195342
 30
0.0
 40
0.5376335110402157
100
AcDbArc
 50
281.1980741207
 51
1.6071739761
  0
LINE
  5
12D
330
1F
100
AcDbEntity
  8
0
  6
Continuous
 62
     7
370
    15
100
AcDbLine
 10
479.9553962525
 20
262.9541523251
 30
0.0
 11
479.9553962525
 21
246.9112984333
 31
0.0
  0
ARC
  5
12E
330
1F
100
AcDbEntity
  8
0
  6
Continuous
 62
     7
370
    15
100
AcDbCircle
 10
478.1871483646
 20
263.0198054394
 30
0.0
 40
1.769466282352111
100
AcDbArc
 50
357.8736469785
 51
55.3251475371
  0
LINE
  5
12F
330
1F
100
AcDbEntity
  8
0
  6
Continuous
 62
     7
370
    15
100
AcDbLine
 10
474.8036505755
 20
267.2691441569
 30
0.0
 11
479.1938306864
 21
264.4750035796
 31
0.0
  0
ARC
  5
130
330
1F
100
AcDbEntity
  8
0
  6
Continuous
 62
     7
370
    15
100
AcDbCircle
 10
475.8103412817
 20
268.7243499607
 30
0.0
 40
1.769477354813803
100
AcDbArc
 50
177.8739086064
 51
235.3250654425
  0
LINE
  5
131
330
1F
100
AcDbEntity
  8
0
  6
Continuous
 62
     7
370
    15
100
AcDbLine
 10
474.0420820292
 20
273.9572435114
 30
0.0
 11
474.0420820292
 21
268.7899954114
 31
0.0
  0
ARC
  5
132
330
1F
100
AcDbEntity
  8
0
  6
Continuous
 62
     7
370
    15
100
AcDbCircle
 10
480.2077485611
 20
246.3280302271
 30
0.0
 40
2.150545780357469
100
AcDbArc
 50
281.1983361404
 51
1.6069886914
  0
LINE
  5
133
330
1F
100
AcDbEntity
  8
0
  6
Continuous
 62
     7
370
    15
100
AcDbLine
 10
482.3574485358
 20
246.388339201
 30
0.0
 11
482.3574485358
 21
263.9553151522
 31
0.0
  0
LINE
  5
134
330
1F
100
AcDbEntity
  8
0
  6
Continuous
 62
     7
370
    15
100
AcDbLine
 10
479.5861663397
 20
244.0876118336
 30
0.0
 11
480.6253971632
 21
244.2184291277
 31
0.0
  0
ARC
  5
135
330
1F
100
AcDbEntity
  8
0
  6
Continuous
 62
     7
370
    15
100
AcDbCircle
 10
479.3943727189
 20
245.5392425069
 30
0.0
 40
1.464246019249738
100
AcDbArc
 50
249.4173034454
 51
277.5264899748
  0
LWPOLYLINE
  5
136
330
1F
100
AcDbEntity
  8
0
  6
Continuous
 62
     7
370
    15
100
AcDbPolyline
 90
        3
 70
   128
 43
0.0
 10
479.6048225935
 20
246.3881246242
 10
479.5944871481
 20
246.4333198461
 10
479.5861663397
 20
246.527471343
  0
LINE
  5
137
330
1F
100
AcDbEntity
  8
0
  6
Continuous
 62
     7
370
    15
100
AcDbLine
 10
479.5861663397
 20
246.527471343
 30
0.0
 11
479.5861663397
 21
246.8441567812
 31
0.0
  0
ARC
  5
138
330
1F
100
AcDbEntity
  8
0
  6
Continuous
 62
     7
370
    15
100
AcDbCircle
 10
480.5891924323
 20
264.0209621797
 30
0.0
 40
1.769474266469119
100
AcDbArc
 50
357.8738537994
 51
55.3251202495
  0
LINE
  5
139
330
1F
100
AcDbEntity
  8
0
  6
Continuous
 62
     7
370
    15
100
AcDbLine
 10
481.5958799895
 20
265.4761664066
 30
0.0
 11
477.2056998785
 21
268.2703069839
 31
0.0
  0
ARC
  5
13A
330
1F
100
AcDbEntity
  8
0
  6
Continuous
 62
     7
370
    15
100
AcDbCircle
 10
478.2123854328
 20
269.725506775
 30
0.0
 40
1.769469478930194
100
AcDbArc
 50
177.8736801695
 51
235.3250918707
  0
LINE
  5
13B
330
1F
100
AcDbEntity
  8
0
  6
Continuous
 62
     7
370
    15
100
AcDbLine
 10
475.7741334017
 20
275.4830322657
 30
0.0
 11
476.4441343125
 21
275.2300194893
 31
0.0
  0
LINE
  5
13C
330
1F
100
AcDbEntity
  8
0
  6
Continuous
 62
     7
370
    15
100
AcDbLine
 10
476.4441343125
 20
269.7911589835
 30
0.0
 11
476.4441343125
 21
275.2300194893
 31
0.0
  0
LINE
  5
13D
330
1F
100
AcDbEntity
  8
0
  6
Continuous
 62
     7
370
    15
100
AcDbLine
 10
482.3574485358
 20
243.4145770464
 30
0.0
 11
482.3574485358
 21
246.388339201
 31
0.0
  0
LWPOLYLINE
  5
13E
330
1F
100
AcDbEntity
  8
0
  6
Continuous
 62
     7
370
    15
100
AcDbPolyline
 90
        9
 70
   128
 43
0.0
 10
480.6253971632
 20
241.6807136927
 10
480.9633018549
 20
241.6756860409
 10
481.288224655
 20
241.7458585892
 10
481.5876724299
 20
241.8885372076
 10
481.8501414832
 20
242.0982412491
 10
482.0655437287
 20
242.3669091854
 10
482.2256030615
 20
242.6842174921
 10
482.3241653021
 20
243.0379710588
 10
482.3574485358
 20
243.4145770464
  0
LINE
  5
13F
330
1F
100
AcDbEntity
  8
0
  6
Continuous
 62
     7
370
    15
100
AcDbLine
 10
479.5861663397
 20
241.8115309868
 30
0.0
 11
480.6253971632
 21
241.6807136927
 31
0.0
  0
ARC
  5
140
330
1F
100
AcDbEntity
  8
0
  6
Continuous
 62
     7
370
    15
100
AcDbCircle
 10
480.0038149419
 20
243.9211320862
 30
0.0
 40
2.150545780357469
100
AcDbArc
 50
178.3930113086
 51
258.8016638596
  0
LINE
  5
141
330
1F
100
AcDbEntity
  8
0
  6
Continuous
 62
     7
370
    15
100
AcDbLine
 10
477.8541149672
 20
244.616936842
 30
0.0
 11
477.8541149672
 21
243.9814410601
 31
0.0
  0
ARC
  5
142
330
1F
100
AcDbEntity
  8
0
  6
Continuous
 62
     7
370
    15
100
AcDbCircle
 10
480.1179520025
 20
244.2256974551
 30
0.0
 40
0.5261412129373694
100
AcDbArc
 50
194.8847780155
 51
259.1796243046
  0
LINE
  5
143
330
1F
100
AcDbEntity
  8
0
  6
Continuous
 62
     7
370
    15
100
AcDbLine
 10
480.1923843201
 20
243.6871073637
 30
0.0
 11
480.0191791829
 21
243.7089107428
 31
0.0
  0
ARC
  5
144
330
1F
100
AcDbEntity
  8
0
  6
Continuous
 62
     7
370
    15
100
AcDbCircle
 10
480.2257078242
 20
244.0868317643
 30
0.0
 40
0.4011110224757702
100
AcDbArc
 50
265.2344882099
 51
4.8254202842
  0
LINE
  5
145
330
1F
100
AcDbEntity
  8
0
  6
Continuous
 62
     7
370
    15
100
AcDbLine
 10
480.6253971632
 20
244.2184291277
 30
0.0
 11
480.6253971632
 21
244.1205732021
 31
0.0
  0
ARC
  5
146
330
1F
100
AcDbEntity
  8
0
  6
Continuous
 62
     7
370
    15
100
AcDbCircle
 10
477.0211592703
 20
267.4952534943
 30
0.0
 40
2.309366019415128
100
AcDbArc
 50
184.1494251116
 51
194.615893803
  0
ARC
  5
147
330
1F
100
AcDbEntity
  8
0
  6
Continuous
 62
     7
370
    15
100
AcDbCircle
 10
479.3338140311
 20
243.6681193098
 30
0.0
 40
2.150545780357469
100
AcDbArc
 50
178.3930113086
 51
258.8016638596
  0
LINE
  5
148
330
1F
100
AcDbEntity
  8
0
  6
Continuous
 62
     7
370
    15
100
AcDbLine
 10
477.1841140564
 20
246.0744879637
 30
0.0
 11
477.1841140564
 21
243.7284282837
 31
0.0
  0
LINE
  5
149
330
1F
100
AcDbEntity
  8
0
  6
Continuous
 62
     7
370
    15
100
AcDbLine
 10
478.916165429
 20
241.5585182104
 30
0.0
 11
479.9553962525
 21
241.4277009163
 31
0.0
  0
ARC
  5
14A
330
1F
100
AcDbEntity
  8
0
  6
Continuous
 62
     7
370
    15
100
AcDbCircle
 10
480.1471898733
 20
242.8793315897
 30
0.0
 40
1.464246019249721
100
AcDbArc
 50
262.4735100252
 51
290.5826965546
  0
LWPOLYLINE
  5
14B
330
1F
100
AcDbEntity
  8
0
  6
Continuous
 62
     7
370
    15
100
AcDbPolyline
 90
        3
 70
   128
 43
0.0
 10
479.9553962525
 20
243.8675604258
 10
479.9470754441
 20
243.7734089289
 10
479.9367399987
 20
243.728213707
  0
LINE
  5
14C
330
1F
100
AcDbEntity
  8
0
  6
Continuous
 62
     7
370
    15
100
AcDbLine
 10
479.9553962525
 20
244.1039554272
 30
0.0
 11
479.9553962525
 21
243.8675604258
 31
0.0
  0
LINE
  5
14D
330
1F
100
AcDbEntity
  8
0
  6
Continuous
 62
     7
370
    15
100
AcDbLine
 10
464.3684582885
 20
273.9572435114
 30
0.0
 11
464.3684582885
 21
268.7899954114
 31
0.0
  0
ARC
  5
14E
330
1F
100
AcDbEntity
  8
0
  6
Continuous
 62
     7
370
    15
100
AcDbCircle
 10
462.6002104455
 20
268.7243422747
 30
0.0
 40
1.769466238323856
100
AcDbArc
 50
304.6748516816
 51
2.1263538029
  0
LINE
  5
14F
330
1F
100
AcDbEntity
  8
0
  6
Continuous
 62
     7
370
    15
100
AcDbLine
 10
463.6068927225
 20
267.2691441569
 30
0.0
 11
459.2167126115
 21
264.4750035796
 31
0.0
  0
ARC
  5
150
330
1F
100
AcDbEntity
  8
0
  6
Continuous
 62
     7
370
    15
100
AcDbCircle
 10
460.2233951141
 20
263.0198036163
 30
0.0
 40
1.76946788445504
100
AcDbArc
 50
124.6748236934
 51
182.1262920243
  0
LINE
  5
151
330
1F
100
AcDbEntity
  8
0
  6
Continuous
 62
     7
370
    15
100
AcDbLine
 10
458.4551455554
 20
262.9541523251
 30
0.0
 11
458.4551455554
 21
246.9112984333
 31
0.0
  0
ARC
  5
152
330
1F
100
AcDbEntity
  8
0
  6
Continuous
 62
     7
370
    15
100
AcDbCircle
 10
458.9925675674
 20
246.8962195342
 30
0.0
 40
0.537633511040103
100
AcDbArc
 50
178.3928260239
 51
258.8019258793
  0
LINE
  5
153
330
1F
100
AcDbEntity
  8
0
  6
Continuous
 62
     7
370
    15
100
AcDbLine
 10
458.8881583985
 20
246.36882166
 30
0.0
 11
459.0613635357
 21
246.347018281
 31
0.0
  0
ARC
  5
154
330
1F
100
AcDbEntity
  8
0
  6
Continuous
 62
     7
370
    15
100
AcDbCircle
 10
459.0946870399
 20
246.7467426816
 30
0.0
 40
0.4011110224757672
100
AcDbArc
 50
265.2344882099
 51
4.8254202842
  0
LINE
  5
155
330
1F
100
AcDbEntity
  8
0
  6
Continuous
 62
     7
370
    15
100
AcDbLine
 10
459.4943763789
 20
246.7804841194
 30
0.0
 11
459.4943763789
 21
247.0611117277
 31
0.0
  0
LINE
  5
156
330
1F
100
AcDbEntity
  8
0
  6
Continuous
 62
     7
370
    15
100
AcDbLine
 10
461.2264277514
 20
247.4668643866
 30
0.0
 11
461.2264277514
 21
246.0744879637
 31
0.0
  0
LWPOLYLINE
  5
157
330
1F
100
AcDbEntity
  8
0
  6
Continuous
 62
     7
370
    15
100
AcDbPolyline
 90
        9
 70
   128
 43
0.0
 10
461.2264277514
 20
246.0744879637
 10
461.1931460079
 20
245.6978819761
 10
461.0945830222
 20
245.3441284094
 10
460.9345236894
 20
245.0268201027
 10
460.7191214438
 20
244.7581521664
 10
460.4566523906
 20
244.5484481249
 10
460.1572038706
 20
244.4057695064
 10
459.8322825607
 20
244.3355969582
 10
459.4943763789
 20
244.3406246099
  0
LINE
  5
158
330
1F
100
AcDbEntity
  8
0
  6
Continuous
 62
     7
370
    15
100
AcDbLine
 10
459.4943763789
 20
244.3406246099
 30
0.0
 11
458.4551455554
 21
244.4714419041
 31
0.0
  0
ARC
  5
159
330
1F
100
AcDbEntity
  8
0
  6
Continuous
 62
     7
370
    15
100
AcDbCircle
 10
458.8727935437
 20
246.5810417754
 30
0.0
 40
2.150544456446775
100
AcDbArc
 50
178.392977587
 51
258.8016735479
  0
LINE
  5
15A
330
1F
100
AcDbEntity
  8
0
  6
Continuous
 62
     7
370
    15
100
AcDbLine
 10
456.7230949279
 20
246.6413519773
 30
0.0
 11
456.7230949279
 21
264.2083279285
 31
0.0
  0
ARC
  5
15B
330
1F
100
AcDbEntity
  8
0
  6
Continuous
 62
     7
370
    15
100
AcDbCircle
 10
458.4913399837
 20
264.2739814746
 30
0.0
 40
1.769463468286025
100
AcDbArc
 50
124.6747453213
 51
182.1263703964
  0
LINE
  5
15C
330
1F
100
AcDbEntity
  8
0
  6
Continuous
 62
     7
370
    15
100
AcDbLine
 10
457.4846619841
 20
265.729179183
 30
0.0
 11
461.8748413499
 21
268.5233197603
 31
0.0
  0
ARC
  5
15D
330
1F
100
AcDbEntity
  8
0
  6
Continuous
 62
     7
370
    15
100
AcDbCircle
 10
460.8681531781
 20
269.9785225946
 30
0.0
 40
1.769473470966123
100
AcDbArc
 50
304.6749217726
 51
2.1262164205
  0
LINE
  5
15E
330
1F
100
AcDbEntity
  8
0
  6
Continuous
 62
     7
370
    15
100
AcDbLine
 10
462.6364084061
 20
270.0441717598
 30
0.0
 11
462.6364084061
 21
275.4830322657
 31
0.0
  0
ARC
  5
15F
330
1F
100
AcDbEntity
  8
0
  6
Continuous
 62
     7
370
    15
100
AcDbCircle
 10
458.2027930199
 20
246.3280288566
 30
0.0
 40
2.150544102554306
100
AcDbArc
 50
178.3929735277
 51
258.8017016405
  0
LINE
  5
160
330
1F
100
AcDbEntity
  8
0
  6
Continuous
 62
     7
370
    15
100
AcDbLine
 10
456.0530947622
 20
246.388339201
 30
0.0
 11
456.0530947622
 21
263.9553151522
 31
0.0
  0
LINE
  5
161
330
1F
100
AcDbEntity
  8
0
  6
Continuous
 62
     7
370
    15
100
AcDbLine
 10
458.8243762132
 20
244.0876118336
 30
0.0
 11
457.7851461347
 21
244.2184291277
 31
0.0
  0
ARC
  5
162
330
1F
100
AcDbEntity
  8
0
  6
Continuous
 62
     7
370
    15
100
AcDbCircle
 10
459.0161711639
 20
245.5392261419
 30
0.0
 40
1.464229969430628
100
AcDbArc
 50
262.4733745568
 51
290.5828456718
  0
LWPOLYLINE
  5
163
330
1F
100
AcDbEntity
  8
0
  6
Continuous
 62
     7
370
    15
100
AcDbPolyline
 90
        3
 70
   128
 43
0.0
 10
458.8057192143
 20
246.3881246242
 10
458.8160561498
 20
246.4333198461
 10
458.8243762132
 20
246.527471343
  0
LINE
  5
164
330
1F
100
AcDbEntity
  8
0
  6
Continuous
 62
     7
370
    15
100
AcDbLine
 10
458.8243762132
 20
246.527471343
 30
0.0
 11
458.8243762132
 21
246.8443534765
 31
0.0
  0
ARC
  5
165
330
1F
100
AcDbEntity
  8
0
  6
Continuous
 62
     7
370
    15
100
AcDbCircle
 10
457.8213443209
 20
264.0209664434
 30
0.0
 40
1.769467884454891
100
AcDbArc
 50
124.6748236934
 51
182.1262920243
  0
LINE
  5
166
330
1F
100
AcDbEntity
  8
0
  6
Continuous
 62
     7
370
    15
100
AcDbLine
 10
456.8146618184
 20
265.4761664066
 30
0.0
 11
461.2048411842
 21
268.2703069839
 31
0.0
  0
ARC
  5
167
330
1F
100
AcDbEntity
  8
0
  6
Continuous
 62
     7
370
    15
100
AcDbCircle
 10
460.1981616765
 20
269.7255046135
 30
0.0
 40
1.769464261396712
100
AcDbArc
 50
304.6747869352
 51
2.1263961412
  0
LINE
  5
168
330
1F
100
AcDbEntity
  8
0
  6
Continuous
 62
     7
370
    15
100
AcDbLine
 10
461.9664074954
 20
275.2300194893
 30
0.0
 11
462.6364084061
 21
275.4830322657
 31
0.0
  0
LINE
  5
169
330
1F
100
AcDbEntity
  8
0
  6
Continuous
 62
     7
370
    15
100
AcDbLine
 10
461.9664074954
 20
269.7911589835
 30
0.0
 11
461.9664074954
 21
275.2300194893
 31
0.0
  0
ARC
  5
16A
330
1F
100
AcDbEntity
  8
0
  6
Continuous
 62
     7
370
    15
100
AcDbCircle
 10
461.3871226647
 20
267.4955358428
 30
0.0
 40
2.311641887864166
100
AcDbArc
 50
344.6546495064
 51
355.8476506384
  0
LINE
  5
16B
330
1F
100
AcDbEntity
  8
0
  6
Continuous
 62
     7
370
    15
100
AcDbLine
 10
457.7851461347
 20
244.2184291277
 30
0.0
 11
457.7851461347
 21
244.1205732021
 31
0.0
  0
ARC
  5
16C
330
1F
100
AcDbEntity
  8
0
  6
Continuous
 62
     7
370
    15
100
AcDbCircle
 10
458.1848345074
 20
244.086830799
 30
0.0
 40
0.401110140817159
100
AcDbArc
 50
175.1744307111
 51
274.7656607948
  0
LINE
  5
16D
330
1F
100
AcDbEntity
  8
0
  6
Continuous
 62
     7
370
    15
100
AcDbLine
 10
458.2181589778
 20
243.6871073637
 30
0.0
 11
458.39136337
 21
243.7089107428
 31
0.0
  0
ARC
  5
16E
330
1F
100
AcDbEntity
  8
0
  6
Continuous
 62
     7
370
    15
100
AcDbCircle
 10
458.2925910846
 20
244.2256978743
 30
0.0
 40
0.5261415244572292
100
AcDbArc
 50
280.82030999
 51
345.1151837605
  0
LINE
  5
16F
330
1F
100
AcDbEntity
  8
0
  6
Continuous
 62
     7
370
    15
100
AcDbLine
 10
460.5564268406
 20
244.616936842
 30
0.0
 11
460.5564268406
 21
243.9814410601
 31
0.0
  0
ARC
  5
170
330
1F
100
AcDbEntity
  8
0
  6
Continuous
 62
     7
370
    15
100
AcDbCircle
 10
458.4067304666
 20
243.9211290687
 30
0.0
 40
2.15054226576503
100
AcDbArc
 50
281.1982771221
 51
1.607071743
  0
LINE
  5
171
330
1F
100
AcDbEntity
  8
0
  6
Continuous
 62
     7
370
    15
100
AcDbLine
 10
458.8243762132
 20
241.8115309868
 30
0.0
 11
457.7851461347
 21
241.6807136927
 31
0.0
  0
LWPOLYLINE
  5
172
330
1F
100
AcDbEntity
  8
0
  6
Continuous
 62
     7
370
    15
100
AcDbPolyline
 90
        9
 70
   128
 43
0.0
 10
457.7851461347
 20
241.6807136927
 10
457.4472392078
 20
241.6756860409
 10
457.1223186429
 20
241.7458585892
 10
456.822870123
 20
241.8885372076
 10
456.5604010697
 20
242.0982412491
 10
456.3449980792
 20
242.3669091854
 10
456.1849394914
 20
242.6842174921
 10
456.0863757606
 20
243.0379710588
 10
456.0530947622
 20
243.4145770464
  0
LINE
  5
173
330
1F
100
AcDbEntity
  8
0
  6
Continuous
 62
     7
370
    15
100
AcDbLine
 10
456.0530947622
 20
243.4145770464
 30
0.0
 11
456.0530947622
 21
246.388339201
 31
0.0
  0
ARC
  5
174
330
1F
100
AcDbEntity
  8
0
  6
Continuous
 62
     7
370
    15
100
AcDbCircle
 10
459.0767294936
 20
243.6681179393
 30
0.0
 40
2.150544102554305
100
AcDbArc
 50
281.1982983595
 51
1.6070264723
  0
LINE
  5
175
330
1F
100
AcDbEntity
  8
0
  6
Continuous
 62
     7
370
    15
100
AcDbLine
 10
461.2264277514
 20
246.0744879637
 30
0.0
 11
461.2264277514
 21
243.7284282837
 31
0.0
  0
LINE
  5
176
330
1F
100
AcDbEntity
  8
0
  6
Continuous
 62
     7
370
    15
100
AcDbLine
 10
459.4943763789
 20
241.5585182104
 30
0.0
 11
458.4551455554
 21
241.4277009163
 31
0.0
  0
ARC
  5
177
330
1F
100
AcDbEntity
  8
0
  6
Continuous
 62
     7
370
    15
100
AcDbCircle
 10
458.2633508593
 20
242.879312706
 30
0.0
 40
1.464227439116504
100
AcDbArc
 50
249.4171376464
 51
277.5266284762
  0
LWPOLYLINE
  5
178
330
1F
100
AcDbEntity
  8
0
  6
Continuous
 62
     7
370
    15
100
AcDbPolyline
 90
        3
 70
   128
 43
0.0
 10
458.4551455554
 20
243.8675604258
 10
458.4634663638
 20
243.7734089289
 10
458.4738032993
 20
243.728213707
  0
LINE
  5
179
330
1F
100
AcDbEntity
  8
0
  6
Continuous
 62
     7
370
    15
100
AcDbLine
 10
458.4551455554
 20
244.1009930763
 30
0.0
 11
458.4551455554
 21
243.8675604258
 31
0.0
  0
ARC
  5
17A
330
1F
100
AcDbEntity
  8
0
  6
Continuous
 62
     7
370
    15
100
AcDbCircle
 10
420.3887638057
 20
267.4953219805
 30
0.0
 40
2.309988441654001
100
AcDbArc
 50
345.0993378935
 51
355.8499917386
  0
LINE
  5
17B
330
1F
100
AcDbEntity
  8
0
  6
Continuous
 62
     7
370
    15
100
AcDbLine
 10
416.7851450022
 20
244.2184291277
 30
0.0
 11
416.7851450022
 21
244.1205732021
 31
0.0
  0
ARC
  5
17C
330
1F
100
AcDbEntity
  8
0
  6
Continuous
 62
     7
370
    15
100
AcDbCircle
 10
417.1848343412
 20
244.0868317643
 30
0.0
 40
0.4011110224758269
100
AcDbArc
 50
175.1745797158
 51
274.7655117901
  0
LINE
  5
17D
330
1F
100
AcDbEntity
  8
0
  6
Continuous
 62
     7
370
    15
100
AcDbLine
 10
417.2181578454
 20
243.6871073637
 30
0.0
 11
417.3913629826
 21
243.7089107428
 31
0.0
  0
ARC
  5
17E
330
1F
100
AcDbEntity
  8
0
  6
Continuous
 62
     7
370
    15
100
AcDbCircle
 10
417.292590163
 20
244.2256974551
 30
0.0
 40
0.52614121293737
100
AcDbArc
 50
280.8203756954
 51
345.1152219845
  0
LINE
  5
17F
330
1F
100
AcDbEntity
  8
0
  6
Continuous
 62
     7
370
    15
100
AcDbLine
 10
419.5564271983
 20
244.616936842
 30
0.0
 11
419.5564271983
 21
243.9814410601
 31
0.0
  0
ARC
  5
180
330
1F
100
AcDbEntity
  8
0
  6
Continuous
 62
     7
370
    15
100
AcDbCircle
 10
417.4067272236
 20
243.9211320862
 30
0.0
 40
2.150545780357416
100
AcDbArc
 50
281.1983361404
 51
1.6069886914
  0
LINE
  5
181
330
1F
100
AcDbEntity
  8
0
  6
Continuous
 62
     7
370
    15
100
AcDbLine
 10
417.8243758257
 20
241.8115309868
 30
0.0
 11
416.7851450022
 21
241.6807136927
 31
0.0
  0
LWPOLYLINE
  5
182
330
1F
100
AcDbEntity
  8
0
  6
Continuous
 62
     7
370
    15
100
AcDbPolyline
 90
        9
 70
   128
 43
0.0
 10
416.7851450022
 20
241.6807136927
 10
416.4472403105
 20
241.6756860409
 10
416.1223175105
 20
241.7458585892
 10
415.8228697356
 20
241.8885372076
 10
415.5604006823
 20
242.0982412491
 10
415.3449984368
 20
242.3669091854
 10
415.1849391039
 20
242.6842174921
 10
415.0863768633
 20
243.0379710588
 10
415.0530936297
 20
243.4145770464
  0
LINE
  5
183
330
1F
100
AcDbEntity
  8
0
  6
Continuous
 62
     7
370
    15
100
AcDbLine
 10
415.0530936297
 20
243.4145770464
 30
0.0
 11
415.0530936297
 21
246.388339201
 31
0.0
  0
ARC
  5
184
330
1F
100
AcDbEntity
  8
0
  6
Continuous
 62
     7
370
    15
100
AcDbCircle
 10
418.0767281344
 20
243.6681193098
 30
0.0
 40
2.150545780357413
100
AcDbArc
 50
281.1983361404
 51
1.6069886914
  0
LINE
  5
185
330
1F
100
AcDbEntity
  8
0
  6
Continuous
 62
     7
370
    15
100
AcDbLine
 10
420.226428109
 20
246.0744879637
 30
0.0
 11
420.226428109
 21
243.7284282837
 31
0.0
  0
LINE
  5
186
330
1F
100
AcDbEntity
  8
0
  6
Continuous
 62
     7
370
    15
100
AcDbLine
 10
418.4943767365
 20
241.5585182104
 30
0.0
 11
417.455145913
 21
241.4277009163
 31
0.0
  0
ARC
  5
187
330
1F
100
AcDbEntity
  8
0
  6
Continuous
 62
     7
370
    15
100
AcDbCircle
 10
417.2633522922
 20
242.8793315897
 30
0.0
 40
1.464246019249729
100
AcDbArc
 50
249.4173034454
 51
277.5264899748
  0
LWPOLYLINE
  5
188
330
1F
100
AcDbEntity
  8
0
  6
Continuous
 62
     7
370
    15
100
AcDbPolyline
 90
        3
 70
   128
 43
0.0
 10
417.455145913
 20
243.8675604258
 10
417.4634667214
 20
243.7734089289
 10
417.4738021668
 20
243.728213707
  0
LINE
  5
189
330
1F
100
AcDbEntity
  8
0
  6
Continuous
 62
     7
370
    15
100
AcDbLine
 10
417.455145913
 20
244.1025427971
 30
0.0
 11
417.455145913
 21
243.8675604258
 31
0.0
  0
LINE
  5
18A
330
1F
100
AcDbEntity
  8
0
  6
Continuous
 62
     7
370
    15
100
AcDbLine
 10
468.5352714833
 20
245.7402966413
 30
0.0
 11
468.5352714833
 21
248.1282345447
 31
0.0
  0
LINE
  5
18B
330
1F
100
AcDbEntity
  8
0
  6
Continuous
 62
     7
370
    15
100
AcDbLine
 10
469.8752718147
 20
245.7402966413
 30
0.0
 11
469.8752718147
 21
248.1282345447
 31
0.0
  0
LINE
  5
18C
330
1F
100
AcDbEntity
  8
0
  6
Continuous
 62
     7
370
    15
100
AcDbLine
 10
468.5352714833
 20
248.1282345447
 30
0.0
 11
468.5352714833
 21
265.6952104959
 31
0.0
  0
LINE
  5
18D
330
1F
100
AcDbEntity
  8
0
  6
Continuous
 62
     7
370
    15
100
AcDbLine
 10
469.8752718147
 20
248.1282345447
 30
0.0
 11
469.8752718147
 21
265.6952104959
 31
0.0
  0
LINE
  5
18E
330
1F
100
AcDbEntity
  8
0
  6
Continuous
 62
     7
370
    15
100
AcDbLine
 10
468.5352714833
 20
245.4786680136
 30
0.0
 11
468.5352714833
 21
245.7402966413
 31
0.0
  0
LINE
  5
18F
330
1F
100
AcDbEntity
  8
0
  6
Continuous
 62
     7
370
    15
100
AcDbLine
 10
469.8752718147
 20
245.4786680136
 30
0.0
 11
469.8752718147
 21
245.7402966413
 31
0.0
  0
LINE
  5
190
330
1F
100
AcDbEntity
  8
0
  6
Continuous
 62
     7
370
    15
100
AcDbLine
 10
468.5352714833
 20
245.4305521641
 30
0.0
 11
468.5352714833
 21
245.4786680136
 31
0.0
  0
LINE
  5
191
330
1F
100
AcDbEntity
  8
0
  6
Continuous
 62
     7
370
    15
100
AcDbLine
 10
469.8752718147
 20
245.4305521641
 30
0.0
 11
469.8752718147
 21
245.4786680136
 31
0.0
  0
LINE
  5
192
330
1F
100
AcDbEntity
  8
0
  6
Continuous
 62
     7
370
    15
100
AcDbLine
 10
468.5352714833
 20
265.6952104959
 30
0.0
 11
468.5352714833
 21
267.1201981101
 31
0.0
  0
LINE
  5
193
330
1F
100
AcDbEntity
  8
0
  6
Continuous
 62
     7
370
    15
100
AcDbLine
 10
469.8752718147
 20
265.6952104959
 30
0.0
 11
469.8752718147
 21
267.1201981101
 31
0.0
  0
LINE
  5
194
330
1F
100
AcDbEntity
  8
0
  6
Continuous
 62
     7
370
    15
100
AcDbLine
 10
468.5352714833
 20
267.1201981101
 30
0.0
 11
468.5352714833
 21
269.3617157135
 31
0.0
  0
LINE
  5
195
330
1F
100
AcDbEntity
  8
0
  6
Continuous
 62
     7
370
    15
100
AcDbLine
 10
469.8752718147
 20
267.1201981101
 30
0.0
 11
469.8752718147
 21
269.3617157135
 31
0.0
  0
LINE
  5
196
330
1F
100
AcDbEntity
  8
0
  6
Continuous
 62
     7
370
    15
100
AcDbLine
 10
468.5352714833
 20
269.3617157135
 30
0.0
 11
468.5352714833
 21
270.7867033276
 31
0.0
  0
LINE
  5
197
330
1F
100
AcDbEntity
  8
0
  6
Continuous
 62
     7
370
    15
100
AcDbLine
 10
469.8752718147
 20
269.3617157135
 30
0.0
 11
469.8752718147
 21
270.7867033276
 31
0.0
  0
LINE
  5
198
330
1F
100
AcDbEntity
  8
0
  6
Continuous
 62
     7
370
    15
100
AcDbLine
 10
468.5352714833
 20
276.2255638335
 30
0.0
 11
469.8752718147
 21
276.2255638335
 31
0.0
  0
LINE
  5
199
330
1F
100
AcDbEntity
  8
0
  6
Continuous
 62
     7
370
    15
100
AcDbLine
 10
468.5352714833
 20
270.7867033276
 30
0.0
 11
468.5352714833
 21
276.2255638335
 31
0.0
  0
LINE
  5
19A
330
1F
100
AcDbEntity
  8
0
  6
Continuous
 62
     7
370
    15
100
AcDbLine
 10
469.8752718147
 20
270.7867033276
 30
0.0
 11
469.8752718147
 21
276.2255638335
 31
0.0
  0
LWPOLYLINE
  5
19B
330
1F
100
AcDbEntity
  8
0
  6
Continuous
 62
     7
370
    15
100
AcDbPolyline
 90
       10
 70
   128
 43
0.0
 10
461.9664074954
 20
273.9222555849
 10
461.668659943
 20
273.7647272143
 10
461.4428268846
 20
273.6016168687
 10
461.2910645183
 20
273.4344809744
 10
461.2148182567
 20
273.2649139557
 10
461.2148182567
 20
273.0945340786
 10
461.2910645183
 20
272.9249670598
 10
461.4428268846
 20
272.7578311655
 10
461.668659943
 20
272.5947208199
 10
461.9664074954
 20
272.4371924493
  0
LINE
  5
19C
330
1F
100
AcDbEntity
  8
0
  6
Continuous
 62
     7
370
    15
100
AcDbLine
 10
462.6364084061
 20
274.1752683613
 30
0.0
 11
464.3684582885
 21
273.9572435114
 31
0.0
  0
ARC
  5
19D
330
1F
100
AcDbEntity
  8
0
  6
Continuous
 62
     7
370
    15
100
AcDbCircle
 10
468.3879494684
 20
252.2858503924
 30
0.0
 40
22.63242902582029
100
AcDbArc
 50
89.6270400635
 51
104.7219398945
  0
ARC
  5
19E
330
1F
100
AcDbEntity
  8
0
  6
Continuous
 62
     7
370
    15
100
AcDbCircle
 10
469.968876931
 20
251.8591210888
 30
0.0
 40
23.05886883133749
100
AcDbArc
 50
75.4184294676
 51
90.2325869875
  0
LINE
  5
19F
330
1F
100
AcDbEntity
  8
0
  6
Continuous
 62
     7
370
    15
100
AcDbLine
 10
474.0420820292
 20
273.9572435114
 30
0.0
 11
475.7741334017
 21
274.1752683613
 31
0.0
  0
LWPOLYLINE
  5
1A0
330
1F
100
AcDbEntity
  8
0
  6
Continuous
 62
     7
370
    15
100
AcDbPolyline
 90
       10
 70
   128
 43
0.0
 10
476.4441343125
 20
272.4371924493
 10
476.7418803748
 20
272.5947208199
 10
476.9677134331
 20
272.7578311655
 10
477.1194787796
 20
272.9249670598
 10
477.195722061
 20
273.0945340786
 10
477.195722061
 20
273.2649139557
 10
477.1194787796
 20
273.4344809744
 10
476.9677134331
 20
273.6016168687
 10
476.7418803748
 20
273.7647272143
 10
476.4441343125
 20
273.9222555849
  0
LINE
  5
1A1
330
1F
100
AcDbEntity
  8
0
  6
Continuous
 62
     7
370
    15
100
AcDbLine
 10
475.7741334017
 20
274.1752683613
 30
0.0
 11
475.7741334017
 21
275.4830322657
 31
0.0
  0
LINE
  5
1A2
330
1F
100
AcDbEntity
  8
0
  6
Continuous
 62
     7
370
    15
100
AcDbLine
 10
469.8752718147
 20
274.9177999291
 30
0.0
 11
469.8752718147
 21
276.2255638335
 31
0.0
  0
ARC
  5
1A3
330
1F
100
AcDbEntity
  8
0
  6
Continuous
 62
     7
370
    15
100
AcDbCircle
 10
469.9688749945
 20
253.1668696086
 30
0.0
 40
23.05888420785169
100
AcDbArc
 50
75.4184344346
 51
90.2325820205
  0
LINE
  5
1A4
330
1F
100
AcDbEntity
  8
0
  6
Continuous
 62
     7
370
    15
100
AcDbLine
 10
468.5352714833
 20
274.9177999291
 30
0.0
 11
468.5352714833
 21
276.2255638335
 31
0.0
  0
LINE
  5
1A5
330
1F
100
AcDbEntity
  8
0
  6
Continuous
 62
     7
370
    15
100
AcDbLine
 10
462.6364084061
 20
274.1752683613
 30
0.0
 11
462.6364084061
 21
275.4830322657
 31
0.0
  0
ARC
  5
1A6
330
1F
100
AcDbEntity
  8
0
  6
Continuous
 62
     7
370
    15
100
AcDbCircle
 10
468.3879512922
 20
253.5935998083
 30
0.0
 40
22.63244350207428
100
AcDbArc
 50
89.6270449192
 51
104.7219350388
  0
LINE
  5
1A7
330
1F
100
AcDbEntity
  8
0
  6
Continuous
 62
     7
370
    15
100
AcDbLine
 10
476.4441343125
 20
273.9222555849
 30
0.0
 11
476.4441343125
 21
275.2300194893
 31
0.0
  0
LWPOLYLINE
  5
1A8
330
1F
100
AcDbEntity
  8
0
  6
Continuous
 62
     7
370
    15
100
AcDbPolyline
 90
        6
 70
   128
 43
0.0
 10
477.2052707251
 20
274.4874879215
 10
477.195722061
 20
274.57267786
 10
477.1194787796
 20
274.7422448788
 10
476.9677134331
 20
274.9093807731
 10
476.7418803748
 20
275.0724911187
 10
476.4441343125
 20
275.2300194893
  0
LINE
  5
1A9
330
1F
100
AcDbEntity
  8
0
  6
Continuous
 62
     7
370
    15
100
AcDbLine
 10
461.9664074954
 20
273.9222555849
 30
0.0
 11
461.9664074954
 21
275.2300194893
 31
0.0
  0
LWPOLYLINE
  5
1AA
330
1F
100
AcDbEntity
  8
0
  6
Continuous
 62
     7
370
    15
100
AcDbPolyline
 90
        6
 70
   128
 43
0.0
 10
461.9664074954
 20
275.2300194893
 10
461.668659943
 20
275.0724911187
 10
461.4428268846
 20
274.9093807731
 10
461.2910645183
 20
274.7422448788
 10
461.2148182567
 20
274.57267786
 10
461.2052710827
 20
274.4874879215
  0
LINE
  5
1AB
330
1F
100
AcDbEntity
  8
0
  6
Continuous
 62
     7
370
    15
100
AcDbLine
 10
434.7741337594
 20
274.1752683613
 30
0.0
 11
434.7741337594
 21
275.4830322657
 31
0.0
  0
ARC
  5
1AC
330
1F
100
AcDbEntity
  8
0
  6
Continuous
 62
     7
370
    15
100
AcDbCircle
 10
428.9688764569
 20
251.8591146687
 30
0.0
 40
23.05887525398701
100
AcDbArc
 50
75.4184314835
 51
90.2325885586
  0
ARC
  5
1AD
330
1F
100
AcDbEntity
  8
0
  6
Continuous
 62
     7
370
    15
100
AcDbCircle
 10
428.9688745203
 20
253.1668631886
 30
0.0
 40
23.05889063049366
100
AcDbArc
 50
75.4184364505
 51
90.2325835916
  0
LINE
  5
1AE
330
1F
100
AcDbEntity
  8
0
  6
Continuous
 62
     7
370
    15
100
AcDbLine
 10
428.8752706822
 20
274.9177999291
 30
0.0
 11
428.8752706822
 21
276.2255638335
 31
0.0
  0
LWPOLYLINE
  5
1AF
330
1F
100
AcDbEntity
  8
0
  6
Continuous
 62
     7
370
    15
100
AcDbPolyline
 90
       10
 70
   128
 43
0.0
 10
435.4441346701
 20
272.4371924493
 10
435.7418822225
 20
272.5947208199
 10
435.9677152809
 20
272.7578311655
 10
436.1194776472
 20
272.9249670598
 10
436.1957239088
 20
273.0945340786
 10
436.1957239088
 20
273.2649139557
 10
436.1194776472
 20
273.4344809744
 10
435.9677152809
 20
273.6016168687
 10
435.7418822225
 20
273.7647272143
 10
435.4441346701
 20
273.9222555849
  0
LWPOLYLINE
  5
1B0
330
1F
100
AcDbEntity
  8
0
  6
Continuous
 62
     7
370
    15
100
AcDbPolyline
 90
       10
 70
   128
 43
0.0
 10
420.966407853
 20
273.9222555849
 10
420.6686617907
 20
273.7647272143
 10
420.4428287323
 20
273.6016168687
 10
420.2910633858
 20
273.4344809744
 10
420.2148201045
 20
273.2649139557
 10
420.2148201045
 20
273.0945340786
 10
420.2910633858
 20
272.9249670598
 10
420.4428287323
 20
272.7578311655
 10
420.6686617907
 20
272.5947208199
 10
420.966407853
 20
272.4371924493
  0
LINE
  5
1B1
330
1F
100
AcDbEntity
  8
0
  6
Continuous
 62
     7
370
    15
100
AcDbLine
 10
421.6364087637
 20
274.1752683613
 30
0.0
 11
423.3684601363
 21
273.9572435114
 31
0.0
  0
ARC
  5
1B2
330
1F
100
AcDbEntity
  8
0
  6
Continuous
 62
     7
370
    15
100
AcDbCircle
 10
427.3879478112
 20
252.2858661032
 30
0.0
 40
22.63241331882663
100
AcDbArc
 50
89.6270384763
 51
104.7219450686
  0
LINE
  5
1B3
330
1F
100
AcDbEntity
  8
0
  6
Continuous
 62
     7
370
    15
100
AcDbLine
 10
433.0420838769
 20
273.9572435114
 30
0.0
 11
434.7741337594
 21
274.1752683613
 31
0.0
  0
LINE
  5
1B4
330
1F
100
AcDbEntity
  8
0
  6
Continuous
 62
     7
370
    15
100
AcDbLine
 10
427.5352703508
 20
274.9177999291
 30
0.0
 11
427.5352703508
 21
276.2255638335
 31
0.0
  0
LINE
  5
1B5
330
1F
100
AcDbEntity
  8
0
  6
Continuous
 62
     7
370
    15
100
AcDbLine
 10
421.6364087637
 20
274.1752683613
 30
0.0
 11
421.6364087637
 21
275.4830322657
 31
0.0
  0
ARC
  5
1B6
330
1F
100
AcDbEntity
  8
0
  6
Continuous
 62
     7
370
    15
100
AcDbCircle
 10
427.3879496349
 20
253.5936155191
 30
0.0
 40
22.63242779505338
100
AcDbArc
 50
89.6270433319
 51
104.721940213
  0
LINE
  5
1B7
330
1F
100
AcDbEntity
  8
0
  6
Continuous
 62
     7
370
    15
100
AcDbLine
 10
435.4441346701
 20
273.9222555849
 30
0.0
 11
435.4441346701
 21
275.2300194893
 31
0.0
  0
LWPOLYLINE
  5
1B8
330
1F
100
AcDbEntity
  8
0
  6
Continuous
 62
     7
370
    15
100
AcDbPolyline
 90
        6
 70
   128
 43
0.0
 10
436.2052710827
 20
274.4874879215
 10
436.1957239088
 20
274.57267786
 10
436.1194776472
 20
274.7422448788
 10
435.9677152809
 20
274.9093807731
 10
435.7418822225
 20
275.0724911187
 10
435.4441346701
 20
275.2300194893
  0
LINE
  5
1B9
330
1F
100
AcDbEntity
  8
0
  6
Continuous
 62
     7
370
    15
100
AcDbLine
 10
420.966407853
 20
273.9222555849
 30
0.0
 11
420.966407853
 21
275.2300194893
 31
0.0
  0
LWPOLYLINE
  5
1BA
330
1F
100
AcDbEntity
  8
0
  6
Continuous
 62
     7
370
    15
100
AcDbPolyline
 90
        6
 70
   128
 43
0.0
 10
420.966407853
 20
275.2300194893
 10
420.6686617907
 20
275.0724911187
 10
420.4428287323
 20
274.9093807731
 10
420.2910633858
 20
274.7422448788
 10
420.2148201045
 20
274.57267786
 10
420.2052714404
 20
274.4874879215
  0
LINE
  5
1BB
330
1F
100
AcDbEntity
  8
0
  6
Continuous
 62
     7
370
    15
100
AcDbLine
 10
422.6329775628
 20
266.8942979965
 30
0.0
 11
422.6226272162
 21
266.8877921495
 31
0.0
  0
ARC
  5
1BC
330
1F
100
AcDbEntity
  8
0
  6
Continuous
 62
     7
370
    15
100
AcDbCircle
 10
428.4336222319
 20
256.1103546982
 30
0.0
 40
18.15503818200902
100
AcDbArc
 50
81.5283542825
 51
88.6060569839
  0
ARC
  5
1BD
330
1F
100
AcDbEntity
  8
0
  6
Continuous
 62
     7
370
    15
100
AcDbCircle
 10
427.6193148847
 20
260.5954674118
 30
0.0
 40
13.66481125160194
100
AcDbArc
 50
90.3523961916
 51
105.1541722653
  0
LINE
  5
1BE
330
1F
100
AcDbEntity
  8
0
  6
Continuous
 62
     7
370
    15
100
AcDbLine
 10
463.6329772051
 20
266.8942979965
 30
0.0
 11
463.6108832534
 21
266.8802715335
 31
0.0
  0
ARC
  5
1BF
330
1F
100
AcDbEntity
  8
0
  6
Continuous
 62
     7
370
    15
100
AcDbCircle
 10
468.7123012251
 20
259.2467415481
 30
0.0
 40
15.01432234835921
100
AcDbArc
 50
90.6755744184
 51
101.9893539812
  0
ARC
  5
1C0
330
1F
100
AcDbEntity
  8
0
  6
Continuous
 62
     7
370
    15
100
AcDbCircle
 10
469.5498436933
 20
257.8155726134
 30
0.0
 40
16.44766731421593
100
AcDbArc
 50
78.8446319615
 51
88.866290624
  0
LINE
  5
1C1
330
1F
100
AcDbEntity
  8
0
  6
Continuous
 62
     7
370
    15
100
AcDbLine
 10
415.2052702483
 20
561.8531404555
 30
0.0
 11
415.2052702483
 21
560.5131404966
 31
0.0
  0
LINE
  5
1C2
330
1F
100
AcDbEntity
  8
0
  6
Continuous
 62
     7
370
    15
100
AcDbLine
 10
482.2052719172
 20
560.5131404966
 30
0.0
 11
482.2052719172
 21
561.8531404555
 31
0.0
  0
LINE
  5
1C3
330
1F
100
AcDbEntity
  8
0
  6
Continuous
 62
     7
370
    15
100
AcDbLine
 10
426.1952715095
 20
547.513140601
 30
0.0
 11
427.1372633155
 21
547.513140601
 31
0.0
  0
LINE
  5
1C4
330
1F
100
AcDbEntity
  8
0
  6
Continuous
 62
     7
370
    15
100
AcDbLine
 10
470.2732788499
 20
547.513140601
 30
0.0
 11
471.215270656
 21
547.513140601
 31
0.0
  0
LINE
  5
1C5
330
1F
100
AcDbEntity
  8
0
  6
Continuous
 62
     7
370
    15
100
AcDbLine
 10
467.1952711519
 20
547.513140601
 30
0.0
 11
468.1372629579
 21
547.513140601
 31
0.0
  0
LINE
  5
1C6
330
1F
100
AcDbEntity
  8
0
  6
Continuous
 62
     7
370
    15
100
AcDbLine
 10
429.2732792076
 20
547.513140601
 30
0.0
 11
430.2152710136
 21
547.513140601
 31
0.0
  0
LINE
  5
1C7
330
1F
100
AcDbEntity
  8
0
  6
Continuous
 62
     7
370
    15
100
AcDbLine
 10
461.2052710827
 20
539.7754831732
 30
0.0
 11
461.2052710827
 21
539.4833295167
 31
0.0
  0
LINE
  5
1C8
330
1F
100
AcDbEntity
  8
0
  6
Continuous
 62
     7
370
    15
100
AcDbLine
 10
477.2052707251
 20
539.4833295167
 30
0.0
 11
477.2052707251
 21
539.7754831732
 31
0.0
  0
LINE
  5
1C9
330
1F
100
AcDbEntity
  8
0
  6
Continuous
 62
     7
370
    15
100
AcDbLine
 10
420.2052714404
 20
539.7754831732
 30
0.0
 11
420.2052714404
 21
539.4833295167
 31
0.0
  0
LINE
  5
1CA
330
1F
100
AcDbEntity
  8
0
  6
Continuous
 62
     7
370
    15
100
AcDbLine
 10
436.2052710827
 20
539.4833295167
 30
0.0
 11
436.2052710827
 21
539.7754831732
 31
0.0
  0
LINE
  5
1CB
330
1F
100
AcDbEntity
  8
0
  6
Continuous
 62
     7
370
    15
100
AcDbLine
 10
440.6767414983
 20
525.0431864083
 30
0.0
 11
441.346741664
 21
526.1757432044
 31
0.0
  0
LINE
  5
1CC
330
1F
100
AcDbEntity
  8
0
  6
Continuous
 62
     7
370
    15
100
AcDbLine
 10
441.346741664
 20
543.4963493169
 30
0.0
 11
440.6767414983
 21
544.6289061129
 31
0.0
  0
LINE
  5
1CD
330
1F
100
AcDbEntity
  8
0
  6
Continuous
 62
     7
370
    15
100
AcDbLine
 10
427.5352703508
 20
518.3817444861
 30
0.0
 11
428.8752706822
 21
518.3817444861
 31
0.0
  0
LINE
  5
1CE
330
1F
100
AcDbEntity
  8
0
  6
Continuous
 62
     7
370
    15
100
AcDbLine
 10
415.0638016041
 20
526.1757432044
 30
0.0
 11
415.7337995347
 21
525.0431864083
 31
0.0
  0
LINE
  5
1CF
330
1F
100
AcDbEntity
  8
0
  6
Continuous
 62
     7
370
    15
100
AcDbLine
 10
481.6767426308
 20
525.0431864083
 30
0.0
 11
482.3467405613
 21
526.1757432044
 31
0.0
  0
LINE
  5
1D0
330
1F
100
AcDbEntity
  8
0
  6
Continuous
 62
     7
370
    15
100
AcDbLine
 10
482.3467405613
 20
543.4963493169
 30
0.0
 11
481.6767426308
 21
544.6289061129
 31
0.0
  0
LINE
  5
1D1
330
1F
100
AcDbEntity
  8
0
  6
Continuous
 62
     7
370
    15
100
AcDbLine
 10
456.0638005014
 20
526.1757432044
 30
0.0
 11
456.7338006671
 21
525.0431864083
 31
0.0
  0
LINE
  5
1D2
330
1F
100
AcDbEntity
  8
0
  6
Continuous
 62
     7
370
    15
100
AcDbLine
 10
456.7338006671
 20
544.6289061129
 30
0.0
 11
456.0638005014
 21
543.4963493169
 31
0.0
  0
LINE
  5
1D3
330
1F
100
AcDbEntity
  8
0
  6
Continuous
 62
     7
370
    15
100
AcDbLine
 10
415.7337995347
 20
544.6289061129
 30
0.0
 11
415.0638016041
 21
543.4963493169
 31
0.0
  0
LINE
  5
1D4
330
1F
100
AcDbEntity
  8
0
  6
Continuous
 62
     7
370
    15
100
AcDbLine
 10
468.5352714833
 20
518.3817444861
 30
0.0
 11
469.8752718147
 21
518.3817444861
 31
0.0
  0
LINE
  5
1D5
330
1F
100
AcDbEntity
  8
0
  6
Continuous
 62
     7
370
    15
100
AcDbLine
 10
477.2052707251
 20
539.1911758602
 30
0.0
 11
477.2052707251
 21
539.4833295167
 31
0.0
  0
LINE
  5
1D6
330
1F
100
AcDbEntity
  8
0
  6
Continuous
 62
     7
370
    15
100
AcDbLine
 10
461.2052710827
 20
539.4833295167
 30
0.0
 11
461.2052710827
 21
539.1911758602
 31
0.0
  0
LINE
  5
1D7
330
1F
100
AcDbEntity
  8
0
  6
Continuous
 62
     7
370
    15
100
AcDbLine
 10
436.2052710827
 20
539.1911758602
 30
0.0
 11
436.2052710827
 21
539.4833295167
 31
0.0
  0
LINE
  5
1D8
330
1F
100
AcDbEntity
  8
0
  6
Continuous
 62
     7
370
    15
100
AcDbLine
 10
420.2052714404
 20
539.4833295167
 30
0.0
 11
420.2052714404
 21
539.1911758602
 31
0.0
  0
ARC
  5
1D9
330
1F
100
AcDbEntity
  8
0
  6
Continuous
 62
     7
370
    15
100
AcDbCircle
 10
429.7380830682
 20
536.9715768714
 30
0.0
 40
10.41841539683202
100
AcDbArc
 50
9.4091102939
 51
29.7789963133
  0
ARC
  5
1DA
330
1F
100
AcDbEntity
  8
0
  6
Continuous
 62
     7
370
    15
100
AcDbCircle
 10
428.315268965
 20
536.3913720052
 30
0.0
 40
11.9473734766557
100
AcDbArc
 50
37.5736786377
 51
80.8493469311
  0
ARC
  5
1DB
330
1F
100
AcDbEntity
  8
0
  6
Continuous
 62
     7
370
    15
100
AcDbCircle
 10
428.0957585157
 20
536.3902086447
 30
0.0
 40
11.94860357202246
100
AcDbArc
 50
99.1520583681
 51
142.423505403
  0
ARC
  5
1DC
330
1F
100
AcDbEntity
  8
0
  6
Continuous
 62
     7
370
    15
100
AcDbCircle
 10
426.6968477075
 20
536.9635527769
 30
0.0
 40
10.44356692367402
100
AcDbArc
 50
150.2492481968
 51
170.8164901272
  0
LINE
  5
1DD
330
1F
100
AcDbEntity
  8
0
  6
Continuous
 62
     7
370
    15
100
AcDbLine
 10
440.2052709933
 20
533.0864606917
 30
0.0
 11
440.2052709933
 21
536.6077153504
 31
0.0
  0
LINE
  5
1DE
330
1F
100
AcDbEntity
  8
0
  6
Continuous
 62
     7
370
    15
100
AcDbLine
 10
416.2052722748
 20
536.6077153504
 30
0.0
 11
416.2052722748
 21
533.0864606917
 31
0.0
  0
ARC
  5
1DF
330
1F
100
AcDbEntity
  8
0
  6
Continuous
 62
     7
370
    15
100
AcDbCircle
 10
427.5088554496
 20
533.0970137507
 30
0.0
 40
12.02461882564247
100
AcDbArc
 50
159.3169811397
 51
190.8147790538
  0
ARC
  5
1E0
330
1F
100
AcDbEntity
  8
0
  6
Continuous
 62
     7
370
    15
100
AcDbCircle
 10
428.1226791607
 20
533.4010759202
 30
0.0
 40
12.73135777478148
100
AcDbArc
 50
213.08156427
 51
267.3555060836
  0
ARC
  5
1E1
330
1F
100
AcDbEntity
  8
0
  6
Continuous
 62
     7
370
    15
100
AcDbCircle
 10
428.2899085042
 20
533.4068513899
 30
0.0
 40
12.73534784550289
100
AcDbArc
 50
272.6344473056
 51
326.8740488922
  0
ARC
  5
1E2
330
1F
100
AcDbEntity
  8
0
  6
Continuous
 62
     7
370
    15
100
AcDbCircle
 10
428.9892778989
 20
533.1030254541
 30
0.0
 40
11.9377379149031
100
AcDbArc
 50
349.0829578836
 51
20.5645870121
  0
ARC
  5
1E3
330
1F
100
AcDbEntity
  8
0
  6
Continuous
 62
     7
370
    15
100
AcDbCircle
 10
470.7459756514
 20
537.0022304401
 30
0.0
 40
10.40050545787973
100
AcDbArc
 50
9.2151345357
 51
29.6506885533
  0
ARC
  5
1E4
330
1F
100
AcDbEntity
  8
0
  6
Continuous
 62
     7
370
    15
100
AcDbCircle
 10
469.3275955344
 20
536.4112552904
 30
0.0
 40
11.92398389653841
100
AcDbArc
 50
37.5361512396
 51
80.8912362328
  0
ARC
  5
1E5
330
1F
100
AcDbEntity
  8
0
  6
Continuous
 62
     7
370
    15
100
AcDbCircle
 10
469.0882269824
 20
536.4028051737
 30
0.0
 40
11.934090955201
100
AcDbArc
 50
99.1266608585
 51
142.4481912902
  0
ARC
  5
1E6
330
1F
100
AcDbEntity
  8
0
  6
Continuous
 62
     7
370
    15
100
AcDbCircle
 10
467.7268459509
 20
536.9575906934
 30
0.0
 40
10.47260567829791
100
AcDbArc
 50
150.3023935156
 51
171.2812160169
  0
LINE
  5
1E7
330
1F
100
AcDbEntity
  8
0
  6
Continuous
 62
     7
370
    15
100
AcDbLine
 10
481.2052698906
 20
533.0864606917
 30
0.0
 11
481.2052698906
 21
536.6077153504
 31
0.0
  0
LINE
  5
1E8
330
1F
100
AcDbEntity
  8
0
  6
Continuous
 62
     7
370
    15
100
AcDbLine
 10
457.2052711721
 20
536.6077153504
 30
0.0
 11
457.2052711721
 21
533.0864606917
 31
0.0
  0
ARC
  5
1E9
330
1F
100
AcDbEntity
  8
0
  6
Continuous
 62
     7
370
    15
100
AcDbCircle
 10
469.2945655463
 20
533.3857335858
 30
0.0
 40
12.71672406356835
100
AcDbArc
 50
274.859827915
 51
326.9643501518
  0
ARC
  5
1EA
330
1F
100
AcDbEntity
  8
0
  6
Continuous
 62
     7
370
    15
100
AcDbCircle
 10
469.8927931347
 20
533.0939269093
 30
0.0
 40
12.03349989950343
100
AcDbArc
 50
349.205819874
 51
20.4734001822
  0
ARC
  5
1EB
330
1F
100
AcDbEntity
  8
0
  6
Continuous
 62
     7
370
    15
100
AcDbCircle
 10
468.364620385
 20
533.1099554402
 30
0.0
 40
11.88136609479161
100
AcDbArc
 50
159.4924051683
 51
190.9964065531
  0
ARC
  5
1EC
330
1F
100
AcDbEntity
  8
0
  6
Continuous
 62
     7
370
    15
100
AcDbCircle
 10
469.1118612713
 20
533.3877932341
 30
0.0
 40
12.7143490323409
100
AcDbArc
 50
213.0532024366
 51
267.4007717299
  0
LINE
  5
1ED
330
1F
100
AcDbEntity
  8
0
  6
Continuous
 62
     7
370
    15
100
AcDbLine
 10
469.8752718147
 20
520.6810413421
 30
0.0
 11
470.3719051655
 21
520.714726907
 31
0.0
  0
LINE
  5
1EE
330
1F
100
AcDbEntity
  8
0
  6
Continuous
 62
     7
370
    15
100
AcDbLine
 10
428.2052712615
 20
560.5131404966
 30
0.0
 11
415.2052702483
 21
560.5131404966
 31
0.0
  0
LINE
  5
1EF
330
1F
100
AcDbEntity
  8
0
  6
Continuous
 62
     7
370
    15
100
AcDbLine
 10
428.2052712615
 20
561.8531404555
 30
0.0
 11
415.2052702483
 21
561.8531404555
 31
0.0
  0
LINE
  5
1F0
330
1F
100
AcDbEntity
  8
0
  6
Continuous
 62
     7
370
    15
100
AcDbLine
 10
469.2052709039
 20
560.5131404966
 30
0.0
 11
428.2052712615
 21
560.5131404966
 31
0.0
  0
LINE
  5
1F1
330
1F
100
AcDbEntity
  8
0
  6
Continuous
 62
     7
370
    15
100
AcDbLine
 10
469.2052709039
 20
561.8531404555
 30
0.0
 11
428.2052712615
 21
561.8531404555
 31
0.0
  0
LINE
  5
1F2
330
1F
100
AcDbEntity
  8
0
  6
Continuous
 62
     7
370
    15
100
AcDbLine
 10
482.2052719172
 20
560.5131404966
 30
0.0
 11
469.2052709039
 21
560.5131404966
 31
0.0
  0
LINE
  5
1F3
330
1F
100
AcDbEntity
  8
0
  6
Continuous
 62
     7
370
    15
100
AcDbLine
 10
482.2052719172
 20
561.8531404555
 30
0.0
 11
469.2052709039
 21
561.8531404555
 31
0.0
  0
LINE
  5
1F4
330
1F
100
AcDbEntity
  8
0
  6
Continuous
 62
     7
370
    15
100
AcDbLine
 10
427.5352703508
 20
552.5131403029
 30
0.0
 11
428.8752706822
 21
552.5131403029
 31
0.0
  0
LINE
  5
1F5
330
1F
100
AcDbEntity
  8
0
  6
Continuous
 62
     7
370
    15
100
AcDbLine
 10
427.5352703508
 20
552.5131403029
 30
0.0
 11
427.5352703508
 21
560.5131404966
 31
0.0
  0
LINE
  5
1F6
330
1F
100
AcDbEntity
  8
0
  6
Continuous
 62
     7
370
    15
100
AcDbLine
 10
428.8752706822
 20
552.5131403029
 30
0.0
 11
428.8752706822
 21
560.5131404966
 31
0.0
  0
LINE
  5
1F7
330
1F
100
AcDbEntity
  8
0
  6
Continuous
 62
     7
370
    15
100
AcDbLine
 10
468.5352714833
 20
552.5131403029
 30
0.0
 11
469.8752718147
 21
552.5131403029
 31
0.0
  0
LINE
  5
1F8
330
1F
100
AcDbEntity
  8
0
  6
Continuous
 62
     7
370
    15
100
AcDbLine
 10
468.5352714833
 20
552.5131403029
 30
0.0
 11
468.5352714833
 21
560.5131404966
 31
0.0
  0
LINE
  5
1F9
330
1F
100
AcDbEntity
  8
0
  6
Continuous
 62
     7
370
    15
100
AcDbLine
 10
469.8752718147
 20
552.5131403029
 30
0.0
 11
469.8752718147
 21
560.5131404966
 31
0.0
  0
LINE
  5
1FA
330
1F
100
AcDbEntity
  8
0
  6
Continuous
 62
     7
370
    15
100
AcDbLine
 10
426.1952715095
 20
550.5131407202
 30
0.0
 11
426.1952715095
 21
560.5131404966
 31
0.0
  0
LINE
  5
1FB
330
1F
100
AcDbEntity
  8
0
  6
Continuous
 62
     7
370
    15
100
AcDbLine
 10
427.5352703508
 20
550.8441603303
 30
0.0
 11
427.5352703508
 21
560.5131404966
 31
0.0
  0
LINE
  5
1FC
330
1F
100
AcDbEntity
  8
0
  6
Continuous
 62
     7
370
    15
100
AcDbLine
 10
426.1952715095
 20
547.513140601
 30
0.0
 11
426.1952715095
 21
550.5131407202
 31
0.0
  0
LINE
  5
1FD
330
1F
100
AcDbEntity
  8
0
  6
Continuous
 62
     7
370
    15
100
AcDbLine
 10
471.215270656
 20
550.5131407202
 30
0.0
 11
471.215270656
 21
560.5131404966
 31
0.0
  0
LINE
  5
1FE
330
1F
100
AcDbEntity
  8
0
  6
Continuous
 62
     7
370
    15
100
AcDbLine
 10
469.8752718147
 20
550.8441603303
 30
0.0
 11
469.8752718147
 21
560.5131404966
 31
0.0
  0
LINE
  5
1FF
330
1F
100
AcDbEntity
  8
0
  6
Continuous
 62
     7
370
    15
100
AcDbLine
 10
471.215270656
 20
547.513140601
 30
0.0
 11
471.215270656
 21
550.5131407202
 31
0.0
  0
LINE
  5
200
330
1F
100
AcDbEntity
  8
0
  6
Continuous
 62
     7
370
    15
100
AcDbLine
 10
467.1952711519
 20
550.5131407202
 30
0.0
 11
467.1952711519
 21
560.5131404966
 31
0.0
  0
LINE
  5
201
330
1F
100
AcDbEntity
  8
0
  6
Continuous
 62
     7
370
    15
100
AcDbLine
 10
468.5352714833
 20
550.8441603303
 30
0.0
 11
468.5352714833
 21
560.5131404966
 31
0.0
  0
LINE
  5
202
330
1F
100
AcDbEntity
  8
0
  6
Continuous
 62
     7
370
    15
100
AcDbLine
 10
467.1952711519
 20
547.513140601
 30
0.0
 11
467.1952711519
 21
550.5131407202
 31
0.0
  0
LINE
  5
203
330
1F
100
AcDbEntity
  8
0
  6
Continuous
 62
     7
370
    15
100
AcDbLine
 10
428.8752706822
 20
560.5131404966
 30
0.0
 11
428.8752706822
 21
550.8441603303
 31
0.0
  0
LINE
  5
204
330
1F
100
AcDbEntity
  8
0
  6
Continuous
 62
     7
370
    15
100
AcDbLine
 10
430.2152710136
 20
560.5131404966
 30
0.0
 11
430.2152710136
 21
550.5131407202
 31
0.0
  0
LINE
  5
205
330
1F
100
AcDbEntity
  8
0
  6
Continuous
 62
     7
370
    15
100
AcDbLine
 10
430.2152710136
 20
550.5131407202
 30
0.0
 11
430.2152710136
 21
547.513140601
 31
0.0
  0
LWPOLYLINE
  5
206
330
1F
100
AcDbEntity
  8
0
  6
Continuous
 62
     7
370
    15
100
AcDbPolyline
 90
       71
 70
   128
 43
0.0
 10
477.1884741362
 20
540.28117643
 10
477.2027822312
 20
539.5807473481
 10
477.1526994284
 20
538.8818858683
 10
477.0386310395
 20
538.1902201593
 10
476.8614919957
 20
537.5113172949
 10
476.622706848
 20
536.8506430209
 10
476.3242038067
 20
536.2135200322
 10
475.9683819588
 20
535.6050728381
 10
475.5581082877
 20
535.0302069009
 10
475.0966848906
 20
534.4935445607
 10
474.5878281172
 20
533.9994101346
 10
474.0356328066
 20
533.5517822326
 10
473.4445484456
 20
533.1542639554
 10
472.8193299945
 20
532.8100530923
 10
472.165014046
 20
532.5219272197
 10
471.4868666705
 20
532.292201978
 10
470.7903506335
 20
532.1227251113
 10
470.0810717519
 20
532.0148645461
 10
469.364743131
 20
531.9694905103
 10
468.6471285399
 20
531.9869636119
 10
467.934008139
 20
532.0671467603
 10
467.2311233457
 20
532.2093902648
 10
466.5441336211
 20
532.4125556767
 10
465.8785702761
 20
532.6749979079
 10
465.2397902783
 20
532.9946129144
 10
464.6329389986
 20
533.3688227952
 10
464.0629010375
 20
533.7946145356
 10
463.5342659529
 20
534.2685608685
 10
463.0512910064
 20
534.7868470967
 10
462.617863911
 20
535.3452979148
 10
462.2374745186
 20
535.9394161523
 10
461.913186508
 20
536.5644215167
 10
461.6476105627
 20
537.2152818859
 10
461.442883509
 20
537.8867535413
 10
461.3006549057
 20
538.5734333217
 10
461.2220691617
 20
539.2697914064
 10
461.2077595767
 20
539.9702204883
 10
461.2578423794
 20
540.669080478
 10
461.3719122585
 20
541.3607476771
 10
461.5490513023
 20
542.0396505416
 10
461.7878349598
 20
542.7003233254
 10
462.0863380011
 20
543.3374478042
 10
462.442159849
 20
543.9458935082
 10
462.8524335202
 20
544.5207609356
 10
463.3138569172
 20
545.0574217856
 10
463.8227136906
 20
545.5515562117
 10
464.3749090012
 20
545.9991856039
 10
464.9659948524
 20
546.3967038811
 10
465.5912118133
 20
546.7409132541
 10
466.2455277618
 20
547.0290406168
 10
466.9236751374
 20
547.2587658584
 10
467.6201911744
 20
547.428241235
 10
468.3294700559
 20
547.5361018002
 10
469.0458001669
 20
547.5814773262
 10
469.7634132679
 20
547.5640027345
 10
470.4765336688
 20
547.4838210762
 10
471.1794184621
 20
547.3415760815
 10
471.8664081868
 20
547.1384121597
 10
472.5319730218
 20
546.8759684384
 10
473.1707515295
 20
546.556353432
 10
473.7776042994
 20
546.1821450413
 10
474.3476422604
 20
545.7563533008
 10
474.8762758549
 20
545.2824054778
 10
475.3592522915
 20
544.7641207397
 10
475.7926793869
 20
544.2056699217
 10
476.1730672892
 20
543.6115501941
 10
476.4973552998
 20
542.9865448296
 10
476.7629327353
 20
542.3356859505
 10
476.9676597889
 20
541.6642128051
 10
477.1098883923
 20
540.9775345147
 10
477.1884741362
 20
540.28117643
  0
LWPOLYLINE
  5
207
330
1F
100
AcDbEntity
  8
0
  6
Continuous
 62
     7
370
    15
100
AcDbPolyline
 90
       26
 70
   128
 43
0.0
 10
470.2031718667
 20
539.8386953891
 10
470.1879279788
 20
539.5945115507
 10
470.1109411295
 20
539.3616987884
 10
469.9770467456
 20
539.1548870623
 10
469.7946595129
 20
538.9870686949
 10
469.5752384242
 20
538.8687892378
 10
469.332571524
 20
538.8074799002
 10
469.0819056805
 20
538.8069956124
 10
468.8389914211
 20
538.8673646868
 10
468.6190920051
 20
538.9847932875
 10
468.4360237893
 20
539.1519038499
 10
468.30129047
 20
539.3581970156
 10
468.2233573969
 20
539.5907087744
 10
468.2071210917
 20
539.834831518
 10
468.2536037739
 20
540.0752245009
 10
468.3598818358
 20
540.2967853964
 10
468.5192795571
 20
540.4855890692
 10
468.7217803772
 20
540.629774195
 10
468.9546601947
 20
540.720282358
 10
469.2032875594
 20
540.7514242947
 10
469.4520400938
 20
540.721244973
 10
469.6852864798
 20
540.6316398204
 10
469.8883714255
 20
540.4882384956
 10
470.0485350665
 20
540.300053221
 10
470.1557131585
 20
540.0789065779
 10
470.2031718667
 20
539.8386953891
  0
LWPOLYLINE
  5
208
330
1F
100
AcDbEntity
  8
0
  6
Continuous
 62
     7
370
    15
100
AcDbPolyline
 90
       37
 70
   128
 43
0.0
 10
477.2052707251
 20
539.4833295167
 10
477.2027822312
 20
539.2885936916
 10
477.1526994284
 20
538.5897322119
 10
477.0386310395
 20
537.8980650127
 10
476.8614919957
 20
537.2191621483
 10
476.622706848
 20
536.5584878743
 10
476.3242038067
 20
535.9213648856
 10
475.9683819588
 20
535.3129206717
 10
475.5581082877
 20
534.7380517543
 10
475.0966848906
 20
534.2013923943
 10
474.5878281172
 20
533.7072579682
 10
474.0356328066
 20
533.259627086
 10
473.4445484456
 20
532.8621088088
 10
472.8193299945
 20
532.5179009259
 10
472.165014046
 20
532.2297720731
 10
471.4868666705
 20
532.0000468314
 10
470.7903506335
 20
531.8305699647
 10
470.0810717519
 20
531.7227123797
 10
469.364743131
 20
531.6773353637
 10
468.6471285399
 20
531.6948084653
 10
467.934008139
 20
531.7749916137
 10
467.2311233457
 20
531.9172380984
 10
466.5441336211
 20
532.1204005301
 10
465.8785702761
 20
532.3828457415
 10
465.2397902783
 20
532.7024577678
 10
464.6329389986
 20
533.0766676486
 10
464.0629010375
 20
533.502459389
 10
463.5342659529
 20
533.9764057219
 10
463.0512910064
 20
534.4946919501
 10
462.617863911
 20
535.0531427682
 10
462.2374745186
 20
535.6472610057
 10
461.913186508
 20
536.2722693503
 10
461.6476105627
 20
536.9231267393
 10
461.442883509
 20
537.5945998848
 10
461.3006549057
 20
538.2812796653
 10
461.2220691617
 20
538.9776362598
 10
461.2052710827
 20
539.4833295167
  0
ARC
  5
209
330
1F
100
AcDbEntity
  8
0
  6
Continuous
 62
     7
370
    15
100
AcDbCircle
 10
469.2052709039
 20
539.4597307323
 30
0.0
 40
1.003188655192945
100
AcDbArc
 50
9.7376484217
 51
170.2623515783
  0
LWPOLYLINE
  5
20A
330
1F
100
AcDbEntity
  8
0
  6
Continuous
 62
     7
370
    15
100
AcDbPolyline
 90
       71
 70
   128
 43
0.0
 10
436.1884730037
 20
539.2697914064
 10
436.1098872598
 20
538.5734333217
 10
435.9676586565
 20
537.8867535413
 10
435.7629316028
 20
537.2152818859
 10
435.4973556574
 20
536.5644215167
 10
435.1730676468
 20
535.9394161523
 10
434.7926782545
 20
535.3452979148
 10
434.359251159
 20
534.7868470967
 10
433.8762762125
 20
534.2685608685
 10
433.3476411279
 20
533.7946145356
 10
432.7776031669
 20
533.3688227952
 10
432.1707518872
 20
532.9946129144
 10
431.5319718894
 20
532.6749979079
 10
430.8664085444
 20
532.4125556767
 10
430.1794188198
 20
532.2093902648
 10
429.4765340265
 20
532.0671467603
 10
428.7634136256
 20
531.9869636119
 10
428.0457990344
 20
531.9694905103
 10
427.3294704135
 20
532.0148645461
 10
426.620191532
 20
532.1227251113
 10
425.923675495
 20
532.292201978
 10
425.2455281194
 20
532.5219272197
 10
424.5912121709
 20
532.8100530923
 10
423.9659937199
 20
533.1542639554
 10
423.3749093588
 20
533.5517822326
 10
422.8227140482
 20
533.9994101346
 10
422.3138572749
 20
534.4935445607
 10
421.8524338778
 20
535.0302069009
 10
421.4421602066
 20
535.6050728381
 10
421.0863383587
 20
536.2135200322
 10
420.7878353175
 20
536.8506430209
 10
420.5490501698
 20
537.5113172949
 10
420.371911126
 20
538.1902201593
 10
420.2578427371
 20
538.8818858683
 10
420.2077599343
 20
539.5807473481
 10
420.2220680293
 20
540.28117643
 10
420.3006537732
 20
540.9775345147
 10
420.4428823765
 20
541.6642128051
 10
420.6476094302
 20
542.3356859505
 10
420.9131868657
 20
542.9865448296
 10
421.2374748763
 20
543.6115501941
 10
421.6178627785
 20
544.2056699217
 10
422.0512898739
 20
544.7641207397
 10
422.5342663105
 20
545.2824054778
 10
423.0628999051
 20
545.7563533008
 10
423.6329378661
 20
546.1821450413
 10
424.2397906359
 20
546.556353432
 10
424.8785691436
 20
546.8759684384
 10
425.5441339787
 20
547.1384121597
 10
426.2311237033
 20
547.3415760815
 10
426.9340084966
 20
547.4838210762
 10
427.6471288975
 20
547.5640027345
 10
428.3647419985
 20
547.5814773262
 10
429.0810721096
 20
547.5361018002
 10
429.7903509911
 20
547.428241235
 10
430.4868670281
 20
547.2587658584
 10
431.1650144037
 20
547.0290406168
 10
431.8193303522
 20
546.7409132541
 10
432.4445473131
 20
546.3967038811
 10
433.0356331643
 20
545.9991856039
 10
433.5878284749
 20
545.5515562117
 10
434.0966852482
 20
545.0574217856
 10
434.5581086453
 20
544.5207609356
 10
434.9683823164
 20
543.9458935082
 10
435.3242041644
 20
543.3374478042
 10
435.6227072056
 20
542.7003233254
 10
435.8614908632
 20
542.0396505416
 10
436.038629907
 20
541.3607476771
 10
436.152699786
 20
540.669080478
 10
436.2027825888
 20
539.9702204883
 10
436.1884730037
 20
539.2697914064
  0
LWPOLYLINE
  5
20B
330
1F
100
AcDbEntity
  8
0
  6
Continuous
 62
     7
370
    15
100
AcDbPolyline
 90
       37
 70
   128
 43
0.0
 10
436.2052710827
 20
539.4833295167
 10
436.1884730037
 20
538.9776362598
 10
436.1098872598
 20
538.2812796653
 10
435.9676586565
 20
537.5945998848
 10
435.7629316028
 20
536.9231267393
 10
435.4973556574
 20
536.2722693503
 10
435.1730676468
 20
535.6472610057
 10
434.7926782545
 20
535.0531427682
 10
434.359251159
 20
534.4946919501
 10
433.8762762125
 20
533.9764057219
 10
433.3476411279
 20
533.502459389
 10
432.7776031669
 20
533.0766676486
 10
432.1707518872
 20
532.7024577678
 10
431.5319718894
 20
532.3828457415
 10
430.8664085444
 20
532.1204005301
 10
430.1794188198
 20
531.9172380984
 10
429.4765340265
 20
531.7749916137
 10
428.7634136256
 20
531.6948084653
 10
428.0457990344
 20
531.6773353637
 10
427.3294704135
 20
531.7227123797
 10
426.620191532
 20
531.8305699647
 10
425.923675495
 20
532.0000468314
 10
425.2455281194
 20
532.2297720731
 10
424.5912121709
 20
532.5179009259
 10
423.9659937199
 20
532.8621088088
 10
423.3749093588
 20
533.259627086
 10
422.8227140482
 20
533.7072579682
 10
422.3138572749
 20
534.2013923943
 10
421.8524338778
 20
534.7380517543
 10
421.4421602066
 20
535.3129206717
 10
421.0863383587
 20
535.9213648856
 10
420.7878353175
 20
536.5584878743
 10
420.5490501698
 20
537.2191621483
 10
420.371911126
 20
537.8980650127
 10
420.2578427371
 20
538.5897322119
 10
420.2077599343
 20
539.2885936916
 10
420.2052714404
 20
539.4833295167
  0
LWPOLYLINE
  5
20C
330
1F
100
AcDbEntity
  8
0
  6
Continuous
 62
     7
370
    15
100
AcDbPolyline
 90
       26
 70
   128
 43
0.0
 10
429.2031707343
 20
539.7122724474
 10
429.1557135161
 20
539.4720597685
 10
429.048533934
 20
539.2509146154
 10
428.8883717831
 20
539.0627278507
 10
428.6852853473
 20
538.9193280161
 10
428.4520389613
 20
538.8297213734
 10
428.203287917
 20
538.7995420516
 10
427.9546605524
 20
538.8306854785
 10
427.7217807349
 20
538.9211921513
 10
427.5192799147
 20
539.0653787673
 10
427.3598821934
 20
539.2541824401
 10
427.2536041316
 20
539.4757418454
 10
427.2071214493
 20
539.7161348284
 10
427.2233577546
 20
539.960257572
 10
427.3012908276
 20
540.1927708209
 10
427.4360241469
 20
540.3990639866
 10
427.6190908726
 20
540.5661745489
 10
427.8389917787
 20
540.6836031497
 10
428.0819060381
 20
540.743972224
 10
428.3325718816
 20
540.7434864462
 10
428.5752387818
 20
540.6821785987
 10
428.7946598705
 20
540.5638991416
 10
428.9770471033
 20
540.3960807741
 10
429.1109414872
 20
540.1892675579
 10
429.1879283365
 20
539.9564547956
 10
429.2031707343
 20
539.7122724474
  0
ARC
  5
20D
330
1F
100
AcDbEntity
  8
0
  6
Continuous
 62
     7
370
    15
100
AcDbCircle
 10
428.2052712615
 20
539.461282685
 30
0.0
 40
1.002927328926692
100
AcDbArc
 50
9.650264965
 51
170.349735035
  0
LINE
  5
20E
330
1F
100
AcDbEntity
  8
0
  6
Continuous
 62
     7
370
    15
100
AcDbLine
 10
468.5352714833
 20
550.8441603303
 30
0.0
 11
468.5352714833
 21
547.5555984795
 31
0.0
  0
LINE
  5
20F
330
1F
100
AcDbEntity
  8
0
  6
Continuous
 62
     7
370
    15
100
AcDbLine
 10
469.8752718147
 20
550.8441603303
 30
0.0
 11
469.8752718147
 21
547.5555984795
 31
0.0
  0
LINE
  5
210
330
1F
100
AcDbEntity
  8
0
  6
Continuous
 62
     7
370
    15
100
AcDbLine
 10
427.5352703508
 20
550.8441603303
 30
0.0
 11
427.5352703508
 21
547.5555984795
 31
0.0
  0
LINE
  5
211
330
1F
100
AcDbEntity
  8
0
  6
Continuous
 62
     7
370
    15
100
AcDbLine
 10
428.8752706822
 20
550.8441603303
 30
0.0
 11
428.8752706822
 21
547.5555984795
 31
0.0
  0
LINE
  5
212
330
1F
100
AcDbEntity
  8
0
  6
Continuous
 62
     7
370
    15
100
AcDbLine
 10
434.7741337594
 20
533.8119535268
 30
0.0
 11
434.7741337594
 21
535.0269942105
 31
0.0
  0
LWPOLYLINE
  5
213
330
1F
100
AcDbEntity
  8
0
  6
Continuous
 62
     7
370
    15
100
AcDbPolyline
 90
        9
 70
   128
 43
0.0
 10
435.5357008155
 20
533.0216674626
 10
435.368317562
 20
533.1483988583
 10
435.2178501066
 20
533.2704900325
 10
435.0865366038
 20
533.3861200631
 10
434.9763276156
 20
533.4935723365
 10
434.8888622697
 20
533.5912464679
 10
434.8254429277
 20
533.6776940644
 10
434.7870083626
 20
533.751630646
 10
434.7741337594
 20
533.8119535268
  0
LINE
  5
214
330
1F
100
AcDbEntity
  8
0
  6
Continuous
 62
     7
370
    15
100
AcDbLine
 10
439.9258801814
 20
529.8003046334
 30
0.0
 11
435.5357008155
 21
533.0216674626
 31
0.0
  0
LWPOLYLINE
  5
215
330
1F
100
AcDbEntity
  8
0
  6
Continuous
 62
     7
370
    15
100
AcDbPolyline
 90
        9
 70
   128
 43
0.0
 10
440.6874472376
 20
529.0100185693
 10
440.6745718893
 20
529.07034145
 10
440.6361388143
 20
529.1442750514
 10
440.5727187272
 20
529.2307256282
 10
440.4852541264
 20
529.3283997596
 10
440.3750451382
 20
529.4358520329
 10
440.2437316354
 20
529.5514820636
 10
440.09326418
 20
529.6735702575
 10
439.9258801814
 20
529.8003046334
  0
LINE
  5
216
330
1F
100
AcDbEntity
  8
0
  6
Continuous
 62
     7
370
    15
100
AcDbLine
 10
440.6874472376
 20
525.0855593503
 30
0.0
 11
440.6874472376
 21
529.0100185693
 31
0.0
  0
LWPOLYLINE
  5
217
330
1F
100
AcDbEntity
  8
0
  6
Continuous
 62
     7
370
    15
100
AcDbPolyline
 90
        9
 70
   128
 43
0.0
 10
438.9553966101
 20
525.6254522622
 10
439.2933027919
 20
525.443431598
 10
439.6182233568
 20
525.2851663649
 10
439.9176718768
 20
525.1567332566
 10
440.18014093
 20
525.0630705178
 10
440.3955439206
 20
525.0077782691
 10
440.5556025084
 20
524.9929784358
 10
440.6541662391
 20
525.0192432225
 10
440.6874472376
 20
525.0855593503
  0
LINE
  5
218
330
1F
100
AcDbEntity
  8
0
  6
Continuous
 62
     7
370
    15
100
AcDbLine
 10
438.5447675463
 20
525.8568255723
 30
0.0
 11
438.9553966101
 21
525.6254522622
 31
0.0
  0
LWPOLYLINE
  5
219
330
1F
100
AcDbEntity
  8
0
  6
Continuous
 62
     7
370
    15
100
AcDbPolyline
 90
        6
 70
   128
 43
0.0
 10
438.9553966101
 20
526.170515877
 10
438.9470758017
 20
526.1539368451
 10
438.9224352416
 20
526.1473713935
 10
438.8824204083
 20
526.1510698617
 10
438.828569847
 20
526.1648921788
 10
438.7795837697
 20
526.1818795026
  0
LINE
  5
21A
330
1F
100
AcDbEntity
  8
0
  6
Continuous
 62
     7
370
    15
100
AcDbLine
 10
438.9553966101
 20
529.754486543
 30
0.0
 11
438.9553966101
 21
526.170515877
 31
0.0
  0
LWPOLYLINE
  5
21B
330
1F
100
AcDbEntity
  8
0
  6
Continuous
 62
     7
370
    15
100
AcDbPolyline
 90
        9
 70
   128
 43
0.0
 10
438.1938295539
 20
530.5447726071
 10
438.3612135526
 20
530.4180382312
 10
438.5116802629
 20
530.2959500373
 10
438.6429945107
 20
530.1803200066
 10
438.7532027539
 20
530.0728677333
 10
438.8406673547
 20
529.9751906216
 10
438.9040881868
 20
529.8887430251
 10
438.9425212618
 20
529.8148094237
 10
438.9553966101
 20
529.754486543
  0
LINE
  5
21C
330
1F
100
AcDbEntity
  8
0
  6
Continuous
 62
     7
370
    15
100
AcDbLine
 10
433.8929222997
 20
533.7006299317
 30
0.0
 11
438.1938295539
 21
530.5447726071
 31
0.0
  0
LINE
  5
21D
330
1F
100
AcDbEntity
  8
0
  6
Continuous
 62
     7
370
    15
100
AcDbLine
 10
435.4441346701
 20
534.9445103228
 30
0.0
 11
435.4441346701
 21
536.1595510066
 31
0.0
  0
LWPOLYLINE
  5
21E
330
1F
100
AcDbEntity
  8
0
  6
Continuous
 62
     7
370
    15
100
AcDbPolyline
 90
        9
 70
   128
 43
0.0
 10
436.2057009812
 20
534.1542242587
 10
436.0383169826
 20
534.2809556544
 10
435.8878495272
 20
534.4030468285
 10
435.7565360244
 20
534.5186768592
 10
435.6463270362
 20
534.6261291325
 10
435.5588631805
 20
534.7238032639
 10
435.4954423483
 20
534.8102508605
 10
435.4570092734
 20
534.8841874421
 10
435.4441346701
 20
534.9445103228
  0
LINE
  5
21F
330
1F
100
AcDbEntity
  8
0
  6
Continuous
 62
     7
370
    15
100
AcDbLine
 10
440.5958803471
 20
530.9328614295
 30
0.0
 11
436.2057009812
 21
534.1542242587
 31
0.0
  0
LWPOLYLINE
  5
220
330
1F
100
AcDbEntity
  8
0
  6
Continuous
 62
     7
370
    15
100
AcDbPolyline
 90
        9
 70
   128
 43
0.0
 10
441.3574474033
 20
530.1425753653
 10
441.344572055
 20
530.2028982461
 10
441.30613898
 20
530.2768318475
 10
441.2427181478
 20
530.363279444
 10
441.155253547
 20
530.4609565556
 10
441.0450453039
 20
530.568408829
 10
440.9137310561
 20
530.6840388596
 10
440.7632643457
 20
530.8061270535
 10
440.5958803471
 20
530.9328614295
  0
LINE
  5
221
330
1F
100
AcDbEntity
  8
0
  6
Continuous
 62
     7
370
    15
100
AcDbLine
 10
441.3574474033
 20
526.2181161464
 30
0.0
 11
441.3574474033
 21
530.1425753653
 31
0.0
  0
LINE
  5
222
330
1F
100
AcDbEntity
  8
0
  6
Continuous
 62
     7
370
    15
100
AcDbLine
 10
441.346741664
 20
526.1757432044
 30
0.0
 11
441.3574474033
 21
526.2181161464
 31
0.0
  0
LWPOLYLINE
  5
223
330
1F
100
AcDbEntity
  8
0
  6
Continuous
 62
     7
370
    15
100
AcDbPolyline
 90
        3
 70
   128
 43
0.0
 10
436.2057009812
 20
541.6600076974
 10
436.0383169826
 20
541.5981127441
 10
435.9883340176
 20
541.5813534081
  0
LINE
  5
224
330
1F
100
AcDbEntity
  8
0
  6
Continuous
 62
     7
370
    15
100
AcDbLine
 10
440.5958803471
 20
543.3860360205
 30
0.0
 11
436.2057009812
 21
541.6600076974
 31
0.0
  0
LWPOLYLINE
  5
225
330
1F
100
AcDbEntity
  8
0
  6
Continuous
 62
     7
370
    15
100
AcDbPolyline
 90
        9
 70
   128
 43
0.0
 10
441.3574474033
 20
543.4539748848
 10
441.344572055
 20
543.499789995
 10
441.30613898
 20
543.5304133714
 10
441.2427181478
 20
543.5453920186
 10
441.155253547
 20
543.5445024193
 10
441.0450453039
 20
543.5277564943
 10
440.9137310561
 20
543.4954060734
 10
440.7632643457
 20
543.4479309738
 10
440.5958803471
 20
543.3860360205
  0
LINE
  5
226
330
1F
100
AcDbEntity
  8
0
  6
Continuous
 62
     7
370
    15
100
AcDbLine
 10
441.3574474033
 20
539.5295171559
 30
0.0
 11
441.3574474033
 21
543.4539748848
 31
0.0
  0
LWPOLYLINE
  5
227
330
1F
100
AcDbEntity
  8
0
  6
Continuous
 62
     7
370
    15
100
AcDbPolyline
 90
        8
 70
   128
 43
0.0
 10
440.0669539448
 20
538.3807315052
 10
440.2882235225
 20
538.5241924346
 10
440.5876720425
 20
538.733215493
 10
440.8501410957
 20
538.9353348434
 10
441.0655440863
 20
539.1227840007
 10
441.2256026741
 20
539.2883582533
 10
441.3241664048
 20
539.4256948054
 10
441.3574474033
 20
539.5295171559
  0
LINE
  5
228
330
1F
100
AcDbEntity
  8
0
  6
Continuous
 62
     7
370
    15
100
AcDbLine
 10
439.6253960308
 20
542.246556145
 30
0.0
 11
439.6253960308
 21
540.2076272786
 31
0.0
  0
LWPOLYLINE
  5
229
330
1F
100
AcDbEntity
  8
0
  6
Continuous
 62
     7
370
    15
100
AcDbPolyline
 90
        9
 70
   128
 43
0.0
 10
438.8638297196
 20
542.1786172808
 10
439.0312129732
 20
542.240512234
 10
439.1816804286
 20
542.2879873336
 10
439.3129946764
 20
542.3203377545
 10
439.4232029196
 20
542.3370821894
 10
439.5106675204
 20
542.3379732788
 10
439.5740883525
 20
542.3229946316
 10
439.6125214275
 20
542.2923712552
 10
439.6253960308
 20
542.246556145
  0
LINE
  5
22A
330
1F
100
AcDbEntity
  8
0
  6
Continuous
 62
     7
370
    15
100
AcDbLine
 10
436.0913159426
 20
541.0885854185
 30
0.0
 11
438.8638297196
 21
542.1786172808
 31
0.0
  0
LINE
  5
22B
330
1F
100
AcDbEntity
  8
0
  6
Continuous
 62
     7
370
    15
100
AcDbLine
 10
439.9258801814
 20
544.5185928166
 30
0.0
 11
435.5768488821
 21
542.8087426842
 31
0.0
  0
LWPOLYLINE
  5
22C
330
1F
100
AcDbEntity
  8
0
  6
Continuous
 62
     7
370
    15
100
AcDbPolyline
 90
        9
 70
   128
 43
0.0
 10
440.6767414983
 20
544.6289061129
 10
440.6745718893
 20
544.6323453009
 10
440.6361388143
 20
544.6629701674
 10
440.5727187272
 20
544.6779473245
 10
440.4852541264
 20
544.6770577252
 10
440.3750451382
 20
544.6603132904
 10
440.2437316354
 20
544.6279628694
 10
440.09326418
 20
544.5804877699
 10
439.9258801814
 20
544.5185928166
  0
LINE
  5
22D
330
1F
100
AcDbEntity
  8
0
  6
Continuous
 62
     7
370
    15
100
AcDbLine
 10
438.9553966101
 20
542.2134949386
 30
0.0
 11
438.9553966101
 21
541.825556618
 31
0.0
  0
LINE
  5
22E
330
1F
100
AcDbEntity
  8
0
  6
Continuous
 62
     7
370
    15
100
AcDbLine
 10
427.5352703508
 20
530.4881750167
 30
0.0
 11
427.5352703508
 21
531.7032157004
 31
0.0
  0
LINE
  5
22F
330
1F
100
AcDbEntity
  8
0
  6
Continuous
 62
     7
370
    15
100
AcDbLine
 10
428.8752706822
 20
530.4881750167
 30
0.0
 11
428.8752706822
 21
531.7032157004
 31
0.0
  0
LINE
  5
230
330
1F
100
AcDbEntity
  8
0
  6
Continuous
 62
     7
370
    15
100
AcDbLine
 10
427.5352703508
 20
529.2687742532
 30
0.0
 11
427.5352703508
 21
530.4881750167
 31
0.0
  0
LINE
  5
231
330
1F
100
AcDbEntity
  8
0
  6
Continuous
 62
     7
370
    15
100
AcDbLine
 10
428.8752706822
 20
529.2687742532
 30
0.0
 11
428.8752706822
 21
530.4881750167
 31
0.0
  0
LINE
  5
232
330
1F
100
AcDbEntity
  8
0
  6
Continuous
 62
     7
370
    15
100
AcDbLine
 10
427.5352703508
 20
523.5737173379
 30
0.0
 11
427.5352703508
 21
529.2687742532
 31
0.0
  0
LINE
  5
233
330
1F
100
AcDbEntity
  8
0
  6
Continuous
 62
     7
370
    15
100
AcDbLine
 10
428.8752706822
 20
523.5737173379
 30
0.0
 11
428.8752706822
 21
529.2687742532
 31
0.0
  0
LINE
  5
234
330
1F
100
AcDbEntity
  8
0
  6
Continuous
 62
     7
370
    15
100
AcDbLine
 10
427.5352703508
 20
522.3543165744
 30
0.0
 11
427.5352703508
 21
523.5737173379
 31
0.0
  0
LINE
  5
235
330
1F
100
AcDbEntity
  8
0
  6
Continuous
 62
     7
370
    15
100
AcDbLine
 10
428.8752706822
 20
522.3543165744
 30
0.0
 11
428.8752706822
 21
523.5737173379
 31
0.0
  0
LINE
  5
236
330
1F
100
AcDbEntity
  8
0
  6
Continuous
 62
     7
370
    15
100
AcDbLine
 10
427.5352703508
 20
518.4298603356
 30
0.0
 11
427.5352703508
 21
522.3543165744
 31
0.0
  0
LINE
  5
237
330
1F
100
AcDbEntity
  8
0
  6
Continuous
 62
     7
370
    15
100
AcDbLine
 10
428.8752706822
 20
518.4298603356
 30
0.0
 11
428.8752706822
 21
522.3543165744
 31
0.0
  0
LINE
  5
238
330
1F
100
AcDbEntity
  8
0
  6
Continuous
 62
     7
370
    15
100
AcDbLine
 10
427.5352703508
 20
518.3817444861
 30
0.0
 11
427.5352703508
 21
518.4298603356
 31
0.0
  0
LINE
  5
239
330
1F
100
AcDbEntity
  8
0
  6
Continuous
 62
     7
370
    15
100
AcDbLine
 10
428.8752706822
 20
518.3817444861
 30
0.0
 11
428.8752706822
 21
518.4298603356
 31
0.0
  0
LINE
  5
23A
330
1F
100
AcDbEntity
  8
0
  6
Continuous
 62
     7
370
    15
100
AcDbLine
 10
422.5176187333
 20
533.7006299317
 30
0.0
 11
418.216711479
 21
530.5447726071
 31
0.0
  0
LWPOLYLINE
  5
23B
330
1F
100
AcDbEntity
  8
0
  6
Continuous
 62
     7
370
    15
100
AcDbPolyline
 90
        9
 70
   128
 43
0.0
 10
418.216711479
 20
530.5447726071
 10
418.0493297156
 20
530.4180382312
 10
417.8988607701
 20
530.2959500373
 10
417.7675487574
 20
530.1803200066
 10
417.6573397692
 20
530.0728677333
 10
417.5698759135
 20
529.9751906216
 10
417.5064535912
 20
529.8887430251
 10
417.4680205162
 20
529.8148094237
 10
417.455145913
 20
529.754486543
  0
LINE
  5
23C
330
1F
100
AcDbEntity
  8
0
  6
Continuous
 62
     7
370
    15
100
AcDbLine
 10
417.455145913
 20
529.754486543
 30
0.0
 11
417.455145913
 21
526.170515877
 31
0.0
  0
LWPOLYLINE
  5
23D
330
1F
100
AcDbEntity
  8
0
  6
Continuous
 62
     7
370
    15
100
AcDbPolyline
 90
        6
 70
   128
 43
0.0
 10
417.455145913
 20
526.170515877
 10
417.4634667214
 20
526.1539368451
 10
417.4881072815
 20
526.1473713935
 10
417.5281228598
 20
526.1510698617
 10
417.5819726761
 20
526.1648921788
 10
417.6297547396
 20
526.1814265073
  0
LINE
  5
23E
330
1F
100
AcDbEntity
  8
0
  6
Continuous
 62
     7
370
    15
100
AcDbLine
 10
417.8671749409
 20
525.8576123536
 30
0.0
 11
417.455145913
 21
525.6254522622
 31
0.0
  0
LWPOLYLINE
  5
23F
330
1F
100
AcDbEntity
  8
0
  6
Continuous
 62
     7
370
    15
100
AcDbPolyline
 90
        9
 70
   128
 43
0.0
 10
417.455145913
 20
525.6254522622
 10
417.117238241
 20
525.443431598
 10
416.7923184212
 20
525.2851663649
 10
416.4928706463
 20
525.1567332566
 10
416.2304015931
 20
525.0630705178
 10
416.0149993475
 20
525.0077782691
 10
415.8549400147
 20
524.9929784358
 10
415.7563747939
 20
525.0192432225
 10
415.7230945405
 20
525.0855593503
  0
LINE
  5
240
330
1F
100
AcDbEntity
  8
0
  6
Continuous
 62
     7
370
    15
100
AcDbLine
 10
415.7230945405
 20
525.0855593503
 30
0.0
 11
415.7230945405
 21
529.0100185693
 31
0.0
  0
LWPOLYLINE
  5
241
330
1F
100
AcDbEntity
  8
0
  6
Continuous
 62
     7
370
    15
100
AcDbPolyline
 90
        9
 70
   128
 43
0.0
 10
415.7230945405
 20
529.0100185693
 10
415.7359691437
 20
529.07034145
 10
415.7744022187
 20
529.1442750514
 10
415.8378245409
 20
529.2307256282
 10
415.9252883967
 20
529.3283997596
 10
416.0354973849
 20
529.4358520329
 10
416.1668093976
 20
529.5514820636
 10
416.3172783431
 20
529.6735702575
 10
416.4846630867
 20
529.8003046334
  0
LINE
  5
242
330
1F
100
AcDbEntity
  8
0
  6
Continuous
 62
     7
370
    15
100
AcDbLine
 10
416.4846630867
 20
529.8003046334
 30
0.0
 11
420.8748402174
 21
533.0216674626
 31
0.0
  0
LWPOLYLINE
  5
243
330
1F
100
AcDbEntity
  8
0
  6
Continuous
 62
     7
370
    15
100
AcDbPolyline
 90
        9
 70
   128
 43
0.0
 10
420.8748402174
 20
533.0216674626
 10
421.0422249611
 20
533.1483988583
 10
421.1926909264
 20
533.2704900325
 10
421.3240059193
 20
533.3861200631
 10
421.4342149075
 20
533.4935723365
 10
421.5216787632
 20
533.5912464679
 10
421.5851010855
 20
533.6776940644
 10
421.6235341605
 20
533.751630646
 10
421.6364087637
 20
533.8119535268
  0
LINE
  5
244
330
1F
100
AcDbEntity
  8
0
  6
Continuous
 62
     7
370
    15
100
AcDbLine
 10
421.6364087637
 20
533.8119535268
 30
0.0
 11
421.6364087637
 21
535.0269942105
 31
0.0
  0
LINE
  5
245
330
1F
100
AcDbEntity
  8
0
  6
Continuous
 62
     7
370
    15
100
AcDbLine
 10
420.966407853
 20
534.9445103228
 30
0.0
 11
420.966407853
 21
536.1595510066
 31
0.0
  0
LWPOLYLINE
  5
246
330
1F
100
AcDbEntity
  8
0
  6
Continuous
 62
     7
370
    15
100
AcDbPolyline
 90
        9
 70
   128
 43
0.0
 10
420.2048422869
 20
534.1542242587
 10
420.3722240504
 20
534.2809556544
 10
420.5226929959
 20
534.4030468285
 10
420.6540050086
 20
534.5186768592
 10
420.7642139967
 20
534.6261291325
 10
420.8516808327
 20
534.7238032639
 10
420.9151001748
 20
534.8102508605
 10
420.9535332497
 20
534.8841874421
 10
420.966407853
 20
534.9445103228
  0
LINE
  5
247
330
1F
100
AcDbEntity
  8
0
  6
Continuous
 62
     7
370
    15
100
AcDbLine
 10
415.814662176
 20
530.9328614295
 30
0.0
 11
420.2048422869
 21
534.1542242587
 31
0.0
  0
LWPOLYLINE
  5
248
330
1F
100
AcDbEntity
  8
0
  6
Continuous
 62
     7
370
    15
100
AcDbPolyline
 90
        9
 70
   128
 43
0.0
 10
415.0530936297
 20
530.1425753653
 10
415.0659712132
 20
530.2028982461
 10
415.1044042881
 20
530.2768318475
 10
415.1678236302
 20
530.363279444
 10
415.2552874859
 20
530.4609565556
 10
415.3654964741
 20
530.568408829
 10
415.496811467
 20
530.6840388596
 10
415.6472774323
 20
530.8061270535
 10
415.814662176
 20
530.9328614295
  0
LINE
  5
249
330
1F
100
AcDbEntity
  8
0
  6
Continuous
 62
     7
370
    15
100
AcDbLine
 10
415.0530936297
 20
526.2181161464
 30
0.0
 11
415.0530936297
 21
530.1425753653
 31
0.0
  0
LINE
  5
24A
330
1F
100
AcDbEntity
  8
0
  6
Continuous
 62
     7
370
    15
100
AcDbLine
 10
415.0638016041
 20
526.1757432044
 30
0.0
 11
415.0530936297
 21
526.2181161464
 31
0.0
  0
LINE
  5
24B
330
1F
100
AcDbEntity
  8
0
  6
Continuous
 62
     7
370
    15
100
AcDbLine
 10
475.7741334017
 20
533.8119535268
 30
0.0
 11
475.7741334017
 21
535.0269942105
 31
0.0
  0
LWPOLYLINE
  5
24C
330
1F
100
AcDbEntity
  8
0
  6
Continuous
 62
     7
370
    15
100
AcDbPolyline
 90
        9
 70
   128
 43
0.0
 10
476.535701948
 20
533.0216674626
 10
476.3683172043
 20
533.1483988583
 10
476.2178512391
 20
533.2704900325
 10
476.0865362462
 20
533.3861200631
 10
475.976327258
 20
533.4935723365
 10
475.8888634022
 20
533.5912464679
 10
475.8254410799
 20
533.6776940644
 10
475.787008005
 20
533.751630646
 10
475.7741334017
 20
533.8119535268
  0
LINE
  5
24D
330
1F
100
AcDbEntity
  8
0
  6
Continuous
 62
     7
370
    15
100
AcDbLine
 10
480.9258790787
 20
529.8003046334
 30
0.0
 11
476.535701948
 21
533.0216674626
 31
0.0
  0
LWPOLYLINE
  5
24E
330
1F
100
AcDbEntity
  8
0
  6
Continuous
 62
     7
370
    15
100
AcDbPolyline
 90
        9
 70
   128
 43
0.0
 10
481.687447625
 20
529.0100185693
 10
481.6745730217
 20
529.07034145
 10
481.6361399468
 20
529.1442750514
 10
481.5727176245
 20
529.2307256282
 10
481.4852537688
 20
529.3283997596
 10
481.3750447806
 20
529.4358520329
 10
481.2437327679
 20
529.5514820636
 10
481.0932638224
 20
529.6735702575
 10
480.9258790787
 20
529.8003046334
  0
LINE
  5
24F
330
1F
100
AcDbEntity
  8
0
  6
Continuous
 62
     7
370
    15
100
AcDbLine
 10
481.687447625
 20
525.0855593503
 30
0.0
 11
481.687447625
 21
529.0100185693
 31
0.0
  0
LWPOLYLINE
  5
250
330
1F
100
AcDbEntity
  8
0
  6
Continuous
 62
     7
370
    15
100
AcDbPolyline
 90
        9
 70
   128
 43
0.0
 10
479.9553962525
 20
525.6254522622
 10
480.2933039244
 20
525.443431598
 10
480.6182237442
 20
525.2851663649
 10
480.9176715191
 20
525.1567332566
 10
481.1801405724
 20
525.0630705178
 10
481.3955428179
 20
525.0077782691
 10
481.5556021508
 20
524.9929784358
 10
481.6541673716
 20
525.0192432225
 10
481.687447625
 20
525.0855593503
  0
LINE
  5
251
330
1F
100
AcDbEntity
  8
0
  6
Continuous
 62
     7
370
    15
100
AcDbLine
 10
479.5430423792
 20
525.857797128
 30
0.0
 11
479.9553962525
 21
525.6254522622
 31
0.0
  0
LWPOLYLINE
  5
252
330
1F
100
AcDbEntity
  8
0
  6
Continuous
 62
     7
370
    15
100
AcDbPolyline
 90
        6
 70
   128
 43
0.0
 10
479.9553962525
 20
526.170515877
 10
479.9470754441
 20
526.1539368451
 10
479.9224348839
 20
526.1473713935
 10
479.8824193057
 20
526.1510698617
 10
479.8285694893
 20
526.1648921788
 10
479.7812851246
 20
526.1812387526
  0
LINE
  5
253
330
1F
100
AcDbEntity
  8
0
  6
Continuous
 62
     7
370
    15
100
AcDbLine
 10
479.9553962525
 20
529.754486543
 30
0.0
 11
479.9553962525
 21
526.170515877
 31
0.0
  0
LWPOLYLINE
  5
254
330
1F
100
AcDbEntity
  8
0
  6
Continuous
 62
     7
370
    15
100
AcDbPolyline
 90
        9
 70
   128
 43
0.0
 10
479.1938306864
 20
530.5447726071
 10
479.3612124499
 20
530.4180382312
 10
479.5116813954
 20
530.2959500373
 10
479.6429934081
 20
530.1803200066
 10
479.7532023962
 20
530.0728677333
 10
479.840666252
 20
529.9751906216
 10
479.9040885743
 20
529.8887430251
 10
479.9425216492
 20
529.8148094237
 10
479.9553962525
 20
529.754486543
  0
LINE
  5
255
330
1F
100
AcDbEntity
  8
0
  6
Continuous
 62
     7
370
    15
100
AcDbLine
 10
474.8929234322
 20
533.7006299317
 30
0.0
 11
479.1938306864
 21
530.5447726071
 31
0.0
  0
LINE
  5
256
330
1F
100
AcDbEntity
  8
0
  6
Continuous
 62
     7
370
    15
100
AcDbLine
 10
476.4441343125
 20
534.9445103228
 30
0.0
 11
476.4441343125
 21
536.1595510066
 31
0.0
  0
LWPOLYLINE
  5
257
330
1F
100
AcDbEntity
  8
0
  6
Continuous
 62
     7
370
    15
100
AcDbPolyline
 90
        9
 70
   128
 43
0.0
 10
477.2056998785
 20
534.1542242587
 10
477.0383181151
 20
534.2809556544
 10
476.8878491696
 20
534.4030468285
 10
476.7565371569
 20
534.5186768592
 10
476.6463281687
 20
534.6261291325
 10
476.5588613327
 20
534.7238032639
 10
476.4954419907
 20
534.8102508605
 10
476.4570089158
 20
534.8841874421
 10
476.4441343125
 20
534.9445103228
  0
LINE
  5
258
330
1F
100
AcDbEntity
  8
0
  6
Continuous
 62
     7
370
    15
100
AcDbLine
 10
481.5958799895
 20
530.9328614295
 30
0.0
 11
477.2056998785
 21
534.1542242587
 31
0.0
  0
LWPOLYLINE
  5
259
330
1F
100
AcDbEntity
  8
0
  6
Continuous
 62
     7
370
    15
100
AcDbPolyline
 90
        9
 70
   128
 43
0.0
 10
482.3574485358
 20
530.1425753653
 10
482.3445709523
 20
530.2028982461
 10
482.3061378773
 20
530.2768318475
 10
482.2427185353
 20
530.363279444
 10
482.1552546795
 20
530.4609565556
 10
482.0450456913
 20
530.568408829
 10
481.9137306984
 20
530.6840388596
 10
481.7632647332
 20
530.8061270535
 10
481.5958799895
 20
530.9328614295
  0
LINE
  5
25A
330
1F
100
AcDbEntity
  8
0
  6
Continuous
 62
     7
370
    15
100
AcDbLine
 10
482.3574485358
 20
526.2181161464
 30
0.0
 11
482.3574485358
 21
530.1425753653
 31
0.0
  0
LINE
  5
25B
330
1F
100
AcDbEntity
  8
0
  6
Continuous
 62
     7
370
    15
100
AcDbLine
 10
482.3467405613
 20
526.1757432044
 30
0.0
 11
482.3574485358
 21
526.2181161464
 31
0.0
  0
LWPOLYLINE
  5
25C
330
1F
100
AcDbEntity
  8
0
  6
Continuous
 62
     7
370
    15
100
AcDbPolyline
 90
        3
 70
   128
 43
0.0
 10
477.2056998785
 20
541.6600076974
 10
477.0383181151
 20
541.5981127441
 10
476.98833366
 20
541.5813534081
  0
LINE
  5
25D
330
1F
100
AcDbEntity
  8
0
  6
Continuous
 62
     7
370
    15
100
AcDbLine
 10
481.5958799895
 20
543.3860360205
 30
0.0
 11
477.2056998785
 21
541.6600076974
 31
0.0
  0
LWPOLYLINE
  5
25E
330
1F
100
AcDbEntity
  8
0
  6
Continuous
 62
     7
370
    15
100
AcDbPolyline
 90
        9
 70
   128
 43
0.0
 10
482.3574485358
 20
543.4539748848
 10
482.3445709523
 20
543.499789995
 10
482.3061378773
 20
543.5304133714
 10
482.2427185353
 20
543.5453920186
 10
482.1552546795
 20
543.5445024193
 10
482.0450456913
 20
543.5277564943
 10
481.9137306984
 20
543.4954060734
 10
481.7632647332
 20
543.4479309738
 10
481.5958799895
 20
543.3860360205
  0
LINE
  5
25F
330
1F
100
AcDbEntity
  8
0
  6
Continuous
 62
     7
370
    15
100
AcDbLine
 10
482.3574485358
 20
539.5295171559
 30
0.0
 11
482.3574485358
 21
543.4539748848
 31
0.0
  0
LWPOLYLINE
  5
260
330
1F
100
AcDbEntity
  8
0
  6
Continuous
 62
     7
370
    15
100
AcDbPolyline
 90
        8
 70
   128
 43
0.0
 10
481.0669543322
 20
538.3807315052
 10
481.288224655
 20
538.5241924346
 10
481.5876724299
 20
538.733215493
 10
481.8501414832
 20
538.9353348434
 10
482.0655437287
 20
539.1227840007
 10
482.2256030615
 20
539.2883582533
 10
482.3241653021
 20
539.4256948054
 10
482.3574485358
 20
539.5295171559
  0
LINE
  5
261
330
1F
100
AcDbEntity
  8
0
  6
Continuous
 62
     7
370
    15
100
AcDbLine
 10
480.6253971632
 20
542.246556145
 30
0.0
 11
480.6253971632
 21
540.193632108
 31
0.0
  0
LWPOLYLINE
  5
262
330
1F
100
AcDbEntity
  8
0
  6
Continuous
 62
     7
370
    15
100
AcDbPolyline
 90
        9
 70
   128
 43
0.0
 10
479.863828617
 20
542.1786172808
 10
480.0312133606
 20
542.240512234
 10
480.1816793259
 20
542.2879873336
 10
480.3129943188
 20
542.3203377545
 10
480.423203307
 20
542.3370821894
 10
480.5106671627
 20
542.3379732788
 10
480.5740865048
 20
542.3229946316
 10
480.61252256
 20
542.2923712552
 10
480.6253971632
 20
542.246556145
  0
LINE
  5
263
330
1F
100
AcDbEntity
  8
0
  6
Continuous
 62
     7
370
    15
100
AcDbLine
 10
477.091315585
 20
541.0885854185
 30
0.0
 11
479.863828617
 21
542.1786172808
 31
0.0
  0
LINE
  5
264
330
1F
100
AcDbEntity
  8
0
  6
Continuous
 62
     7
370
    15
100
AcDbLine
 10
480.9258790787
 20
544.5185928166
 30
0.0
 11
476.5768500145
 21
542.8087426842
 31
0.0
  0
LWPOLYLINE
  5
265
330
1F
100
AcDbEntity
  8
0
  6
Continuous
 62
     7
370
    15
100
AcDbPolyline
 90
        9
 70
   128
 43
0.0
 10
481.6767426308
 20
544.6289061129
 10
481.6745730217
 20
544.6323453009
 10
481.6361399468
 20
544.6629701674
 10
481.5727176245
 20
544.6779473245
 10
481.4852537688
 20
544.6770577252
 10
481.3750447806
 20
544.6603132904
 10
481.2437327679
 20
544.6279628694
 10
481.0932638224
 20
544.5804877699
 10
480.9258790787
 20
544.5185928166
  0
LINE
  5
266
330
1F
100
AcDbEntity
  8
0
  6
Continuous
 62
     7
370
    15
100
AcDbLine
 10
479.9553962525
 20
542.2134949386
 30
0.0
 11
479.9553962525
 21
541.8150021255
 31
0.0
  0
LINE
  5
267
330
1F
100
AcDbEntity
  8
0
  6
Continuous
 62
     7
370
    15
100
AcDbLine
 10
463.5176198657
 20
533.7006299317
 30
0.0
 11
459.2167126115
 21
530.5447726071
 31
0.0
  0
LWPOLYLINE
  5
268
330
1F
100
AcDbEntity
  8
0
  6
Continuous
 62
     7
370
    15
100
AcDbPolyline
 90
        9
 70
   128
 43
0.0
 10
459.2167126115
 20
530.5447726071
 10
459.0493286129
 20
530.4180382312
 10
458.8988619026
 20
530.2959500373
 10
458.7675476547
 20
530.1803200066
 10
458.6573394116
 20
530.0728677333
 10
458.5698748108
 20
529.9751906216
 10
458.5064539786
 20
529.8887430251
 10
458.4680209037
 20
529.8148094237
 10
458.4551455554
 20
529.754486543
  0
LINE
  5
269
330
1F
100
AcDbEntity
  8
0
  6
Continuous
 62
     7
370
    15
100
AcDbLine
 10
458.4551455554
 20
529.754486543
 30
0.0
 11
458.4551455554
 21
526.170515877
 31
0.0
  0
LWPOLYLINE
  5
26A
330
1F
100
AcDbEntity
  8
0
  6
Continuous
 62
     7
370
    15
100
AcDbPolyline
 90
        6
 70
   128
 43
0.0
 10
458.4551455554
 20
526.170515877
 10
458.4634663638
 20
526.1539368451
 10
458.4881069239
 20
526.1473713935
 10
458.5281217571
 20
526.1510698617
 10
458.5819723185
 20
526.1648921788
 10
458.6314709958
 20
526.1820732177
  0
LINE
  5
26B
330
1F
100
AcDbEntity
  8
0
  6
Continuous
 62
     7
370
    15
100
AcDbLine
 10
458.8635312494
 20
525.8555619538
 30
0.0
 11
458.4551455554
 21
525.6254522622
 31
0.0
  0
LWPOLYLINE
  5
26C
330
1F
100
AcDbEntity
  8
0
  6
Continuous
 62
     7
370
    15
100
AcDbPolyline
 90
        9
 70
   128
 43
0.0
 10
458.4551455554
 20
525.6254522622
 10
458.1172393735
 20
525.443431598
 10
457.7923188086
 20
525.2851663649
 10
457.4928702887
 20
525.1567332566
 10
457.2304012354
 20
525.0630705178
 10
457.0149982449
 20
525.0077782691
 10
456.8549396571
 20
524.9929784358
 10
456.7563759263
 20
525.0192432225
 10
456.7230949279
 20
525.0855593503
  0
LINE
  5
26D
330
1F
100
AcDbEntity
  8
0
  6
Continuous
 62
     7
370
    15
100
AcDbLine
 10
456.7230949279
 20
525.0855593503
 30
0.0
 11
456.7230949279
 21
529.0100185693
 31
0.0
  0
LWPOLYLINE
  5
26E
330
1F
100
AcDbEntity
  8
0
  6
Continuous
 62
     7
370
    15
100
AcDbPolyline
 90
        9
 70
   128
 43
0.0
 10
456.7230949279
 20
529.0100185693
 10
456.7359702762
 20
529.07034145
 10
456.7744033512
 20
529.1442750514
 10
456.8378234383
 20
529.2307256282
 10
456.9252880391
 20
529.3283997596
 10
457.0354970273
 20
529.4358520329
 10
457.16681053
 20
529.5514820636
 10
457.3172779854
 20
529.6735702575
 10
457.4846619841
 20
529.8003046334
  0
LINE
  5
26F
330
1F
100
AcDbEntity
  8
0
  6
Continuous
 62
     7
370
    15
100
AcDbLine
 10
457.4846619841
 20
529.8003046334
 30
0.0
 11
461.8748413499
 21
533.0216674626
 31
0.0
  0
LWPOLYLINE
  5
270
330
1F
100
AcDbEntity
  8
0
  6
Continuous
 62
     7
370
    15
100
AcDbPolyline
 90
        9
 70
   128
 43
0.0
 10
461.8748413499
 20
533.0216674626
 10
462.0422246035
 20
533.1483988583
 10
462.1926920589
 20
533.2704900325
 10
462.3240055617
 20
533.3861200631
 10
462.4342145499
 20
533.4935723365
 10
462.5216798957
 20
533.5912464679
 10
462.5850992378
 20
533.6776940644
 10
462.6235338028
 20
533.751630646
 10
462.6364084061
 20
533.8119535268
  0
LINE
  5
271
330
1F
100
AcDbEntity
  8
0
  6
Continuous
 62
     7
370
    15
100
AcDbLine
 10
462.6364084061
 20
533.8119535268
 30
0.0
 11
462.6364084061
 21
535.0269942105
 31
0.0
  0
LINE
  5
272
330
1F
100
AcDbEntity
  8
0
  6
Continuous
 62
     7
370
    15
100
AcDbLine
 10
461.9664074954
 20
534.9445103228
 30
0.0
 11
461.9664074954
 21
536.1595510066
 31
0.0
  0
LWPOLYLINE
  5
273
330
1F
100
AcDbEntity
  8
0
  6
Continuous
 62
     7
370
    15
100
AcDbPolyline
 90
        9
 70
   128
 43
0.0
 10
461.2048411842
 20
534.1542242587
 10
461.3722251829
 20
534.2809556544
 10
461.5226926383
 20
534.4030468285
 10
461.654006141
 20
534.5186768592
 10
461.7642151292
 20
534.6261291325
 10
461.851678985
 20
534.7238032639
 10
461.9150998171
 20
534.8102508605
 10
461.9535328921
 20
534.8841874421
 10
461.9664074954
 20
534.9445103228
  0
LINE
  5
274
330
1F
100
AcDbEntity
  8
0
  6
Continuous
 62
     7
370
    15
100
AcDbLine
 10
456.8146618184
 20
530.9328614295
 30
0.0
 11
461.2048411842
 21
534.1542242587
 31
0.0
  0
LWPOLYLINE
  5
275
330
1F
100
AcDbEntity
  8
0
  6
Continuous
 62
     7
370
    15
100
AcDbPolyline
 90
        9
 70
   128
 43
0.0
 10
456.0530947622
 20
530.1425753653
 10
456.0659701105
 20
530.2028982461
 10
456.1044031855
 20
530.2768318475
 10
456.1678240176
 20
530.363279444
 10
456.2552886184
 20
530.4609565556
 10
456.3654968616
 20
530.568408829
 10
456.4968111094
 20
530.6840388596
 10
456.6472778197
 20
530.8061270535
 10
456.8146618184
 20
530.9328614295
  0
LINE
  5
276
330
1F
100
AcDbEntity
  8
0
  6
Continuous
 62
     7
370
    15
100
AcDbLine
 10
456.0530947622
 20
526.2181161464
 30
0.0
 11
456.0530947622
 21
530.1425753653
 31
0.0
  0
LINE
  5
277
330
1F
100
AcDbEntity
  8
0
  6
Continuous
 62
     7
370
    15
100
AcDbLine
 10
456.0638005014
 20
526.1757432044
 30
0.0
 11
456.0530947622
 21
526.2181161464
 31
0.0
  0
LINE
  5
278
330
1F
100
AcDbEntity
  8
0
  6
Continuous
 62
     7
370
    15
100
AcDbLine
 10
461.3192262228
 20
541.0885854185
 30
0.0
 11
458.5467124458
 21
542.1786172808
 31
0.0
  0
LWPOLYLINE
  5
279
330
1F
100
AcDbEntity
  8
0
  6
Continuous
 62
     7
370
    15
100
AcDbPolyline
 90
        9
 70
   128
 43
0.0
 10
458.5467124458
 20
542.1786172808
 10
458.3793291923
 20
542.240512234
 10
458.2288617369
 20
542.2879873336
 10
458.097547489
 20
542.3203377545
 10
457.9873392459
 20
542.3370821894
 10
457.8998746451
 20
542.3379732788
 10
457.8364538129
 20
542.3229946316
 10
457.798020738
 20
542.2923712552
 10
457.7851461347
 20
542.246556145
  0
LINE
  5
27A
330
1F
100
AcDbEntity
  8
0
  6
Continuous
 62
     7
370
    15
100
AcDbLine
 10
457.7851461347
 20
542.246556145
 30
0.0
 11
457.7851461347
 21
540.2040584505
 31
0.0
  0
LWPOLYLINE
  5
27B
330
1F
100
AcDbEntity
  8
0
  6
Continuous
 62
     7
370
    15
100
AcDbPolyline
 90
        8
 70
   128
 43
0.0
 10
457.3435882207
 20
538.3807315052
 10
457.1223186429
 20
538.5241924346
 10
456.822870123
 20
538.733215493
 10
456.5604010697
 20
538.9353348434
 10
456.3449980792
 20
539.1227840007
 10
456.1849394914
 20
539.2883582533
 10
456.0863757606
 20
539.4256948054
 10
456.0530947622
 20
539.5295171559
  0
LINE
  5
27C
330
1F
100
AcDbEntity
  8
0
  6
Continuous
 62
     7
370
    15
100
AcDbLine
 10
456.0530947622
 20
539.5295171559
 30
0.0
 11
456.0530947622
 21
543.4539748848
 31
0.0
  0
LWPOLYLINE
  5
27D
330
1F
100
AcDbEntity
  8
0
  6
Continuous
 62
     7
370
    15
100
AcDbPolyline
 90
        9
 70
   128
 43
0.0
 10
456.0530947622
 20
543.4539748848
 10
456.0659701105
 20
543.499789995
 10
456.1044031855
 20
543.5304133714
 10
456.1678240176
 20
543.5453920186
 10
456.2552886184
 20
543.5445024193
 10
456.3654968616
 20
543.5277564943
 10
456.4968111094
 20
543.4954060734
 10
456.6472778197
 20
543.4479309738
 10
456.8146618184
 20
543.3860360205
  0
LINE
  5
27E
330
1F
100
AcDbEntity
  8
0
  6
Continuous
 62
     7
370
    15
100
AcDbLine
 10
456.8146618184
 20
543.3860360205
 30
0.0
 11
461.2048411842
 21
541.6600076974
 31
0.0
  0
LWPOLYLINE
  5
27F
330
1F
100
AcDbEntity
  8
0
  6
Continuous
 62
     7
370
    15
100
AcDbPolyline
 90
        3
 70
   128
 43
0.0
 10
461.2048411842
 20
541.6600076974
 10
461.3722251829
 20
541.5981127441
 10
461.4222081479
 20
541.5813534081
  0
LINE
  5
280
330
1F
100
AcDbEntity
  8
0
  6
Continuous
 62
     7
370
    15
100
AcDbLine
 10
457.4846619841
 20
544.5185928166
 30
0.0
 11
461.8336932834
 21
542.8087426842
 31
0.0
  0
LWPOLYLINE
  5
281
330
1F
100
AcDbEntity
  8
0
  6
Continuous
 62
     7
370
    15
100
AcDbPolyline
 90
        9
 70
   128
 43
0.0
 10
456.7338006671
 20
544.6289061129
 10
456.7359702762
 20
544.6323453009
 10
456.7744033512
 20
544.6629701674
 10
456.8378234383
 20
544.6779473245
 10
456.9252880391
 20
544.6770577252
 10
457.0354970273
 20
544.6603132904
 10
457.16681053
 20
544.6279628694
 10
457.3172779854
 20
544.5804877699
 10
457.4846619841
 20
544.5185928166
  0
LINE
  5
282
330
1F
100
AcDbEntity
  8
0
  6
Continuous
 62
     7
370
    15
100
AcDbLine
 10
458.4551455554
 20
542.2134949386
 30
0.0
 11
458.4551455554
 21
541.8283267439
 31
0.0
  0
LINE
  5
283
330
1F
100
AcDbEntity
  8
0
  6
Continuous
 62
     7
370
    15
100
AcDbLine
 10
420.3192265805
 20
541.0885854185
 30
0.0
 11
417.5467135485
 21
542.1786172808
 31
0.0
  0
LWPOLYLINE
  5
284
330
1F
100
AcDbEntity
  8
0
  6
Continuous
 62
     7
370
    15
100
AcDbPolyline
 90
        9
 70
   128
 43
0.0
 10
417.5467135485
 20
542.1786172808
 10
417.3793288048
 20
542.240512234
 10
417.2288628396
 20
542.2879873336
 10
417.0975478466
 20
542.3203377545
 10
416.9873388585
 20
542.3370821894
 10
416.8998750027
 20
542.3379732788
 10
416.8364556607
 20
542.3229946316
 10
416.7980196055
 20
542.2923712552
 10
416.7851450022
 20
542.246556145
  0
LINE
  5
285
330
1F
100
AcDbEntity
  8
0
  6
Continuous
 62
     7
370
    15
100
AcDbLine
 10
416.7851450022
 20
542.246556145
 30
0.0
 11
416.7851450022
 21
540.2087418855
 31
0.0
  0
LWPOLYLINE
  5
286
330
1F
100
AcDbEntity
  8
0
  6
Continuous
 62
     7
370
    15
100
AcDbPolyline
 90
        8
 70
   128
 43
0.0
 10
416.3435878333
 20
538.3807315052
 10
416.1223175105
 20
538.5241924346
 10
415.8228697356
 20
538.733215493
 10
415.5604006823
 20
538.9353348434
 10
415.3449984368
 20
539.1227840007
 10
415.1849391039
 20
539.2883582533
 10
415.0863768633
 20
539.4256948054
 10
415.0530936297
 20
539.5295171559
  0
LINE
  5
287
330
1F
100
AcDbEntity
  8
0
  6
Continuous
 62
     7
370
    15
100
AcDbLine
 10
415.0530936297
 20
539.5295171559
 30
0.0
 11
415.0530936297
 21
543.4539748848
 31
0.0
  0
LWPOLYLINE
  5
288
330
1F
100
AcDbEntity
  8
0
  6
Continuous
 62
     7
370
    15
100
AcDbPolyline
 90
        9
 70
   128
 43
0.0
 10
415.0530936297
 20
543.4539748848
 10
415.0659712132
 20
543.499789995
 10
415.1044042881
 20
543.5304133714
 10
415.1678236302
 20
543.5453920186
 10
415.2552874859
 20
543.5445024193
 10
415.3654964741
 20
543.5277564943
 10
415.496811467
 20
543.4954060734
 10
415.6472774323
 20
543.4479309738
 10
415.814662176
 20
543.3860360205
  0
LINE
  5
289
330
1F
100
AcDbEntity
  8
0
  6
Continuous
 62
     7
370
    15
100
AcDbLine
 10
415.814662176
 20
543.3860360205
 30
0.0
 11
420.2048422869
 21
541.6600076974
 31
0.0
  0
LWPOLYLINE
  5
28A
330
1F
100
AcDbEntity
  8
0
  6
Continuous
 62
     7
370
    15
100
AcDbPolyline
 90
        3
 70
   128
 43
0.0
 10
420.2048422869
 20
541.6600076974
 10
420.3722240504
 20
541.5981127441
 10
420.4222085055
 20
541.5813534081
  0
LINE
  5
28B
330
1F
100
AcDbEntity
  8
0
  6
Continuous
 62
     7
370
    15
100
AcDbLine
 10
416.4846630867
 20
544.5185928166
 30
0.0
 11
420.8336921509
 21
542.8087426842
 31
0.0
  0
LWPOLYLINE
  5
28C
330
1F
100
AcDbEntity
  8
0
  6
Continuous
 62
     7
370
    15
100
AcDbPolyline
 90
        9
 70
   128
 43
0.0
 10
415.7337995347
 20
544.6289061129
 10
415.7359691437
 20
544.6323453009
 10
415.7744022187
 20
544.6629701674
 10
415.8378245409
 20
544.6779473245
 10
415.9252883967
 20
544.6770577252
 10
416.0354973849
 20
544.6603132904
 10
416.1668093976
 20
544.6279628694
 10
416.3172783431
 20
544.5804877699
 10
416.4846630867
 20
544.5185928166
  0
LINE
  5
28D
330
1F
100
AcDbEntity
  8
0
  6
Continuous
 62
     7
370
    15
100
AcDbLine
 10
417.455145913
 20
542.2134949386
 30
0.0
 11
417.455145913
 21
541.8249128878
 31
0.0
  0
LINE
  5
28E
330
1F
100
AcDbEntity
  8
0
  6
Continuous
 62
     7
370
    15
100
AcDbLine
 10
469.8752718147
 20
530.4881750167
 30
0.0
 11
469.8752718147
 21
531.7032157004
 31
0.0
  0
LINE
  5
28F
330
1F
100
AcDbEntity
  8
0
  6
Continuous
 62
     7
370
    15
100
AcDbLine
 10
468.5352714833
 20
530.4881750167
 30
0.0
 11
468.5352714833
 21
531.7032157004
 31
0.0
  0
LINE
  5
290
330
1F
100
AcDbEntity
  8
0
  6
Continuous
 62
     7
370
    15
100
AcDbLine
 10
469.8752718147
 20
529.2687742532
 30
0.0
 11
469.8752718147
 21
530.4881750167
 31
0.0
  0
LINE
  5
291
330
1F
100
AcDbEntity
  8
0
  6
Continuous
 62
     7
370
    15
100
AcDbLine
 10
468.5352714833
 20
529.2687742532
 30
0.0
 11
468.5352714833
 21
530.4881750167
 31
0.0
  0
LINE
  5
292
330
1F
100
AcDbEntity
  8
0
  6
Continuous
 62
     7
370
    15
100
AcDbLine
 10
469.8752718147
 20
523.5737173379
 30
0.0
 11
469.8752718147
 21
529.2687742532
 31
0.0
  0
LINE
  5
293
330
1F
100
AcDbEntity
  8
0
  6
Continuous
 62
     7
370
    15
100
AcDbLine
 10
468.5352714833
 20
523.5737173379
 30
0.0
 11
468.5352714833
 21
529.2687742532
 31
0.0
  0
LINE
  5
294
330
1F
100
AcDbEntity
  8
0
  6
Continuous
 62
     7
370
    15
100
AcDbLine
 10
469.8752718147
 20
522.3543165744
 30
0.0
 11
469.8752718147
 21
523.5737173379
 31
0.0
  0
LINE
  5
295
330
1F
100
AcDbEntity
  8
0
  6
Continuous
 62
     7
370
    15
100
AcDbLine
 10
468.5352714833
 20
522.3543165744
 30
0.0
 11
468.5352714833
 21
523.5737173379
 31
0.0
  0
LINE
  5
296
330
1F
100
AcDbEntity
  8
0
  6
Continuous
 62
     7
370
    15
100
AcDbLine
 10
469.8752718147
 20
518.4298603356
 30
0.0
 11
469.8752718147
 21
522.3543165744
 31
0.0
  0
LINE
  5
297
330
1F
100
AcDbEntity
  8
0
  6
Continuous
 62
     7
370
    15
100
AcDbLine
 10
468.5352714833
 20
518.4298603356
 30
0.0
 11
468.5352714833
 21
522.3543165744
 31
0.0
  0
LINE
  5
298
330
1F
100
AcDbEntity
  8
0
  6
Continuous
 62
     7
370
    15
100
AcDbLine
 10
469.8752718147
 20
518.3817444861
 30
0.0
 11
469.8752718147
 21
518.4298603356
 31
0.0
  0
LINE
  5
299
330
1F
100
AcDbEntity
  8
0
  6
Continuous
 62
     7
370
    15
100
AcDbLine
 10
468.5352714833
 20
518.3817444861
 30
0.0
 11
468.5352714833
 21
518.4298603356
 31
0.0
  0
ARC
  5
29A
330
1F
100
AcDbEntity
  8
0
  6
Continuous
 62
     7
370
    15
100
AcDbCircle
 10
469.5535880427
 20
539.4865060809
 30
0.0
 40
7.651683341754892
100
AcDbArc
 50
334.227405494
 51
359.9762138967
  0
ARC
  5
29B
330
1F
100
AcDbEntity
  8
0
  6
Continuous
 62
     7
370
    15
100
AcDbCircle
 10
469.2433816626
 20
539.72103887
 30
0.0
 40
8.042684473652638
100
AcDbArc
 50
274.5062056121
 51
324.2929219051
  0
ARC
  5
29C
330
1F
100
AcDbEntity
  8
0
  6
Continuous
 62
     7
370
    15
100
AcDbCircle
 10
469.1644782205
 20
539.7162794177
 30
0.0
 40
8.037729235058915
100
AcDbArc
 50
215.6906868225
 51
265.5101980403
  0
ARC
  5
29D
330
1F
100
AcDbEntity
  8
0
  6
Continuous
 62
     7
370
    15
100
AcDbCircle
 10
468.8544303073
 20
539.4859282158
 30
0.0
 40
7.649159665984225
100
AcDbArc
 50
180.019465471
 51
205.7769151383
  0
ARC
  5
29E
330
1F
100
AcDbEntity
  8
0
  6
Continuous
 62
     7
370
    15
100
AcDbCircle
 10
469.2052709039
 20
539.4612809524
 30
0.0
 40
1.002927619374068
100
AcDbArc
 50
9.6503625465
 51
170.3496374535
  0
LINE
  5
29F
330
1F
100
AcDbEntity
  8
0
  6
Continuous
 62
     7
370
    15
100
AcDbLine
 10
475.7741334017
 20
534.7348390639
 30
0.0
 11
475.7741334017
 21
535.0269942105
 31
0.0
  0
ARC
  5
2A0
330
1F
100
AcDbEntity
  8
0
  6
Continuous
 62
     7
370
    15
100
AcDbCircle
 10
469.2433816626
 20
539.4288837234
 30
0.0
 40
8.042684473652638
100
AcDbArc
 50
274.5062056121
 51
324.2929219051
  0
LINE
  5
2A1
330
1F
100
AcDbEntity
  8
0
  6
Continuous
 62
     7
370
    15
100
AcDbLine
 10
469.8752718147
 20
531.4110605538
 30
0.0
 11
469.8752718147
 21
531.7032157004
 31
0.0
  0
ARC
  5
2A2
330
1F
100
AcDbEntity
  8
0
  6
Continuous
 62
     7
370
    15
100
AcDbCircle
 10
469.1644827095
 20
539.4241322381
 30
0.0
 40
8.037737528930158
100
AcDbArc
 50
215.6907142781
 51
265.5101705848
  0
LINE
  5
2A3
330
1F
100
AcDbEntity
  8
0
  6
Continuous
 62
     7
370
    15
100
AcDbLine
 10
462.6364084061
 20
534.7348390639
 30
0.0
 11
462.6364084061
 21
535.0269942105
 31
0.0
  0
LINE
  5
2A4
330
1F
100
AcDbEntity
  8
0
  6
Continuous
 62
     7
370
    15
100
AcDbLine
 10
468.5352714833
 20
531.4110605538
 30
0.0
 11
468.5352714833
 21
531.7032157004
 31
0.0
  0
ARC
  5
2A5
330
1F
100
AcDbEntity
  8
0
  6
Continuous
 62
     7
370
    15
100
AcDbCircle
 10
469.5535760501
 20
539.1943536792
 30
0.0
 40
7.651695334937283
100
AcDbArc
 50
334.2274260305
 51
359.9762045385
  0
LINE
  5
2A6
330
1F
100
AcDbEntity
  8
0
  6
Continuous
 62
     7
370
    15
100
AcDbLine
 10
476.4441343125
 20
535.86739586
 30
0.0
 11
476.4441343125
 21
536.1595510066
 31
0.0
  0
LINE
  5
2A7
330
1F
100
AcDbEntity
  8
0
  6
Continuous
 62
     7
370
    15
100
AcDbLine
 10
461.9664074954
 20
535.86739586
 30
0.0
 11
461.9664074954
 21
536.1595510066
 31
0.0
  0
ARC
  5
2A8
330
1F
100
AcDbEntity
  8
0
  6
Continuous
 62
     7
370
    15
100
AcDbCircle
 10
468.8544455356
 20
539.1937765553
 30
0.0
 40
7.649174894992963
100
AcDbArc
 50
180.0194803829
 51
205.7768890481
  0
ARC
  5
2A9
330
1F
100
AcDbEntity
  8
0
  6
Continuous
 62
     7
370
    15
100
AcDbCircle
 10
469.205271649
 20
539.164090234
 30
0.0
 40
1.006131035304766
100
AcDbArc
 50
18.4993526783
 51
161.5006473217
  0
ARC
  5
2AA
330
1F
100
AcDbEntity
  8
0
  6
Continuous
 62
     7
370
    15
100
AcDbCircle
 10
428.2433815246
 20
539.7210400329
 30
0.0
 40
8.04268555481855
100
AcDbArc
 50
274.5061978984
 51
324.2929172387
  0
ARC
  5
2AB
330
1F
100
AcDbEntity
  8
0
  6
Continuous
 62
     7
370
    15
100
AcDbCircle
 10
428.1644766388
 20
539.7162756939
 30
0.0
 40
8.037725487449979
100
AcDbArc
 50
215.6906733283
 51
265.5101991546
  0
ARC
  5
2AC
330
1F
100
AcDbEntity
  8
0
  6
Continuous
 62
     7
370
    15
100
AcDbCircle
 10
427.854484219
 20
539.4859404796
 30
0.0
 40
7.649213224256751
100
AcDbArc
 50
180.0195571953
 51
205.776823414
  0
ARC
  5
2AD
330
1F
100
AcDbEntity
  8
0
  6
Continuous
 62
     7
370
    15
100
AcDbCircle
 10
428.5536822668
 20
539.4864845858
 30
0.0
 40
7.651589466405999
100
AcDbArc
 50
334.2272448281
 51
359.9763745627
  0
ARC
  5
2AE
330
1F
100
AcDbEntity
  8
0
  6
Continuous
 62
     7
370
    15
100
AcDbCircle
 10
428.2155088592
 20
539.4675272241
 30
0.0
 40
0.9917977432395899
100
AcDbArc
 50
9.3937664927
 51
90.5914326345
  0
ARC
  5
2AF
330
1F
100
AcDbEntity
  8
0
  6
Continuous
 62
     7
370
    15
100
AcDbCircle
 10
428.1950336639
 20
539.4675272241
 30
0.0
 40
0.9917977432395657
100
AcDbArc
 50
89.4085673655
 51
170.6062335073
  0
LINE
  5
2B0
330
1F
100
AcDbEntity
  8
0
  6
Continuous
 62
     7
370
    15
100
AcDbLine
 10
434.7741337594
 20
534.7348390639
 30
0.0
 11
434.7741337594
 21
535.0269942105
 31
0.0
  0
ARC
  5
2B1
330
1F
100
AcDbEntity
  8
0
  6
Continuous
 62
     7
370
    15
100
AcDbCircle
 10
428.2433815246
 20
539.4288848863
 30
0.0
 40
8.04268555481855
100
AcDbArc
 50
274.5061978984
 51
324.2929172387
  0
LINE
  5
2B2
330
1F
100
AcDbEntity
  8
0
  6
Continuous
 62
     7
370
    15
100
AcDbLine
 10
428.8752706822
 20
531.4110605538
 30
0.0
 11
428.8752706822
 21
531.7032157004
 31
0.0
  0
ARC
  5
2B3
330
1F
100
AcDbEntity
  8
0
  6
Continuous
 62
     7
370
    15
100
AcDbCircle
 10
428.1644811278
 20
539.4241285142
 30
0.0
 40
8.037733781307384
100
AcDbArc
 50
215.6907007838
 51
265.510171699
  0
LINE
  5
2B4
330
1F
100
AcDbEntity
  8
0
  6
Continuous
 62
     7
370
    15
100
AcDbLine
 10
421.6364087637
 20
534.7348390639
 30
0.0
 11
421.6364087637
 21
535.0269942105
 31
0.0
  0
LINE
  5
2B5
330
1F
100
AcDbEntity
  8
0
  6
Continuous
 62
     7
370
    15
100
AcDbLine
 10
427.5352703508
 20
531.4110605538
 30
0.0
 11
427.5352703508
 21
531.7032157004
 31
0.0
  0
ARC
  5
2B6
330
1F
100
AcDbEntity
  8
0
  6
Continuous
 62
     7
370
    15
100
AcDbCircle
 10
428.5536702744
 20
539.194332184
 30
0.0
 40
7.651601459371794
100
AcDbArc
 50
334.2272653646
 51
359.9763652043
  0
LINE
  5
2B7
330
1F
100
AcDbEntity
  8
0
  6
Continuous
 62
     7
370
    15
100
AcDbLine
 10
435.4441346701
 20
535.86739586
 30
0.0
 11
435.4441346701
 21
536.1595510066
 31
0.0
  0
LINE
  5
2B8
330
1F
100
AcDbEntity
  8
0
  6
Continuous
 62
     7
370
    15
100
AcDbLine
 10
420.966407853
 20
535.86739586
 30
0.0
 11
420.966407853
 21
536.1595510066
 31
0.0
  0
ARC
  5
2B9
330
1F
100
AcDbEntity
  8
0
  6
Continuous
 62
     7
370
    15
100
AcDbCircle
 10
427.8544994475
 20
539.1937888191
 30
0.0
 40
7.649228453454419
100
AcDbArc
 50
180.0195721072
 51
205.7767973239
  0
ARC
  5
2BA
330
1F
100
AcDbEntity
  8
0
  6
Continuous
 62
     7
370
    15
100
AcDbCircle
 10
428.2142785143
 20
539.1721013175
 30
0.0
 40
0.9950579220070822
100
AcDbArc
 50
18.2264815204
 51
90.5186478116
  0
ARC
  5
2BB
330
1F
100
AcDbEntity
  8
0
  6
Continuous
 62
     7
370
    15
100
AcDbCircle
 10
428.1963103251
 20
539.1720346293
 30
0.0
 40
0.9951241892973605
100
AcDbArc
 50
89.484053563
 51
161.7707323705
  0
ARC
  5
2BC
330
1F
100
AcDbEntity
  8
0
  6
Continuous
 62
     7
370
    15
100
AcDbCircle
 10
428.2052705165
 20
539.1639434756
 30
0.0
 40
1.00617761047776
100
AcDbArc
 50
18.5072778584
 51
161.4927221416
  0
ARC
  5
2BD
330
1F
100
AcDbEntity
  8
0
  6
Continuous
 62
     7
370
    15
100
AcDbCircle
 10
428.2157662311
 20
539.1466526433
 30
0.0
 40
0.9935136493318466
100
AcDbArc
 50
19.0084622787
 51
85.3065863012
  0
ARC
  5
2BE
330
1F
100
AcDbEntity
  8
0
  6
Continuous
 62
     7
370
    15
100
AcDbCircle
 10
428.1989304028
 20
539.1430516422
 30
0.0
 40
0.99861622008509
100
AcDbArc
 50
84.3607293025
 51
160.8738259274
  0
ARC
  5
2BF
330
1F
100
AcDbEntity
  8
0
  6
Continuous
 62
     7
370
    15
100
AcDbCircle
 10
428.7695373613
 20
536.6077339307
 30
0.0
 40
11.43570292689286
100
AcDbArc
 50
350.624180637
 51
10.4496064487
  0
ARC
  5
2C0
330
1F
100
AcDbEntity
  8
0
  6
Continuous
 62
     7
370
    15
100
AcDbCircle
 10
427.6408967752
 20
536.6077202413
 30
0.0
 40
11.43559669503399
100
AcDbArc
 50
169.8777113086
 51
189.9700957398
  0
ARC
  5
2C1
330
1F
100
AcDbEntity
  8
0
  6
Continuous
 62
     7
370
    15
100
AcDbCircle
 10
428.7689698557
 20
533.0867291161
 30
0.0
 40
11.43630114077517
100
AcDbArc
 50
351.114090773
 51
359.998655196
  0
ARC
  5
2C2
330
1F
100
AcDbEntity
  8
0
  6
Continuous
 62
     7
370
    15
100
AcDbCircle
 10
428.2784661667
 20
533.3944043778
 30
0.0
 40
12.01582242425195
100
AcDbArc
 50
272.8469507583
 51
332.6944235461
  0
ARC
  5
2C3
330
1F
100
AcDbEntity
  8
0
  6
Continuous
 62
     7
370
    15
100
AcDbCircle
 10
428.1267874851
 20
533.3861882921
 30
0.0
 40
12.00735485305384
100
AcDbArc
 50
207.2823171984
 51
267.1763007874
  0
ARC
  5
2C4
330
1F
100
AcDbEntity
  8
0
  6
Continuous
 62
     7
370
    15
100
AcDbCircle
 10
427.6390486122
 20
533.0865186138
 30
0.0
 40
11.43377633749003
100
AcDbArc
 50
180.0002902533
 51
188.886819635
  0
ARC
  5
2C5
330
1F
100
AcDbEntity
  8
0
  6
Continuous
 62
     7
370
    15
100
AcDbCircle
 10
428.7781876256
 20
533.1727896175
 30
0.0
 40
11.58706609454672
100
AcDbArc
 50
350.3140259122
 51
9.5320957792
  0
ARC
  5
2C6
330
1F
100
AcDbEntity
  8
0
  6
Continuous
 62
     7
370
    15
100
AcDbCircle
 10
428.2711061157
 20
533.5016034331
 30
0.0
 40
12.19322467256312
100
AcDbArc
 50
272.8401231712
 51
331.1930390345
  0
ARC
  5
2C7
330
1F
100
AcDbEntity
  8
0
  6
Continuous
 62
     7
370
    15
100
AcDbCircle
 10
428.1340821897
 20
533.4930402673
 30
0.0
 40
12.1844077957122
100
AcDbArc
 50
208.7838088929
 51
267.1830212865
  0
ARC
  5
2C8
330
1F
100
AcDbEntity
  8
0
  6
Continuous
 62
     7
370
    15
100
AcDbCircle
 10
427.6330486316
 20
533.1727905481
 30
0.0
 40
11.58774936195847
100
AcDbArc
 50
170.468476186
 51
189.6854021225
  0
ARC
  5
2C9
330
1F
100
AcDbEntity
  8
0
  6
Continuous
 62
     7
370
    15
100
AcDbCircle
 10
469.1946423601
 20
539.173120559
 30
0.0
 40
0.9931992897696665
100
AcDbArc
 50
94.6871710057
 51
161.8001130424
  0
ARC
  5
2CA
330
1F
100
AcDbEntity
  8
0
  6
Continuous
 62
     7
370
    15
100
AcDbCircle
 10
469.2117003805
 20
539.1695273548
 30
0.0
 40
0.9983141926777759
100
AcDbArc
 50
18.3204958983
 51
95.6460930971
  0
ARC
  5
2CB
330
1F
100
AcDbEntity
  8
0
  6
Continuous
 62
     7
370
    15
100
AcDbCircle
 10
469.2052709039
 20
539.1374531397
 30
0.0
 40
1.006446531021402
100
AcDbArc
 50
19.3090229259
 51
160.6909770741
  0
ARC
  5
2CC
330
1F
100
AcDbEntity
  8
0
  6
Continuous
 62
     7
370
    15
100
AcDbCircle
 10
468.6400457795
 20
536.6077253367
 30
0.0
 40
11.43475408290848
100
AcDbArc
 50
170.3047668406
 51
189.1707828208
  0
ARC
  5
2CD
330
1F
100
AcDbEntity
  8
0
  6
Continuous
 62
     7
370
    15
100
AcDbCircle
 10
469.7681386692
 20
536.6077109118
 30
0.0
 40
11.43708067452548
100
AcDbArc
 50
350.2854792016
 51
10.312308594
  0
ARC
  5
2CE
330
1F
100
AcDbEntity
  8
0
  6
Continuous
 62
     7
370
    15
100
AcDbCircle
 10
469.056852275
 20
533.3194901598
 30
0.0
 40
11.91465796431166
100
AcDbArc
 50
207.1514099496
 51
251.6866578626
  0
ARC
  5
2CF
330
1F
100
AcDbEntity
  8
0
  6
Continuous
 62
     7
370
    15
100
AcDbCircle
 10
468.6415723098
 20
533.0867291161
 30
0.0
 40
11.43630114077511
100
AcDbArc
 50
180.001344804
 51
188.885909227
  0
ARC
  5
2D0
330
1F
100
AcDbEntity
  8
0
  6
Continuous
 62
     7
370
    15
100
AcDbCircle
 10
469.7714935533
 20
533.0865186138
 30
0.0
 40
11.43377633749003
100
AcDbArc
 50
351.113180365
 51
359.9997097467
  0
ARC
  5
2D1
330
1F
100
AcDbEntity
  8
0
  6
Continuous
 62
     7
370
    15
100
AcDbCircle
 10
469.3418861893
 20
533.33141329
 30
0.0
 40
11.93060280908712
100
AcDbArc
 50
286.8668196832
 51
332.8235076457
  0
LINE
  5
2D2
330
1F
100
AcDbEntity
  8
0
  6
Continuous
 62
     7
370
    15
100
AcDbLine
 10
470.3214245018
 20
521.3554261744
 30
0.0
 11
469.8752718147
 21
521.3233558953
 31
0.0
  0
ARC
  5
2D3
330
1F
100
AcDbEntity
  8
0
  6
Continuous
 62
     7
370
    15
100
AcDbCircle
 10
469.1244743714
 20
533.4776751542
 30
0.0
 40
12.16859222301433
100
AcDbArc
 50
208.7421829872
 51
267.224654807
  0
ARC
  5
2D4
330
1F
100
AcDbEntity
  8
0
  6
Continuous
 62
     7
370
    15
100
AcDbCircle
 10
468.633149557
 20
533.1727906851
 30
0.0
 40
11.58784995881166
100
AcDbArc
 50
170.4685603902
 51
189.6853179183
  0
ARC
  5
2D5
330
1F
100
AcDbEntity
  8
0
  6
Continuous
 62
     7
370
    15
100
AcDbCircle
 10
469.7783219837
 20
533.1727894356
 30
0.0
 40
11.58693253419549
100
AcDbArc
 50
350.3139141004
 51
9.532207591
  0
ARC
  5
2D6
330
1F
100
AcDbEntity
  8
0
  6
Continuous
 62
     7
370
    15
100
AcDbCircle
 10
469.2877026642
 20
533.4794488367
 30
0.0
 40
12.16801160229836
100
AcDbArc
 50
274.8733824362
 51
331.2467916261
  0
LINE
  5
2D7
330
1F
100
AcDbEntity
  8
0
  6
Continuous
 62
     7
370
    15
100
AcDbLine
 10
765.0140563933
 20
539.1809395783
 30
0.0
 11
765.9615794511
 21
539.7279329964
 31
0.0
  0
LINE
  5
2D8
330
1F
100
AcDbEntity
  8
0
  6
Continuous
 62
     7
370
    15
100
AcDbLine
 10
723.9712559062
 20
578.9815710294
 30
0.0
 11
723.0237328484
 21
578.4345776112
 31
0.0
  0
LINE
  5
2D9
330
1F
100
AcDbEntity
  8
0
  6
Continuous
 62
     7
370
    15
100
AcDbLine
 10
751.1545834034
 20
543.0603248311
 30
0.0
 11
751.3649225192
 21
542.9388986441
 31
0.0
  0
LINE
  5
2DA
330
1F
100
AcDbEntity
  8
0
  6
Continuous
 62
     7
370
    15
100
AcDbLine
 10
722.1632056276
 20
559.7966909774
 30
0.0
 11
722.3735447434
 21
559.6752647905
 31
0.0
  0
LINE
  5
2DB
330
1F
100
AcDbEntity
  8
0
  6
Continuous
 62
     7
370
    15
100
AcDbLine
 10
735.9692993705
 20
548.9358097757
 30
0.0
 11
735.7627165925
 21
547.7487097805
 31
0.0
  0
LINE
  5
2DC
330
1F
100
AcDbEntity
  8
0
  6
Continuous
 62
     7
370
    15
100
AcDbLine
 10
751.5258086304
 20
545.005551156
 30
0.0
 11
751.732392462
 21
546.1926520637
 31
0.0
  0
LINE
  5
2DD
330
1F
100
AcDbEntity
  8
0
  6
Continuous
 62
     7
370
    15
100
AcDbLine
 10
706.9779205411
 20
565.6721765304
 30
0.0
 11
706.7713377631
 21
564.4850765351
 31
0.0
  0
LINE
  5
2DE
330
1F
100
AcDbEntity
  8
0
  6
Continuous
 62
     7
370
    15
100
AcDbLine
 10
722.5344298009
 20
561.7419179106
 30
0.0
 11
722.7410136326
 21
562.9290188183
 31
0.0
  0
LINE
  5
2DF
330
1F
100
AcDbEntity
  8
0
  6
Continuous
 62
     7
370
    15
100
AcDbLine
 10
752.7958554414
 20
549.0408537087
 30
0.0
 11
752.4696325119
 21
549.2291781973
 31
0.0
  0
LINE
  5
2E0
330
1F
100
AcDbEntity
  8
0
  6
Continuous
 62
     7
370
    15
100
AcDbLine
 10
723.8044776656
 20
565.777219855
 30
0.0
 11
723.4782536824
 21
565.9655449519
 31
0.0
  0
LINE
  5
2E1
330
1F
100
AcDbEntity
  8
0
  6
Continuous
 62
     7
370
    15
100
AcDbLine
 10
712.7358127772
 20
528.3310700189
 30
0.0
 11
714.0104130284
 21
528.3132922537
 31
0.0
  0
LINE
  5
2E2
330
1F
100
AcDbEntity
  8
0
  6
Continuous
 62
     7
370
    15
100
AcDbLine
 10
723.7719914016
 20
531.8264806475
 30
0.0
 11
724.0990683316
 21
532.3556964525
 31
0.0
  0
LINE
  5
2E3
330
1F
100
AcDbEntity
  8
0
  6
Continuous
 62
     7
370
    15
100
AcDbLine
 10
699.6723428172
 20
531.9780928472
 30
0.0
 11
700.6198661383
 21
531.431099277
 31
0.0
  0
LINE
  5
2E4
330
1F
100
AcDbEntity
  8
0
  6
Continuous
 62
     7
370
    15
100
AcDbLine
 10
707.5353442228
 20
557.8596866292
 30
0.0
 11
707.8624227333
 21
558.3889015218
 31
0.0
  0
LINE
  5
2E5
330
1F
100
AcDbEntity
  8
0
  6
Continuous
 62
     7
370
    15
100
AcDbLine
 10
698.9615246267
 20
556.6341819268
 30
0.0
 11
698.6344461162
 21
556.104968251
 31
0.0
  0
LINE
  5
2E6
330
1F
100
AcDbEntity
  8
0
  6
Continuous
 62
     7
370
    15
100
AcDbLine
 10
741.7271900262
 20
511.5947041767
 30
0.0
 11
743.0017908041
 21
511.5769261073
 31
0.0
  0
LINE
  5
2E7
330
1F
100
AcDbEntity
  8
0
  6
Continuous
 62
     7
370
    15
100
AcDbLine
 10
752.7633686505
 20
515.0901148053
 30
0.0
 11
753.090447161
 21
515.6193296978
 31
0.0
  0
LINE
  5
2E8
330
1F
100
AcDbEntity
  8
0
  6
Continuous
 62
     7
370
    15
100
AcDbLine
 10
736.5267230522
 20
541.1233198746
 30
0.0
 11
736.8538005091
 21
541.6525353754
 31
0.0
  0
LINE
  5
2E9
330
1F
100
AcDbEntity
  8
0
  6
Continuous
 62
     7
370
    15
100
AcDbLine
 10
727.9529018756
 20
539.8978160845
 30
0.0
 11
727.6258249456
 21
539.3686014963
 31
0.0
  0
LINE
  5
2EA
330
1F
100
AcDbEntity
  8
0
  6
Continuous
 62
     7
370
    15
100
AcDbLine
 10
728.6637216467
 20
515.2417260925
 30
0.0
 11
729.6112449678
 21
514.6947325223
 31
0.0
  0
LINE
  5
2EB
330
1F
100
AcDbEntity
  8
0
  6
Continuous
 62
     7
370
    15
100
AcDbLine
 10
735.7627165925
 20
547.7487097805
 30
0.0
 11
735.5561317072
 21
546.5616082645
 31
0.0
  0
LINE
  5
2EC
330
1F
100
AcDbEntity
  8
0
  6
Continuous
 62
     7
370
    15
100
AcDbLine
 10
751.319223745
 20
543.81844964
 30
0.0
 11
751.5258086304
 21
545.005551156
 31
0.0
  0
LINE
  5
2ED
330
1F
100
AcDbEntity
  8
0
  6
Continuous
 62
     7
370
    15
100
AcDbLine
 10
706.7713377631
 20
564.4850765351
 30
0.0
 11
706.5647528778
 21
563.2979750191
 31
0.0
  0
LINE
  5
2EE
330
1F
100
AcDbEntity
  8
0
  6
Continuous
 62
     7
370
    15
100
AcDbLine
 10
722.3278449156
 20
560.5548163946
 30
0.0
 11
722.5344298009
 21
561.7419179106
 31
0.0
  0
LINE
  5
2EF
330
1F
100
AcDbEntity
  8
0
  6
Continuous
 62
     7
370
    15
100
AcDbLine
 10
719.2651029766
 20
555.9834943458
 30
0.0
 11
718.7481750406
 21
556.3163910189
 31
0.0
  0
LINE
  5
2F0
330
1F
100
AcDbEntity
  8
0
  6
Continuous
 62
     7
370
    15
100
AcDbLine
 10
708.0448648501
 20
557.9935540704
 30
0.0
 11
707.5468060582
 21
557.878227009
 31
0.0
  0
ARC
  5
2F1
330
1F
100
AcDbEntity
  8
0
  6
Continuous
 62
     7
370
    15
100
AcDbCircle
 10
704.4067726036
 20
552.906934357
 30
0.0
 40
3.649737361071367
100
AcDbArc
 50
132.723144
 51
170.6923909246
  0
LINE
  5
2F2
330
1F
100
AcDbEntity
  8
0
  6
Continuous
 62
     7
370
    15
100
AcDbLine
 10
721.9519345396
 20
535.0639319781
 30
0.0
 11
724.4078177046
 21
549.1762483707
 31
0.0
  0
LINE
  5
2F3
330
1F
100
AcDbEntity
  8
0
  6
Continuous
 62
     7
370
    15
100
AcDbLine
 10
700.7971968961
 20
553.4864674022
 30
0.0
 11
698.307295956
 21
539.1786696107
 31
0.0
  0
LINE
  5
2F4
330
1F
100
AcDbEntity
  8
0
  6
Continuous
 62
     7
370
    15
100
AcDbLine
 10
718.7135766927
 20
556.1175727581
 30
0.0
 11
719.1132773842
 21
558.414385658
 31
0.0
  0
LWPOLYLINE
  5
2F5
330
1F
100
AcDbEntity
  8
0
  6
Continuous
 62
     7
370
    15
100
AcDbPolyline
 90
        3
 70
   128
 43
0.0
 10
718.7119761661
 20
556.0364236831
 10
718.7097023436
 20
556.0549086031
 10
718.7134576278
 20
556.1163923083
  0
LWPOLYLINE
  5
2F6
330
1F
100
AcDbEntity
  8
0
  6
Continuous
 62
     7
370
    15
100
AcDbPolyline
 90
       16
 70
   128
 43
0.0
 10
698.6425909946
 20
541.1053808451
 10
698.6016727268
 20
541.0706859757
 10
698.2682869404
 20
540.7141629195
 10
697.9976219866
 20
540.337656147
 10
697.7915428634
 20
539.9451570707
 10
697.6503719943
 20
539.5406768011
 10
697.5732390469
 20
539.1273580322
 10
697.5589428359
 20
538.7071111802
 10
697.6065477013
 20
538.2820096055
 10
697.7156953948
 20
537.8524915273
 10
697.8867399502
 20
537.4191434086
 10
698.1200417227
 20
536.9834408425
 10
698.4152234983
 20
536.5478155094
 10
698.7708375326
 20
536.1152318895
 10
699.1845467829
 20
535.6886204057
 10
699.6420792726
 20
535.2807429009
  0
LWPOLYLINE
  5
2F7
330
1F
100
AcDbEntity
  8
0
  6
Continuous
 62
     7
370
    15
100
AcDbPolyline
 90
       16
 70
   128
 43
0.0
 10
701.7438625289
 20
533.8761893853
 10
702.0187453285
 20
533.7240423388
 10
702.7166781738
 20
533.3768242148
 10
703.4505991593
 20
533.048313005
 10
704.2169268567
 20
532.7399022636
 10
705.0119407528
 20
532.4529344638
 10
705.8317759817
 20
532.188674839
 10
706.6724486124
 20
531.948321117
 10
707.5298693472
 20
531.7329737114
 10
708.3998645941
 20
531.5436381557
 10
709.2781949072
 20
531.381204724
 10
710.160583435
 20
531.246461207
 10
711.0427080181
 20
531.1400682736
 10
711.9202680975
 20
531.0625670763
 10
712.7890068416
 20
531.0143689077
 10
712.8822967834
 20
531.012343411
  0
LWPOLYLINE
  5
2F8
330
1F
100
AcDbEntity
  8
0
  6
Continuous
 62
     7
370
    15
100
AcDbPolyline
 90
       15
 70
   128
 43
0.0
 10
714.8583586247
 20
531.0257390159
 10
715.3007024439
 20
531.0479185126
 10
716.0930410688
 20
531.1186687117
 10
716.8565607324
 20
531.219038247
 10
717.5876552449
 20
531.34879521
 10
718.2828927992
 20
531.5076508297
 10
718.9389948973
 20
531.6952643411
 10
719.5528326625
 20
531.9112791832
 10
720.1213704682
 20
532.1553239177
 10
720.6415937609
 20
532.4269833417
 10
721.1102545991
 20
532.7256144999
 10
721.523869019
 20
533.0501000242
 10
721.8789641202
 20
533.3986531499
 10
722.1723104005
 20
533.7684548222
 10
722.2478786462
 20
533.8961045775
  0
ARC
  5
2F9
330
1F
100
AcDbEntity
  8
0
  6
Continuous
 62
     7
370
    15
100
AcDbCircle
 10
719.744585278
 20
535.5309853534
 30
0.0
 40
2.929013907031549
100
AcDbArc
 50
10.4599040939
 51
29.7925143733
  0
LINE
  5
2FA
330
1F
100
AcDbEntity
  8
0
  6
Continuous
 62
     7
370
    15
100
AcDbLine
 10
748.2564807524
 20
539.2471281994
 30
0.0
 11
747.7395528164
 21
539.5800248725
 31
0.0
  0
LINE
  5
2FB
330
1F
100
AcDbEntity
  8
0
  6
Continuous
 62
     7
370
    15
100
AcDbLine
 10
737.0362420991
 20
541.2571882282
 30
0.0
 11
736.5381833072
 21
541.1418611668
 31
0.0
  0
ARC
  5
2FC
330
1F
100
AcDbEntity
  8
0
  6
Continuous
 62
     7
370
    15
100
AcDbCircle
 10
733.3652693078
 20
536.1821021548
 30
0.0
 40
3.613600517212724
100
AcDbArc
 50
132.271240688
 51
171.0719725154
  0
LINE
  5
2FD
330
1F
100
AcDbEntity
  8
0
  6
Continuous
 62
     7
370
    15
100
AcDbLine
 10
750.9433128422
 20
518.3275655276
 30
0.0
 11
753.3991960072
 21
532.4398819202
 31
0.0
  0
LINE
  5
2FE
330
1F
100
AcDbEntity
  8
0
  6
Continuous
 62
     7
370
    15
100
AcDbLine
 10
729.7885751987
 20
536.7501009516
 30
0.0
 11
727.2986742586
 21
522.4423031602
 31
0.0
  0
LINE
  5
2FF
330
1F
100
AcDbEntity
  8
0
  6
Continuous
 62
     7
370
    15
100
AcDbLine
 10
747.7049544685
 20
539.3812066117
 30
0.0
 11
748.10465516
 21
541.6780195116
 31
0.0
  0
LWPOLYLINE
  5
300
330
1F
100
AcDbEntity
  8
0
  6
Continuous
 62
     7
370
    15
100
AcDbPolyline
 90
        4
 70
   128
 43
0.0
 10
747.7020189405
 20
539.3044017373
 10
747.7026922364
 20
539.3031323917
 10
747.701062207
 20
539.3473443616
 10
747.7074411325
 20
539.3808979363
  0
ARC
  5
301
330
1F
100
AcDbEntity
  8
0
  6
Continuous
 62
     7
370
    15
100
AcDbCircle
 10
742.6497074201
 20
540.5739421973
 30
0.0
 40
26.30854899394044
100
AcDbArc
 50
244.390336886
 51
268.3100086088
  0
LWPOLYLINE
  5
302
330
1F
100
AcDbEntity
  8
0
  6
Continuous
 62
     7
370
    15
100
AcDbPolyline
 90
       15
 70
   128
 43
0.0
 10
743.8497369273
 20
514.2893676992
 10
744.2236995921
 20
514.3069202609
 10
745.0183130932
 20
514.3751528683
 10
745.7844163586
 20
514.4730187904
 10
746.518395296
 20
514.6002955456
 10
747.2168022933
 20
514.7566961868
 10
747.8763456816
 20
514.941885118
 10
748.4938855207
 20
515.1555072979
 10
749.0663809154
 20
515.3971894595
 10
749.5908183661
 20
515.6665255219
 10
750.0639862829
 20
515.9629075007
 10
750.4824043899
 20
516.2852609097
 10
750.8425934646
 20
516.6318671109
 10
751.1412808043
 20
517.0000001226
 10
751.2395830601
 20
517.1616203775
  0
ARC
  5
303
330
1F
100
AcDbEntity
  8
0
  6
Continuous
 62
     7
370
    15
100
AcDbCircle
 10
748.7188482841
 20
518.7907178229
 30
0.0
 40
2.94723570141912
100
AcDbArc
 50
10.5099108492
 51
29.7265655263
  0
LWPOLYLINE
  5
304
330
1F
100
AcDbEntity
  8
0
  6
Continuous
 62
     7
370
    15
100
AcDbPolyline
 90
       16
 70
   128
 43
0.0
 10
727.6330362714
 20
524.3636650863
 10
727.5211917063
 20
524.2644860023
 10
727.200188664
 20
523.9036608642
 10
726.9423943041
 20
523.5236068444
 10
726.7493722746
 20
523.1283969087
 10
726.6211589273
 20
522.7219275543
 10
726.5567364156
 20
522.3071030594
 10
726.5549372721
 20
521.8857535446
 10
726.6148995934
 20
521.4597418886
 10
726.7364358263
 20
521.0293858421
 10
726.9199653318
 20
520.5954141685
 10
727.165757323
 20
520.1595058982
 10
727.4732227975
 20
519.7242465911
 10
727.8407127601
 20
519.2926366125
 10
728.2657500296
 20
518.8675486055
 10
728.6340976805
 20
518.5480530119
  0
LWPOLYLINE
  5
305
330
1F
100
AcDbEntity
  8
0
  6
Continuous
 62
     7
370
    15
100
AcDbPolyline
 90
        3
 70
   128
 43
0.0
 10
730.7351560109
 20
517.1393317769
 10
731.1106106742
 20
516.9353711437
 10
731.2781570411
 20
516.8499545025
  0
LINE
  5
306
330
1F
100
AcDbEntity
  8
0
  6
Continuous
 62
     7
370
    15
100
AcDbLine
 10
758.5145835088
 20
561.054606143
 30
0.0
 11
729.523205733
 21
577.7909722894
 31
0.0
  0
LWPOLYLINE
  5
307
330
1F
100
AcDbEntity
  8
0
  6
Continuous
 62
     7
370
    15
100
AcDbPolyline
 90
       43
 70
   128
 43
0.0
 10
758.5145835088
 20
539.8245458127
 10
759.2015318316
 20
539.4576601579
 10
759.8846384693
 20
539.1521891257
 10
760.5600828098
 20
538.9098443117
 10
761.224087442
 20
538.7319765519
 10
761.8729402822
 20
538.6195850504
 10
762.5030103793
 20
538.5732936544
 10
763.1107784716
 20
538.5933624163
 10
763.6928412009
 20
538.6796815099
 10
764.2459448306
 20
538.8317663673
 10
764.7669957821
 20
539.0487661964
 10
765.253081708
 20
539.3294688504
 10
765.7014820293
 20
539.6723044785
 10
766.1096911158
 20
540.0753540456
 10
766.4754246085
 20
540.5363651505
 10
766.796638385
 20
541.0527581113
 10
767.0715369898
 20
541.621645434
 10
767.2985799553
 20
542.2398476308
 10
767.4764986616
 20
542.903905389
 10
767.6043005504
 20
543.6101051232
 10
767.6812670178
 20
544.3544996593
 10
767.7069723807
 20
545.1329228374
 10
767.6812670178
 20
545.9410241874
 10
767.6043005504
 20
546.7742817068
 10
767.4764986616
 20
547.6280383609
 10
767.2985799553
 20
548.4975172933
 10
767.0715369898
 20
549.3778577184
 10
766.796638385
 20
550.2641362142
 10
766.4754246085
 20
551.1513953157
 10
766.1096911158
 20
552.0346730188
 10
765.7014820293
 20
552.9090307653
 10
765.253081708
 20
553.7695777761
 10
764.7669957821
 20
554.6115026858
 10
764.2459448306
 20
555.4300962029
 10
763.6928412009
 20
556.2207809181
 10
763.1107784716
 20
556.9791348781
 10
762.5030103793
 20
557.7009178189
 10
761.8729402822
 20
558.3820907852
 10
761.224087442
 20
559.0188467736
 10
760.5600828098
 20
559.6076235463
 10
759.8846384693
 20
560.1451291322
 10
759.2015318316
 20
560.6283575382
 10
758.5145835088
 20
561.054606143
  0
LINE
  5
308
330
1F
100
AcDbEntity
  8
0
  6
Continuous
 62
     7
370
    15
100
AcDbLine
 10
729.523205733
 20
556.5609119591
 30
0.0
 11
739.0642607313
 21
551.0529781482
 31
0.0
  0
LINE
  5
309
330
1F
100
AcDbEntity
  8
0
  6
Continuous
 62
     7
370
    15
100
AcDbLine
 10
752.8636510179
 20
543.0867597015
 30
0.0
 11
758.5145835088
 21
539.8245458127
 31
0.0
  0
LWPOLYLINE
  5
30A
330
1F
100
AcDbEntity
  8
0
  6
Continuous
 62
     7
370
    15
100
AcDbPolyline
 90
       29
 70
   128
 43
0.0
 10
729.523205733
 20
577.7909722894
 10
728.8362574101
 20
578.1578573358
 10
728.1531507725
 20
578.4633270657
 10
727.477706432
 20
578.7056729158
 10
726.8137017998
 20
578.883539573
 10
726.1648489596
 20
578.9959331277
 10
725.5347788625
 20
579.0422236111
 10
724.9270107702
 20
579.0221547732
 10
724.3449480409
 20
578.9358361359
 10
723.7918444112
 20
578.7837512785
 10
723.2707934597
 20
578.5667503847
 10
722.7847075338
 20
578.2860483391
 10
722.3363072125
 20
577.9432133194
 10
721.928098126
 20
577.5401637523
 10
721.5623646333
 20
577.0791529515
 10
721.2411508568
 20
576.5627593824
 10
720.966252252
 20
575.9938720597
 10
720.7392092865
 20
575.3756698629
 10
720.5612905801
 20
574.7116114963
 10
720.4334886914
 20
574.0054117621
 10
720.356522224
 20
573.2610178344
 10
720.3308168611
 20
572.4825952647
 10
720.356522224
 20
571.6744933063
 10
720.4334886914
 20
570.8412351785
 10
720.5612905801
 20
569.9874785244
 10
720.7392092865
 20
569.1180002004
 10
720.966252252
 20
568.2376597753
 10
721.2411508568
 20
567.3513812795
 10
721.4975217069
 20
566.6334152094
  0
ARC
  5
30B
330
1F
100
AcDbEntity
  8
0
  6
Continuous
 62
     7
370
    15
100
AcDbCircle
 10
738.0713272451
 20
570.8183368222
 30
0.0
 40
16.6236140810095
100
AcDbArc
 50
218.3799372261
 51
239.0549617098
  0
LWPOLYLINE
  5
30C
330
1F
100
AcDbEntity
  8
0
  6
Continuous
 62
     7
370
    15
100
AcDbPolyline
 90
       20
 70
   128
 43
0.0
 10
758.5145835088
 20
553.950701284
 10
758.6753020862
 20
553.8888901233
 10
758.8186034785
 20
553.8957167089
 10
758.928959733
 20
553.9704416304
 10
758.994412735
 20
554.1049657487
 10
759.0078681164
 20
554.2847130621
 10
758.9678686498
 20
554.4902040248
 10
758.878748085
 20
554.6991714732
 10
758.7501654259
 20
554.8889697288
 10
758.596053367
 20
555.0390310986
 10
758.4331136506
 20
555.1330941947
 10
758.2790015917
 20
555.1609668206
 10
758.1504189326
 20
555.1196269432
 10
758.0612994214
 20
555.0135553005
 10
758.0212999548
 20
554.8542467389
 10
758.0347553362
 20
554.6589641729
 10
758.1002072846
 20
554.4488702352
 10
758.2105635391
 20
554.2467306943
 10
758.353865985
 20
554.0744512347
 10
758.5145835088
 20
553.950701284
  0
LWPOLYLINE
  5
30D
330
1F
100
AcDbEntity
  8
0
  6
Continuous
 62
     7
370
    15
100
AcDbPolyline
 90
       20
 70
   128
 43
0.0
 10
729.523205733
 20
570.6870674304
 10
729.6839232568
 20
570.625256878
 10
729.8272257027
 20
570.6320828552
 10
729.9375819572
 20
570.7068077768
 10
730.0030339056
 20
570.8413325034
 10
730.016489287
 20
571.0210798168
 10
729.9764898204
 20
571.2265707794
 10
729.8873703092
 20
571.4355376196
 10
729.7587876501
 20
571.6253358752
 10
729.6046755912
 20
571.775397245
 10
729.4417358748
 20
571.8694603411
 10
729.2876238159
 20
571.897332967
 10
729.1590411568
 20
571.8559930896
 10
729.069920592
 20
571.7499220552
 10
729.0299211254
 20
571.5906134936
 10
729.0433765068
 20
571.3953309275
 10
729.1088295088
 20
571.1852363816
 10
729.2191857633
 20
570.9830968407
 10
729.3624871556
 20
570.8108179894
 10
729.523205733
 20
570.6870674304
  0
LWPOLYLINE
  5
30E
330
1F
100
AcDbEntity
  8
0
  6
Continuous
 62
     7
370
    15
100
AcDbPolyline
 90
       24
 70
   128
 43
0.0
 10
726.274186314
 20
569.3909271061
 10
726.2300332755
 20
569.5978254479
 10
726.121138463
 20
569.9360405306
 10
725.9690831703
 20
570.2703981458
 10
725.7793654537
 20
570.5888110997
 10
725.5588404983
 20
570.8797733195
 10
725.3154803803
 20
571.1327668305
 10
725.0580811471
 20
571.3386480438
 10
724.7959425007
 20
571.4899774632
 10
724.5385432675
 20
571.5812830787
 10
724.2951831495
 20
571.6092671792
 10
724.074658194
 20
571.5729176535
 10
723.8849404775
 20
571.4735481126
 10
723.7328851848
 20
571.3147498014
 10
723.6239903723
 20
571.1022619931
 10
723.562188341
 20
570.8437651234
 10
723.5497149812
 20
570.548602145
 10
723.5870212641
 20
570.2274396569
 10
723.6727584907
 20
569.8918864549
 10
723.8038267602
 20
569.5540707186
 10
723.9754908742
 20
569.2262007793
 10
724.1815447092
 20
568.9201271082
 10
724.4145409171
 20
568.646912829
 10
724.632907954
 20
568.4434370996
  0
LWPOLYLINE
  5
30F
330
1F
100
AcDbEntity
  8
0
  6
Continuous
 62
     7
370
    15
100
AcDbPolyline
 90
       34
 70
   128
 43
0.0
 10
763.1107784716
 20
546.1939943354
 10
763.3717285768
 20
546.0721245285
 10
763.6232483246
 20
546.0122078359
 10
763.8562445326
 20
546.0164104194
 10
764.0622983676
 20
546.0845793966
 10
764.2339624816
 20
546.2142501687
 10
764.3650307511
 20
546.4007377021
 10
764.4507679777
 20
546.6373008094
 10
764.4880742606
 20
546.91539038
 10
764.4756009008
 20
547.2249547931
 10
764.4137988695
 20
547.5548067693
 10
764.304904057
 20
547.893021852
 10
764.1528487643
 20
548.2273794672
 10
763.9631310478
 20
548.5457924212
 10
763.7426060923
 20
548.8367546409
 10
763.4992459743
 20
549.0897481519
 10
763.2418467411
 20
549.2956293652
 10
762.9797080947
 20
549.4469587846
 10
762.7223088615
 20
549.5382644002
 10
762.4789487435
 20
549.5662485007
 10
762.2584237881
 20
549.5298989749
 10
762.0687060715
 20
549.430529434
 10
761.9166507788
 20
549.2717311229
 10
761.8077559663
 20
549.0592433145
 10
761.745953935
 20
548.8007464448
 10
761.7334805752
 20
548.5055834664
 10
761.7707868581
 20
548.1844209783
 10
761.8565240847
 20
547.8488677763
 10
761.9875923542
 20
547.51105204
 10
762.1592564682
 20
547.1831821007
 10
762.3653103032
 20
546.8771084296
 10
762.5983086185
 20
546.6038929339
 10
762.849826259
 20
546.3734123234
 10
763.1107784716
 20
546.1939943354
  0
LWPOLYLINE
  5
310
330
1F
100
AcDbEntity
  8
0
  6
Continuous
 62
     7
370
    15
100
AcDbPolyline
 90
       33
 70
   128
 43
0.0
 10
765.9615794511
 20
539.7279329964
 10
766.2006047657
 20
539.8764622685
 10
766.649005087
 20
540.2192978966
 10
767.0572141735
 20
540.6223474637
 10
767.4229476662
 20
541.0833585687
 10
767.7441614427
 20
541.5997515295
 10
768.0190600475
 20
542.1686388522
 10
768.2461030131
 20
542.786841049
 10
768.4240217194
 20
543.4508988072
 10
768.5518236081
 20
544.1570985413
 10
768.6287900755
 20
544.9014930774
 10
768.6544954384
 20
545.6799162555
 10
768.6287900755
 20
546.4880176055
 10
768.5518236081
 20
547.321275125
 10
768.4240217194
 20
548.175031779
 10
768.2461030131
 20
549.0445107114
 10
768.0190600475
 20
549.9248511365
 10
767.7441614427
 20
550.8111296324
 10
767.4229476662
 20
551.6983887338
 10
767.0572141735
 20
552.581666437
 10
766.649005087
 20
553.4560241834
 10
766.2006047657
 20
554.3165711943
 10
765.7145188398
 20
555.1584961039
 10
765.1934678883
 20
555.977089621
 10
764.6403642586
 20
556.7677743363
 10
764.0583015293
 20
557.5261282963
 10
763.450533437
 20
558.247911237
 10
762.8204633399
 20
558.9290842033
 10
762.1716104998
 20
559.5658401917
 10
761.5076058675
 20
560.1546169644
 10
760.832161527
 20
560.6921225503
 10
760.1490548894
 20
561.1753509563
 10
759.4621065665
 20
561.6015995611
  0
LINE
  5
311
330
1F
100
AcDbEntity
  8
0
  6
Continuous
 62
     7
370
    15
100
AcDbLine
 10
759.4621065665
 20
561.6015995611
 30
0.0
 11
730.4707287907
 21
578.3379657075
 31
0.0
  0
LWPOLYLINE
  5
312
330
1F
100
AcDbEntity
  8
0
  6
Continuous
 62
     7
370
    15
100
AcDbPolyline
 90
       11
 70
   128
 43
0.0
 10
764.0583015293
 20
546.7409877535
 10
763.7973493167
 20
546.9204057416
 10
763.5458316762
 20
547.150886352
 10
763.3128333609
 20
547.4241018477
 10
763.1067795259
 20
547.7301755188
 10
762.9351154119
 20
548.0580454582
 10
762.8040471424
 20
548.3958611944
 10
762.7183099158
 20
548.7314143964
 10
762.6810036329
 20
549.0525768845
 10
762.6934769927
 20
549.3477398629
 10
762.7324291101
 20
549.5358047742
  0
LWPOLYLINE
  5
313
330
1F
100
AcDbEntity
  8
0
  6
Continuous
 62
     7
370
    15
100
AcDbPolyline
 90
        3
 70
   128
 43
0.0
 10
764.4366495737
 20
546.5836865247
 10
764.3192516345
 20
546.6191179466
 10
764.0583015293
 20
546.7409877535
  0
LWPOLYLINE
  5
314
330
1F
100
AcDbEntity
  8
0
  6
Continuous
 62
     7
370
    15
100
AcDbPolyline
 90
       12
 70
   128
 43
0.0
 10
730.4707287907
 20
578.3379657075
 10
729.7837804679
 20
578.7048507539
 10
729.1006738302
 20
579.0103204838
 10
728.4252294897
 20
579.252666334
 10
727.7612248575
 20
579.4305329911
 10
727.1123720173
 20
579.5429265459
 10
726.4823019202
 20
579.5892170293
 10
725.8745338279
 20
579.5691481914
 10
725.2924710986
 20
579.482829554
 10
724.7393674689
 20
579.3307446966
 10
724.2183165174
 20
579.1137438028
 10
723.9712559062
 20
578.9815710294
  0
LWPOLYLINE
  5
315
330
1F
100
AcDbEntity
  8
0
  6
Continuous
 62
     7
370
    15
100
AcDbPolyline
 90
       11
 70
   128
 43
0.0
 10
725.5804310117
 20
568.9904305177
 10
725.4860663252
 20
569.0727621516
 10
725.2427062072
 20
569.3257556625
 10
725.0221812518
 20
569.6167184907
 10
724.8324635352
 20
569.9351314446
 10
724.6804082425
 20
570.2694884515
 10
724.57151343
 20
570.6077041425
 10
724.5097113987
 20
570.9375555104
 10
724.4972380389
 20
571.2471199235
 10
724.5345443218
 20
571.5252094941
 10
724.5486614087
 20
571.5788246693
  0
LINE
  5
316
330
1F
100
AcDbEntity
  8
0
  6
Continuous
 62
     7
370
    15
100
AcDbLine
 10
723.3925891591
 20
566.6334286117
 30
0.0
 11
724.3401124803
 21
566.0864350415
 31
0.0
  0
LINE
  5
317
330
1F
100
AcDbEntity
  8
0
  6
Continuous
 62
     7
370
    15
100
AcDbLine
 10
723.3925891591
 20
566.6334286117
 30
0.0
 11
729.0494435456
 21
569.8990611381
 31
0.0
  0
LINE
  5
318
330
1F
100
AcDbEntity
  8
0
  6
Continuous
 62
     7
370
    15
100
AcDbLine
 10
729.0494435456
 20
569.8990611381
 30
0.0
 11
729.9969668667
 21
569.3520675679
 31
0.0
  0
LINE
  5
319
330
1F
100
AcDbEntity
  8
0
  6
Continuous
 62
     7
370
    15
100
AcDbLine
 10
724.3401124803
 20
566.0864350415
 30
0.0
 11
729.9969668667
 21
569.3520675679
 31
0.0
  0
LINE
  5
31A
330
1F
100
AcDbEntity
  8
0
  6
Continuous
 62
     7
370
    15
100
AcDbLine
 10
723.3925891591
 20
566.3068122334
 30
0.0
 11
724.0572238867
 21
565.9231267722
 31
0.0
  0
LINE
  5
31B
330
1F
100
AcDbEntity
  8
0
  6
Continuous
 62
     7
370
    15
100
AcDbLine
 10
723.3925891591
 20
566.3068122334
 30
0.0
 11
723.3925891591
 21
566.6334286117
 31
0.0
  0
LINE
  5
31C
330
1F
100
AcDbEntity
  8
0
  6
Continuous
 62
     7
370
    15
100
AcDbLine
 10
753.3314913097
 20
549.3500682869
 30
0.0
 11
758.9883456962
 21
552.6157008132
 31
0.0
  0
LINE
  5
31D
330
1F
100
AcDbEntity
  8
0
  6
Continuous
 62
     7
370
    15
100
AcDbLine
 10
752.3839679886
 20
549.8970618571
 30
0.0
 11
753.3314913097
 21
549.3500682869
 31
0.0
  0
LINE
  5
31E
330
1F
100
AcDbEntity
  8
0
  6
Continuous
 62
     7
370
    15
100
AcDbLine
 10
752.3839679886
 20
549.8970618571
 30
0.0
 11
758.0408223751
 21
553.1626943834
 31
0.0
  0
LINE
  5
31F
330
1F
100
AcDbEntity
  8
0
  6
Continuous
 62
     7
370
    15
100
AcDbLine
 10
758.0408223751
 20
553.1626943834
 30
0.0
 11
758.9883456962
 21
552.6157008132
 31
0.0
  0
LINE
  5
320
330
1F
100
AcDbEntity
  8
0
  6
Continuous
 62
     7
370
    15
100
AcDbLine
 10
752.3839679886
 20
549.5704454788
 30
0.0
 11
753.0486016625
 21
549.1867606258
 31
0.0
  0
LINE
  5
321
330
1F
100
AcDbEntity
  8
0
  6
Continuous
 62
     7
370
    15
100
AcDbLine
 10
752.3839679886
 20
549.5704454788
 30
0.0
 11
752.3839679886
 21
549.8970618571
 31
0.0
  0
LINE
  5
322
330
1F
100
AcDbEntity
  8
0
  6
Continuous
 62
     7
370
    15
100
AcDbLine
 10
722.2124421029
 20
565.9521442177
 30
0.0
 11
729.0494435456
 21
569.8990611381
 31
0.0
  0
LWPOLYLINE
  5
323
330
1F
100
AcDbEntity
  8
0
  6
Continuous
 62
     7
370
    15
100
AcDbPolyline
 90
        3
 70
   128
 43
0.0
 10
720.5092284221
 20
565.9876729908
 10
720.6990056711
 20
566.1422831449
 10
721.0308536243
 20
566.3640136321
  0
LINE
  5
324
330
1F
100
AcDbEntity
  8
0
  6
Continuous
 62
     7
370
    15
100
AcDbLine
 10
728.1019212782
 20
570.4460541
 30
0.0
 11
729.0494435456
 21
569.8990611381
 31
0.0
  0
LINE
  5
325
330
1F
100
AcDbEntity
  8
0
  6
Continuous
 62
     7
370
    15
100
AcDbLine
 10
721.0308536243
 20
566.3640136321
 30
0.0
 11
728.1019212782
 21
570.4460541
 31
0.0
  0
ARC
  5
326
330
1F
100
AcDbEntity
  8
0
  6
Continuous
 62
     7
370
    15
100
AcDbCircle
 10
753.8038305019
 20
545.3675264954
 30
0.0
 40
3.685577802559153
100
AcDbArc
 50
120.7887549846
 51
136.2830506814
  0
LWPOLYLINE
  5
327
330
1F
100
AcDbEntity
  8
0
  6
Continuous
 62
     7
370
    15
100
AcDbPolyline
 90
        7
 70
   128
 43
0.0
 10
752.8648003098
 20
543.0874229258
 10
752.5329523565
 20
542.9260093133
 10
752.2092761504
 20
542.8288896379
 10
751.9017406067
 20
542.7984534389
 10
751.6179195141
 20
542.8354495179
 10
751.3648002933
 20
542.9389692265
 10
751.1605440214
 20
543.0945766666
  0
ARC
  5
328
330
1F
100
AcDbEntity
  8
0
  6
Continuous
 62
     7
370
    15
100
AcDbCircle
 10
754.9692427668
 20
544.5368271349
 30
0.0
 40
4.04104884835001
100
AcDbArc
 50
121.3836740786
 51
144.1295677148
  0
LWPOLYLINE
  5
329
330
1F
100
AcDbEntity
  8
0
  6
Continuous
 62
     7
370
    15
100
AcDbPolyline
 90
       19
 70
   128
 43
0.0
 10
752.8648003098
 20
545.0471199788
 10
752.7196934519
 20
544.9928976854
 10
752.5920885997
 20
545.0043074768
 10
752.4973767286
 20
545.0799736002
 10
752.4469817418
 20
545.210769429
 10
752.4469817418
 20
545.3809184382
 10
752.4973767286
 20
545.5698978635
 10
752.5920885997
 20
545.7549159857
 10
752.7196934519
 20
545.9136552034
 10
752.8648003098
 20
546.0269697221
 10
753.0099071677
 20
546.0811920154
 10
753.1375120199
 20
546.0697822241
 10
753.2322233642
 20
545.9941157965
 10
753.2826188778
 20
545.8633214886
 10
753.2826188778
 20
545.6931724794
 10
753.2322233642
 20
545.5041915333
 10
753.1375120199
 20
545.3191737152
 10
753.0099071677
 20
545.1604344974
 10
752.8648003098
 20
545.0471199788
  0
LINE
  5
32A
330
1F
100
AcDbEntity
  8
0
  6
Continuous
 62
     7
370
    15
100
AcDbLine
 10
759.9358679636
 20
547.1694633937
 30
0.0
 11
752.8648003098
 21
543.0874229258
 31
0.0
  0
LINE
  5
32B
330
1F
100
AcDbEntity
  8
0
  6
Continuous
 62
     7
370
    15
100
AcDbLine
 10
752.8648003098
 20
547.9866673834
 30
0.0
 11
759.9358679636
 21
552.0687078513
 31
0.0
  0
LINE
  5
32C
330
1F
100
AcDbEntity
  8
0
  6
Continuous
 62
     7
370
    15
100
AcDbLine
 10
759.9358679636
 20
552.0687078513
 30
0.0
 11
759.9358679636
 21
547.1694633937
 31
0.0
  0
LINE
  5
32D
330
1F
100
AcDbEntity
  8
0
  6
Continuous
 62
     7
370
    15
100
AcDbLine
 10
758.9883456962
 20
552.6157008132
 30
0.0
 11
759.9358679636
 21
552.0687078513
 31
0.0
  0
LINE
  5
32E
330
1F
100
AcDbEntity
  8
0
  6
Continuous
 62
     7
370
    15
100
AcDbLine
 10
751.9172780424
 20
548.5336603454
 30
0.0
 11
758.9883456962
 21
552.6157008132
 31
0.0
  0
LINE
  5
32F
330
1F
100
AcDbEntity
  8
0
  6
Continuous
 62
     7
370
    15
100
AcDbLine
 10
751.2038209323
 20
549.215777463
 30
0.0
 11
758.0408223751
 21
553.1626943834
 31
0.0
  0
LWPOLYLINE
  5
330
330
1F
100
AcDbEntity
  8
0
  6
Continuous
 62
     7
370
    15
100
AcDbPolyline
 90
        3
 70
   128
 43
0.0
 10
749.5006061979
 20
549.2513068444
 10
749.6903834468
 20
549.4059169985
 10
750.0222314001
 20
549.6276474858
  0
LINE
  5
331
330
1F
100
AcDbEntity
  8
0
  6
Continuous
 62
     7
370
    15
100
AcDbLine
 10
757.0932990539
 20
553.7096879536
 30
0.0
 11
758.0408223751
 21
553.1626943834
 31
0.0
  0
LINE
  5
332
330
1F
100
AcDbEntity
  8
0
  6
Continuous
 62
     7
370
    15
100
AcDbLine
 10
750.0222314001
 20
549.6276474858
 30
0.0
 11
757.0932990539
 21
553.7096879536
 31
0.0
  0
LWPOLYLINE
  5
333
330
1F
100
AcDbEntity
  8
0
  6
Continuous
 62
     7
370
    15
100
AcDbPolyline
 90
       19
 70
   128
 43
0.0
 10
723.8734225341
 20
562.7633358684
 10
723.7283156762
 20
562.6500213498
 10
723.6007108239
 20
562.4912821321
 10
723.5059989528
 20
562.3062640098
 10
723.455603966
 20
562.1172845845
 10
723.455603966
 20
561.9471355754
 10
723.5059989528
 20
561.8163397466
 10
723.6007108239
 20
561.7406736232
 10
723.7283156762
 20
561.7292638318
 10
723.8734225341
 20
561.7834861252
 10
724.018529392
 20
561.8968006438
 10
724.1461342442
 20
562.0555398616
 10
724.2408455885
 20
562.2405576797
 10
724.2912411021
 20
562.4295386258
 10
724.2912411021
 20
562.599687635
 10
724.2408455885
 20
562.7304819429
 10
724.1461342442
 20
562.8061483705
 10
724.018529392
 20
562.8175581618
 10
723.8734225341
 20
562.7633358684
  0
LINE
  5
334
330
1F
100
AcDbEntity
  8
0
  6
Continuous
 62
     7
370
    15
100
AcDbLine
 10
723.8734225341
 20
559.8237890722
 30
0.0
 11
730.9444901879
 21
563.9058295401
 31
0.0
  0
ARC
  5
335
330
1F
100
AcDbEntity
  8
0
  6
Continuous
 62
     7
370
    15
100
AcDbCircle
 10
725.977864991
 20
561.2731932813
 30
0.0
 40
4.04104884835025
100
AcDbArc
 50
121.3836740786
 51
144.1295677148
  0
LWPOLYLINE
  5
336
330
1F
100
AcDbEntity
  8
0
  6
Continuous
 62
     7
370
    15
100
AcDbPolyline
 90
        7
 70
   128
 43
0.0
 10
722.1691662456
 20
559.830942813
 10
722.3734225176
 20
559.6753353729
 10
722.6265417383
 20
559.5718156643
 10
722.9103628309
 20
559.5348195853
 10
723.2178983746
 20
559.5652557843
 10
723.5415745808
 20
559.6623754596
 10
723.8734225341
 20
559.8237890722
  0
LINE
  5
337
330
1F
100
AcDbEntity
  8
0
  6
Continuous
 62
     7
370
    15
100
AcDbLine
 10
730.9444901879
 20
568.8050739977
 30
0.0
 11
723.8734225341
 21
564.7230335298
 31
0.0
  0
LINE
  5
338
330
1F
100
AcDbEntity
  8
0
  6
Continuous
 62
     7
370
    15
100
AcDbLine
 10
730.9444901879
 20
563.9058295401
 30
0.0
 11
730.9444901879
 21
568.8050739977
 31
0.0
  0
ARC
  5
339
330
1F
100
AcDbEntity
  8
0
  6
Continuous
 62
     7
370
    15
100
AcDbCircle
 10
724.8124516725
 20
562.10389325
 30
0.0
 40
3.685577802560836
100
AcDbArc
 50
120.7887549845
 51
136.2830506814
  0
LINE
  5
33A
330
1F
100
AcDbEntity
  8
0
  6
Continuous
 62
     7
370
    15
100
AcDbLine
 10
730.9444901879
 20
568.8050739977
 30
0.0
 11
729.9969668667
 21
569.3520675679
 31
0.0
  0
LINE
  5
33B
330
1F
100
AcDbEntity
  8
0
  6
Continuous
 62
     7
370
    15
100
AcDbLine
 10
729.9969668667
 20
569.3520675679
 30
0.0
 11
722.9258992129
 21
565.2700271
 31
0.0
  0
LWPOLYLINE
  5
33C
330
1F
100
AcDbEntity
  8
0
  6
Continuous
 62
     7
370
    15
100
AcDbPolyline
 90
       68
 70
   128
 43
0.0
 10
749.8534016617
 20
544.419635502
 10
749.3454467898
 20
544.2489166185
 10
748.7892084882
 20
544.1073320535
 10
748.1895694694
 20
543.9961285733
 10
747.5518012503
 20
543.9162804406
 10
746.8815114694
 20
543.8684909376
 10
746.1845859338
 20
543.8531798967
 10
745.4671517417
 20
543.870480358
 10
744.7355140617
 20
543.9202434359
 10
743.9961002881
 20
544.0020279806
 10
743.2554115724
 20
544.1151182189
 10
742.5199553879
 20
544.2585194978
 10
741.7961949539
 20
544.4309719714
 10
741.0904912834
 20
544.6309597267
 10
740.409044178
 20
544.856724774
 10
739.7578458657
 20
545.1062837751
 10
739.1426167276
 20
545.3774432514
 10
738.5687610433
 20
545.6678202651
 10
738.041325898
 20
545.974861884
 10
737.5649463913
 20
546.2958725544
 10
737.1438077053
 20
546.6280293073
 10
736.7816082259
 20
546.9684124763
 10
736.4815353086
 20
547.3140321573
 10
736.246224185
 20
547.6618516257
 10
736.0777421581
 20
548.0088119717
 10
735.9775696359
 20
548.3518652496
 10
735.9465885412
 20
548.6879972875
 10
735.9850717749
 20
549.014254146
 10
736.0926790012
 20
549.32776736
 10
736.2684629696
 20
549.6257822226
 10
736.5108832129
 20
549.9056805935
 10
736.8178071004
 20
550.1650027955
 10
737.186537234
 20
550.4014685983
 10
737.6138346283
 20
550.6130012438
 10
738.0959429453
 20
550.7977402179
 10
738.6286243196
 20
550.9540631467
 10
739.2071983436
 20
551.0805967439
 10
739.8265821073
 20
551.1762286705
 10
740.4813312915
 20
551.240117873
 10
741.1656917979
 20
551.2717024904
 10
741.8736492711
 20
551.2707065427
 10
742.5989828362
 20
551.2371374967
 10
743.3353177825
 20
551.1712917388
 10
744.0761824613
 20
551.073746058
 10
744.8150672919
 20
550.9453594693
 10
745.5454795523
 20
550.7872586139
 10
746.2609981701
 20
550.6008335002
 10
746.9553358892
 20
550.3877229048
 10
747.6223919532
 20
550.1498003808
 10
748.2563037356
 20
549.8891547929
 10
748.8514994229
 20
549.6080769345
 10
749.402749645
 20
549.3090394548
 10
749.9052096216
 20
548.9946676612
 10
750.3544634165
 20
548.6677249208
 10
750.7465629239
 20
548.3310840719
 10
751.0780636925
 20
547.9877055265
 10
751.3460502141
 20
547.6406050317
 10
751.5481685872
 20
547.2928329898
 10
751.6826444294
 20
546.9474452616
 10
751.7482913069
 20
546.6074794447
 10
751.7445381301
 20
546.2759214195
 10
751.6714122942
 20
545.9556840606
 10
751.5295607535
 20
545.6495829078
 10
751.3202278937
 20
545.3603087944
 10
751.045252371
 20
545.0904023018
 10
750.7070555218
 20
544.8422355124
 10
750.308602377
 20
544.6179901138
 10
749.8534016617
 20
544.419635502
  0
LWPOLYLINE
  5
33D
330
1F
100
AcDbEntity
  8
0
  6
Continuous
 62
     7
370
    15
100
AcDbPolyline
 90
       24
 70
   128
 43
0.0
 10
744.6011657137
 20
547.1711565875
 10
744.3999029217
 20
547.1192731137
 10
744.157919952
 20
547.1003894424
 10
743.8931629327
 20
547.1159073937
 10
743.6252659732
 20
547.1646753375
 10
743.3741013125
 20
547.2430761247
 10
743.1582925894
 20
547.3452962741
 10
742.9938492842
 20
547.4637529964
 10
742.8929644803
 20
547.589662021
 10
742.8631213505
 20
547.7136857037
 10
742.9065336582
 20
547.8266237008
 10
743.019981384
 20
547.9201021139
 10
743.195048856
 20
547.9871871998
 10
743.4187558985
 20
548.0229026647
 10
743.6745082436
 20
548.024601883
 10
743.9433387558
 20
547.9921564191
 10
744.2053098684
 20
547.9279742369
 10
744.4409918843
 20
547.8368147541
 10
744.632904398
 20
547.725439672
 10
744.7668165261
 20
547.6021080979
 10
744.8327942564
 20
547.4759664501
 10
744.8259464472
 20
547.3563714628
 10
744.7467799143
 20
547.2521934341
 10
744.6011657137
 20
547.1711565875
  0
LWPOLYLINE
  5
33E
330
1F
100
AcDbEntity
  8
0
  6
Continuous
 62
     7
370
    15
100
AcDbPolyline
 90
       28
 70
   128
 43
0.0
 10
749.64681783
 20
543.2325345943
 10
749.1388629581
 20
543.0618157108
 10
748.5826246565
 20
542.9202311458
 10
747.982984584
 20
542.8090270573
 10
747.3452174187
 20
542.7291795329
 10
746.674926584
 20
542.6813897258
 10
745.9780010485
 20
542.6660783807
 10
745.2605668564
 20
542.6833791462
 10
744.5289291764
 20
542.7331422241
 10
743.7895175102
 20
542.8149276812
 10
743.0488287944
 20
542.9280179195
 10
742.3133726099
 20
543.0714191983
 10
741.5896121759
 20
543.2438719762
 10
740.8839063981
 20
543.4438585149
 10
740.2024614
 20
543.6696244745
 10
739.5512609804
 20
543.9191822591
 10
738.9360318423
 20
544.1903420396
 10
738.362176158
 20
544.4807187491
 10
737.83474312
 20
544.7877618888
 10
737.358361506
 20
545.1087713426
 10
736.93722282
 20
545.4409280954
 10
736.5750233406
 20
545.7813109603
 10
736.2749504233
 20
546.1269306413
 10
736.0396392997
 20
546.4747501097
 10
735.8711572727
 20
546.8217104557
 10
735.7709868579
 20
547.1647652543
 10
735.7400057632
 20
547.5008969881
 10
735.7627165925
 20
547.7487097805
  0
LWPOLYLINE
  5
33F
330
1F
100
AcDbEntity
  8
0
  6
Continuous
 62
     7
370
    15
100
AcDbPolyline
 90
        8
 70
   128
 43
0.0
 10
751.5258086304
 20
545.005551156
 10
751.4648284626
 20
544.7685831529
 10
751.3229769219
 20
544.462482
 10
751.1136430084
 20
544.1732072784
 10
750.8386685393
 20
543.9033013941
 10
750.5004706365
 20
543.6551339964
 10
750.1020185454
 20
543.430889206
 10
749.64681783
 20
543.2325345943
  0
LWPOLYLINE
  5
340
330
1F
100
AcDbEntity
  8
0
  6
Continuous
 62
     7
370
    15
100
AcDbPolyline
 90
       68
 70
   128
 43
0.0
 10
720.1468656237
 20
560.9276424314
 10
719.5734345689
 20
560.7975395253
 10
718.9585784304
 20
560.6982221323
 10
718.3076993805
 20
560.6305617187
 10
717.6265156929
 20
560.5951539041
 10
716.9210164346
 20
560.5923108598
 10
716.1974003536
 20
560.6220552275
 10
715.4620263554
 20
560.6841268116
 10
714.7213566058
 20
560.7779813645
 10
713.9818996317
 20
560.9027908915
 10
713.2501565846
 20
561.0574619006
 10
712.5325538051
 20
561.2406323621
 10
711.8354017302
 20
561.4506948237
 10
711.1648264043
 20
561.68580219
 10
710.5267189032
 20
561.9438887088
 10
709.9266858113
 20
562.2226851781
 10
709.3700039142
 20
562.5197432777
 10
708.8615643535
 20
562.8324526006
 10
708.4058336415
 20
563.1580619429
 10
708.0068178363
 20
563.493713367
 10
707.6680235556
 20
563.8364546707
 10
707.3924263668
 20
564.1832755791
 10
707.1824507675
 20
564.5311272088
 10
707.039941736
 20
564.8769530888
 10
706.9661510336
 20
565.217713795
 10
706.9617256145
 20
565.5504152338
 10
707.0267076256
 20
565.8721329718
 10
707.1605217623
 20
566.1800396068
 10
707.3619963422
 20
566.4714300097
 10
707.6293601441
 20
566.7437432212
 10
707.9602603201
 20
566.9945852603
 10
708.3517929524
 20
567.221752541
 10
708.8005135897
 20
567.4232489027
 10
709.3024804482
 20
567.5973044648
 10
709.8532828599
 20
567.7423868779
 10
710.4480792059
 20
567.8572235245
 10
711.0816443304
 20
567.9408045578
 10
711.7484085275
 20
567.9923941542
 10
712.4425123316
 20
568.0115411557
 10
713.1578570937
 20
567.9980754188
 10
713.8881545039
 20
567.952116937
 10
714.626989812
 20
567.8740679323
 10
715.3678660812
 20
567.7646165027
 10
716.1042758381
 20
567.6247220231
 10
716.8297453268
 20
567.4556157523
 10
717.5378998365
 20
567.2587825831
 10
718.2225174387
 20
567.0359525269
 10
718.877580617
 20
566.7890848969
 10
719.4973310582
 20
566.5203476262
 10
720.0763244433
 20
566.2321032779
 10
720.6094715403
 20
565.9268853214
 10
721.0920866732
 20
565.60737441
 10
721.5199309228
 20
565.276380741
 10
721.8892426829
 20
564.9368106007
 10
722.1967755924
 20
564.5916505502
 10
722.4398280384
 20
564.2439321453
 10
722.616265283
 20
563.8967118648
 10
722.7245342148
 20
563.5530406975
 10
722.763685476
 20
563.2159385955
 10
722.7333724089
 20
562.8883695365
 10
722.6338658069
 20
562.5732111107
 10
722.4660349488
 20
562.2732326249
 10
722.231359189
 20
561.9910701644
 10
721.9318995083
 20
561.729204697
 10
721.5702848164
 20
561.4899365265
 10
721.1496961468
 20
561.2753682633
 10
720.6738287243
 20
561.0873865774
 10
720.1468656237
 20
560.9276424314
  0
LWPOLYLINE
  5
341
330
1F
100
AcDbEntity
  8
0
  6
Continuous
 62
     7
370
    15
100
AcDbPolyline
 90
       27
 70
   128
 43
0.0
 10
719.9402807384
 20
559.7405412196
 10
719.3668507373
 20
559.6104389218
 10
718.7519945988
 20
559.5111215288
 10
718.1011155489
 20
559.4434611151
 10
717.4199329149
 20
559.4080536046
 10
716.7144315493
 20
559.405209648
 10
715.9908154682
 20
559.4349540157
 10
715.2554414701
 20
559.4970255998
 10
714.5147717205
 20
559.5908798485
 10
713.7753168537
 20
559.7156905921
 10
713.0435716992
 20
559.8703606888
 10
712.3259710271
 20
560.0535320627
 10
711.6288189522
 20
560.2635948284
 10
710.958241519
 20
560.498700674
 10
710.3201340179
 20
560.756787497
 10
709.7201030333
 20
561.0355851829
 10
709.1634211362
 20
561.3326429782
 10
708.6549794682
 20
561.6453510846
 10
708.1992487562
 20
561.9709604269
 10
707.800232951
 20
562.3066121552
 10
707.4614386702
 20
562.6493534589
 10
707.1858414815
 20
562.9961743673
 10
706.9758658822
 20
563.344025997
 10
706.8333568507
 20
563.6898515728
 10
706.7595661483
 20
564.0306125832
 10
706.7551407292
 20
564.363314022
 10
706.7713377631
 20
564.4850765351
  0
LWPOLYLINE
  5
342
330
1F
100
AcDbEntity
  8
0
  6
Continuous
 62
     7
370
    15
100
AcDbPolyline
 90
       10
 70
   128
 43
0.0
 10
722.5344298009
 20
561.7419179106
 10
722.5267885773
 20
561.7012686288
 10
722.4272809216
 20
561.3861095947
 10
722.2594511172
 20
561.0861317172
 10
722.0247753573
 20
560.8039692567
 10
721.725314623
 20
560.5421037894
 10
721.3637009848
 20
560.3028362272
 10
720.9431123151
 20
560.0882679639
 10
720.4672448926
 20
559.9002856696
 10
719.9402807384
 20
559.7405412196
  0
LWPOLYLINE
  5
343
330
1F
100
AcDbEntity
  8
0
  6
Continuous
 62
     7
370
    15
100
AcDbPolyline
 90
       24
 70
   128
 43
0.0
 10
715.5203923649
 20
563.8789784781
 10
715.2977326716
 20
563.8424193519
 10
715.042568275
 20
563.8398412066
 10
714.7738241638
 20
563.8714357362
 10
714.5114326364
 20
563.9348594508
 10
714.274851839
 20
564.0254073694
 10
714.0816306656
 20
564.1363661446
 10
713.9460969376
 20
564.259504037
 10
713.8783047854
 20
564.3856901355
 10
713.8832812745
 20
564.5055652692
 10
713.9606555127
 20
564.6102387602
 10
714.1046913138
 20
564.6919477579
 10
714.3047055054
 20
564.7446323215
 10
714.5458645043
 20
564.764384586
 10
714.8102811878
 20
564.7497394726
 10
715.0783467347
 20
564.7017844411
 10
715.3301773156
 20
564.6240752082
 10
715.5470987155
 20
564.5223747725
 10
715.713021375
 20
564.4042257811
 10
715.8156394681
 20
564.2783909153
 10
715.8473433812
 20
564.1542044775
 10
715.8057802666
 20
564.0408741137
 10
715.6940352734
 20
563.9468068755
 10
715.5203923649
 20
563.8789784781
  0
LINE
  5
344
330
1F
100
AcDbEntity
  8
0
  6
Continuous
 62
     7
370
    15
100
AcDbLine
 10
752.0813546699
 20
539.7285894699
 30
0.0
 11
750.7272133058
 21
540.604508793
 31
0.0
  0
LWPOLYLINE
  5
345
330
1F
100
AcDbEntity
  8
0
  6
Continuous
 62
     7
370
    15
100
AcDbPolyline
 90
        9
 70
   128
 43
0.0
 10
752.4328240885
 20
538.4548216043
 10
752.4600894117
 20
538.6671758748
 10
752.4664309319
 20
538.8698225184
 10
752.4517538187
 20
539.0597464608
 10
752.4162761821
 20
539.2341266684
 10
752.3605259114
 20
539.3903671756
 10
752.285331719
 20
539.526149101
 10
752.1918110232
 20
539.6394504211
 10
752.0813546699
 20
539.7285894699
  0
LINE
  5
346
330
1F
100
AcDbEntity
  8
0
  6
Continuous
 62
     7
370
    15
100
AcDbLine
 10
752.1920907729
 20
537.0714897979
 30
0.0
 11
752.4328240885
 21
538.4548216043
 31
0.0
  0
LINE
  5
347
330
1F
100
AcDbEntity
  8
0
  6
Continuous
 62
     7
370
    15
100
AcDbLine
 10
747.8298271512
 20
540.0987607471
 30
0.0
 11
748.3465232795
 21
539.7645374929
 31
0.0
  0
LINE
  5
348
330
1F
100
AcDbEntity
  8
0
  6
Continuous
 62
     7
370
    15
100
AcDbLine
 10
752.1513442534
 20
548.6687838928
 30
0.0
 11
750.8331114774
 21
548.2478541889
 31
0.0
  0
LINE
  5
349
330
1F
100
AcDbEntity
  8
0
  6
Continuous
 62
     7
370
    15
100
AcDbLine
 10
751.4322563244
 20
549.2887200091
 30
0.0
 11
750.0959989217
 21
548.8620346841
 31
0.0
  0
ARC
  5
34A
330
1F
100
AcDbEntity
  8
0
  6
Continuous
 62
     7
370
    15
100
AcDbCircle
 10
751.8852144317
 20
548.1137585123
 30
0.0
 40
1.259248016054084
100
AcDbArc
 50
62.3479535985
 51
111.0820947873
  0
LINE
  5
34B
330
1F
100
AcDbEntity
  8
0
  6
Continuous
 62
     7
370
    15
100
AcDbLine
 10
747.8195180321
 20
540.0395220896
 30
0.0
 11
748.3362141604
 21
539.7053000521
 31
0.0
  0
LINE
  5
34C
330
1F
100
AcDbEntity
  8
0
  6
Continuous
 62
     7
370
    15
100
AcDbLine
 10
723.0899758405
 20
556.4649562245
 30
0.0
 11
721.7358344763
 21
557.3408755476
 31
0.0
  0
LWPOLYLINE
  5
34D
330
1F
100
AcDbEntity
  8
0
  6
Continuous
 62
     7
370
    15
100
AcDbPolyline
 90
        9
 70
   128
 43
0.0
 10
723.4414452591
 20
555.1911883589
 10
723.4687105822
 20
555.4035426294
 10
723.4750521024
 20
555.6061892731
 10
723.4603749893
 20
555.7961132155
 10
723.4248973527
 20
555.9704934231
 10
723.369147082
 20
556.1267339302
 10
723.2939528896
 20
556.2625158556
 10
723.2004321937
 20
556.3758171757
 10
723.0899758405
 20
556.4649562245
  0
LINE
  5
34E
330
1F
100
AcDbEntity
  8
0
  6
Continuous
 62
     7
370
    15
100
AcDbLine
 10
723.2007119434
 20
553.8078565525
 30
0.0
 11
723.4414452591
 21
555.1911883589
 31
0.0
  0
LINE
  5
34F
330
1F
100
AcDbEntity
  8
0
  6
Continuous
 62
     7
370
    15
100
AcDbLine
 10
718.8384483218
 20
556.8351275018
 30
0.0
 11
719.3551444501
 21
556.5009042475
 31
0.0
  0
LINE
  5
350
330
1F
100
AcDbEntity
  8
0
  6
Continuous
 62
     7
370
    15
100
AcDbLine
 10
723.159965424
 20
565.4051506475
 30
0.0
 11
721.8417326479
 21
564.9842209436
 31
0.0
  0
LINE
  5
351
330
1F
100
AcDbEntity
  8
0
  6
Continuous
 62
     7
370
    15
100
AcDbLine
 10
722.4408774949
 20
566.0250867638
 30
0.0
 11
721.1046200923
 21
565.5984014387
 31
0.0
  0
ARC
  5
352
330
1F
100
AcDbEntity
  8
0
  6
Continuous
 62
     7
370
    15
100
AcDbCircle
 10
722.8938356022
 20
564.850125267
 30
0.0
 40
1.259248016053338
100
AcDbArc
 50
62.3479535985
 51
111.0820947873
  0
LINE
  5
353
330
1F
100
AcDbEntity
  8
0
  6
Continuous
 62
     7
370
    15
100
AcDbLine
 10
718.8281392026
 20
556.7758888443
 30
0.0
 11
719.344835331
 21
556.4416668067
 31
0.0
  0
LWPOLYLINE
  5
354
330
1F
100
AcDbEntity
  8
0
  6
Continuous
 62
     7
370
    15
100
AcDbPolyline
 90
        9
 70
   128
 43
0.0
 10
723.4414452591
 20
555.1911883589
 10
723.4687105822
 20
555.4035426294
 10
723.4750521024
 20
555.6061892731
 10
723.4603749893
 20
555.7961132155
 10
723.4248973527
 20
555.9704934231
 10
723.369147082
 20
556.1267339302
 10
723.2939528896
 20
556.2625158556
 10
723.2004321937
 20
556.3758171757
 10
723.0899758405
 20
556.4649562245
  0
LINE
  5
355
330
1F
100
AcDbEntity
  8
0
  6
Continuous
 62
     7
370
    15
100
AcDbLine
 10
715.2875025778
 20
554.4888326325
 30
0.0
 11
716.1466660847
 21
559.4258687409
 31
0.0
  0
ARC
  5
356
330
1F
100
AcDbEntity
  8
0
  6
Continuous
 62
     7
370
    15
100
AcDbCircle
 10
721.2905594746
 20
553.4860614065
 30
0.0
 40
6.086233830412566
100
AcDbArc
 50
170.5166754514
 51
188.242481327
  0
LINE
  5
357
330
1F
100
AcDbEntity
  8
0
  6
Continuous
 62
     7
370
    15
100
AcDbLine
 10
716.0936732715
 20
547.2249299569
 30
0.0
 11
715.2671951725
 21
552.6135221682
 31
0.0
  0
ARC
  5
358
330
1F
100
AcDbEntity
  8
0
  6
Continuous
 62
     7
370
    15
100
AcDbCircle
 10
710.0702930496
 20
546.3523912163
 30
0.0
 40
6.086249514416869
100
AcDbArc
 50
350.5167011714
 51
8.2424552045
  0
LINE
  5
359
330
1F
100
AcDbEntity
  8
0
  6
Continuous
 62
     7
370
    15
100
AcDbLine
 10
713.29835414
 20
529.4034871249
 30
0.0
 11
716.0733658662
 21
545.3496201009
 31
0.0
  0
LWPOLYLINE
  5
35A
330
1F
100
AcDbEntity
  8
0
  6
Continuous
 62
     7
370
    15
100
AcDbPolyline
 90
        9
 70
   128
 43
0.0
 10
712.4553713351
 20
528.5590835595
 10
712.5655990417
 20
528.4122033182
 10
712.6834421569
 20
528.3390554252
 10
712.8043683142
 20
528.3424550992
 10
712.9237324039
 20
528.4222652784
 10
713.0369477952
 20
528.5754243435
 10
713.1396612455
 20
528.7960447092
 10
713.2279283367
 20
529.0756473765
 10
713.29835414
 20
529.4034871249
  0
LINE
  5
35B
330
1F
100
AcDbEntity
  8
0
  6
Continuous
 62
     7
370
    15
100
AcDbLine
 10
712.1345811344
 20
529.1155141333
 30
0.0
 11
712.4553713351
 21
528.5590835595
 31
0.0
  0
ARC
  5
35C
330
1F
100
AcDbEntity
  8
0
  6
Continuous
 62
     7
370
    15
100
AcDbCircle
 10
715.8830377774
 20
530.6983126506
 30
0.0
 40
4.068928403289354
100
AcDbArc
 50
174.7566843507
 51
202.8920671369
  0
ARC
  5
35D
330
1F
100
AcDbEntity
  8
0
  6
Continuous
 62
     7
370
    15
100
AcDbCircle
 10
713.4021940484
 20
531.0190944758
 30
0.0
 40
0.9021491096673631
100
AcDbArc
 50
179.3538157769
 51
203.7705909534
  0
LINE
  5
35E
330
1F
100
AcDbEntity
  8
0
  6
Continuous
 62
     7
370
    15
100
AcDbLine
 10
712.6300426267
 20
530.5627223539
 30
0.0
 11
712.576577242
 21
530.6554601745
 31
0.0
  0
LWPOLYLINE
  5
35F
330
1F
100
AcDbEntity
  8
0
  6
Continuous
 62
     7
370
    15
100
AcDbPolyline
 90
        9
 70
   128
 43
0.0
 10
712.8407895133
 20
530.7738231691
 10
712.8231826674
 20
530.6918628517
 10
712.8011166848
 20
530.6219635537
 10
712.7754371369
 20
530.56680793
 10
712.7471328939
 20
530.5285165668
 10
712.7172918715
 20
530.5085640221
 10
712.6870609907
 20
530.5077143316
 10
712.6575992899
 20
530.5260018372
 10
712.6300426267
 20
530.5627223539
  0
LINE
  5
360
330
1F
100
AcDbEntity
  8
0
  6
Continuous
 62
     7
370
    15
100
AcDbLine
 10
715.3750394748
 20
545.336459473
 30
0.0
 11
712.8407895133
 21
530.7738231691
 31
0.0
  0
ARC
  5
361
330
1F
100
AcDbEntity
  8
0
  6
Continuous
 62
     7
370
    15
100
AcDbCircle
 10
709.3719367958
 20
546.3392309117
 30
0.0
 40
6.086279021955656
100
AcDbArc
 50
350.5167444865
 51
8.2424118894
  0
LINE
  5
362
330
1F
100
AcDbEntity
  8
0
  6
Continuous
 62
     7
370
    15
100
AcDbLine
 10
714.5688661468
 20
552.6003606279
 30
0.0
 11
715.3953468801
 21
547.211769329
 31
0.0
  0
ARC
  5
363
330
1F
100
AcDbEntity
  8
0
  6
Continuous
 62
     7
370
    15
100
AcDbCircle
 10
720.5922259054
 20
553.4728897966
 30
0.0
 40
6.086227890189087
100
AcDbArc
 50
170.5165700027
 51
188.2423936434
  0
LINE
  5
364
330
1F
100
AcDbEntity
  8
0
  6
Continuous
 62
     7
370
    15
100
AcDbLine
 10
715.2528863174
 20
558.2895656529
 30
0.0
 11
714.5891767131
 21
554.4756710921
 31
0.0
  0
LINE
  5
365
330
1F
100
AcDbEntity
  8
0
  6
Continuous
 62
     7
370
    15
100
AcDbLine
 10
717.3682735227
 20
547.2071521916
 30
0.0
 11
716.5417954236
 21
552.5957444029
 31
0.0
  0
ARC
  5
366
330
1F
100
AcDbEntity
  8
0
  6
Continuous
 62
     7
370
    15
100
AcDbCircle
 10
711.3448634384
 20
546.3346137744
 30
0.0
 40
6.086279021962905
100
AcDbArc
 50
350.5167444865
 51
8.2424118894
  0
LINE
  5
367
330
1F
100
AcDbEntity
  8
0
  6
Continuous
 62
     7
370
    15
100
AcDbLine
 10
714.5729543912
 20
529.3857093596
 30
0.0
 11
717.3479661174
 21
545.3318423357
 31
0.0
  0
LINE
  5
368
330
1F
100
AcDbEntity
  8
0
  6
Continuous
 62
     7
370
    15
100
AcDbLine
 10
716.5621033557
 20
554.4710545631
 30
0.0
 11
717.4212668626
 21
559.4080906715
 31
0.0
  0
ARC
  5
369
330
1F
100
AcDbEntity
  8
0
  6
Continuous
 62
     7
370
    15
100
AcDbCircle
 10
722.5650754251
 20
553.468282705
 30
0.0
 40
6.086150266360418
100
AcDbArc
 50
170.5165380086
 51
188.2425863798
  0
LWPOLYLINE
  5
36A
330
1F
100
AcDbEntity
  8
0
  6
Continuous
 62
     7
370
    15
100
AcDbPolyline
 90
        7
 70
   128
 43
0.0
 10
714.0104130284
 20
528.3132922537
 10
714.0789685653
 20
528.324677334
 10
714.198332655
 20
528.4044875131
 10
714.3115480463
 20
528.5576465782
 10
714.4142614966
 20
528.7782669439
 10
714.5025285878
 20
529.0578696112
 10
714.5729543912
 20
529.3857093596
  0
LINE
  5
36B
330
1F
100
AcDbEntity
  8
0
  6
Continuous
 62
     7
370
    15
100
AcDbLine
 10
721.2626370567
 20
555.9719996421
 30
0.0
 11
722.1217995099
 21
560.9090357506
 31
0.0
  0
ARC
  5
36C
330
1F
100
AcDbEntity
  8
0
  6
Continuous
 62
     7
370
    15
100
AcDbCircle
 10
723.1701294808
 20
555.6943022205
 30
0.0
 40
1.927600375021615
100
AcDbArc
 50
171.7169307145
 51
226.7424621451
  0
LINE
  5
36D
330
1F
100
AcDbEntity
  8
0
  6
Continuous
 62
     7
370
    15
100
AcDbLine
 10
726.1739977233
 20
550.0189423373
 30
0.0
 11
721.8491857912
 21
554.2904678376
 31
0.0
  0
ARC
  5
36E
330
1F
100
AcDbEntity
  8
0
  6
Continuous
 62
     7
370
    15
100
AcDbCircle
 10
724.8530523959
 20
548.6151067351
 30
0.0
 40
1.92760238530969
100
AcDbArc
 50
351.7169668987
 51
46.7424515234
  0
LINE
  5
36F
330
1F
100
AcDbEntity
  8
0
  6
Continuous
 62
     7
370
    15
100
AcDbLine
 10
723.9855363121
 20
532.3912790776
 30
0.0
 11
726.7605469847
 21
548.3374102286
 31
0.0
  0
ARC
  5
370
330
1F
100
AcDbEntity
  8
0
  6
Continuous
 62
     7
370
    15
100
AcDbCircle
 10
722.2928439941
 20
532.7539910042
 30
0.0
 40
1.731117334367379
100
AcDbArc
 50
252.1551899816
 51
347.9054971576
  0
LINE
  5
371
330
1F
100
AcDbEntity
  8
0
  6
Continuous
 62
     7
370
    15
100
AcDbLine
 10
720.613455998
 20
531.3981626738
 30
0.0
 11
721.7623606491
 21
531.1061576856
 31
0.0
  0
ARC
  5
372
330
1F
100
AcDbEntity
  8
0
  6
Continuous
 62
     7
370
    15
100
AcDbCircle
 10
721.170549294
 20
533.5731565239
 30
0.0
 40
2.245206268579766
100
AcDbArc
 50
226.7881358161
 51
255.6333736921
  0
LINE
  5
373
330
1F
100
AcDbEntity
  8
0
  6
Continuous
 62
     7
370
    15
100
AcDbLine
 10
721.5919841214
 20
532.9996189244
 30
0.0
 11
721.4919354055
 21
533.0250464864
 31
0.0
  0
ARC
  5
374
330
1F
100
AcDbEntity
  8
0
  6
Continuous
 62
     7
370
    15
100
AcDbCircle
 10
721.7246046388
 20
533.4115787178
 30
0.0
 40
0.4327806291515436
100
AcDbArc
 50
252.1552895419
 51
347.9053975035
  0
LINE
  5
375
330
1F
100
AcDbEntity
  8
0
  6
Continuous
 62
     7
370
    15
100
AcDbLine
 10
724.6820277351
 20
547.8835342075
 30
0.0
 11
722.1477788274
 21
533.3208997286
 31
0.0
  0
ARC
  5
376
330
1F
100
AcDbEntity
  8
0
  6
Continuous
 62
     7
370
    15
100
AcDbCircle
 10
722.7745318703
 20
548.1612314447
 30
0.0
 40
1.927603753308124
100
AcDbArc
 50
351.7169508719
 51
46.7424162022
  0
LINE
  5
377
330
1F
100
AcDbEntity
  8
0
  6
Continuous
 62
     7
370
    15
100
AcDbLine
 10
719.7706670686
 20
553.8365927291
 30
0.0
 11
724.0954790006
 21
549.5650672289
 31
0.0
  0
ARC
  5
378
330
1F
100
AcDbEntity
  8
0
  6
Continuous
 62
     7
370
    15
100
AcDbCircle
 10
721.0916138929
 20
555.2404288535
 30
0.0
 40
1.927603791460677
100
AcDbArc
 50
171.7169886683
 51
226.7424297539
  0
LINE
  5
379
330
1F
100
AcDbEntity
  8
0
  6
Continuous
 62
     7
370
    15
100
AcDbLine
 10
719.7113158765
 20
558.5475794502
 30
0.0
 11
719.1841178072
 21
555.5181248378
 31
0.0
  0
LINE
  5
37A
330
1F
100
AcDbEntity
  8
0
  6
Continuous
 62
     7
370
    15
100
AcDbLine
 10
721.5897134599
 20
556.5012157512
 30
0.0
 11
722.4488759131
 21
561.4382518597
 31
0.0
  0
LINE
  5
37B
330
1F
100
AcDbEntity
  8
0
  6
Continuous
 62
     7
370
    15
100
AcDbLine
 10
726.5010746533
 20
550.5481581422
 30
0.0
 11
722.1762627213
 21
554.8196836425
 31
0.0
  0
ARC
  5
37C
330
1F
100
AcDbEntity
  8
0
  6
Continuous
 62
     7
370
    15
100
AcDbCircle
 10
723.4972131944
 20
556.2235210396
 30
0.0
 40
1.927607218843209
100
AcDbArc
 50
171.7170417296
 51
226.7423766925
  0
ARC
  5
37D
330
1F
100
AcDbEntity
  8
0
  6
Continuous
 62
     7
370
    15
100
AcDbCircle
 10
725.1801278753
 20
549.1443220341
 30
0.0
 40
1.927603747925471
100
AcDbArc
 50
351.7169879943
 51
46.7424304279
  0
LINE
  5
37E
330
1F
100
AcDbEntity
  8
0
  6
Continuous
 62
     7
370
    15
100
AcDbLine
 10
724.3126132421
 20
532.920492449
 30
0.0
 11
727.0876239147
 21
548.8666260335
 31
0.0
  0
LWPOLYLINE
  5
37F
330
1F
100
AcDbEntity
  8
0
  6
Continuous
 62
     7
370
    15
100
AcDbPolyline
 90
        3
 70
   128
 43
0.0
 10
724.0990683316
 20
532.3556964525
 10
724.2156665343
 20
532.5841854577
 10
724.3126132421
 20
532.920492449
  0
ARC
  5
380
330
1F
100
AcDbEntity
  8
0
  6
Continuous
 62
     7
370
    15
100
AcDbCircle
 10
722.0475988108
 20
534.0079893182
 30
0.0
 40
0.4955922032694433
100
AcDbArc
 50
261.9887945665
 51
286.0307482192
  0
LINE
  5
381
330
1F
100
AcDbEntity
  8
0
  6
Continuous
 62
     7
370
    15
100
AcDbLine
 10
710.6286236608
 20
559.3585947883
 30
0.0
 11
709.9826241623
 21
555.646465535
 31
0.0
  0
ARC
  5
382
330
1F
100
AcDbEntity
  8
0
  6
Continuous
 62
     7
370
    15
100
AcDbCircle
 10
706.7541679922
 20
556.267652423
 30
0.0
 40
3.287674313564783
100
AcDbArc
 50
316.0314850397
 51
349.1088265289
  0
LINE
  5
383
330
1F
100
AcDbEntity
  8
0
  6
Continuous
 62
     7
370
    15
100
AcDbLine
 10
709.1203776135
 20
553.9851418709
 30
0.0
 11
705.0933642494
 21
549.830104719
 31
0.0
  0
ARC
  5
384
330
1F
100
AcDbEntity
  8
0
  6
Continuous
 62
     7
370
    15
100
AcDbCircle
 10
707.4595663733
 20
547.547598513
 30
0.0
 40
3.287665900209847
100
AcDbArc
 50
136.0314488411
 51
169.1088970425
  0
LINE
  5
385
330
1F
100
AcDbEntity
  8
0
  6
Continuous
 62
     7
370
    15
100
AcDbLine
 10
704.2311177006
 20
548.1687798381
 30
0.0
 11
701.6968677391
 21
533.606144751
 31
0.0
  0
LWPOLYLINE
  5
386
330
1F
100
AcDbEntity
  8
0
  6
Continuous
 62
     7
370
    15
100
AcDbPolyline
 90
        9
 70
   128
 43
0.0
 10
701.6968677391
 20
533.606144751
 10
701.6884594428
 20
533.5218473159
 10
701.6936350758
 20
533.4450218271
 10
701.7121944406
 20
533.3786237664
 10
701.7434252553
 20
533.325203489
 10
701.7861263349
 20
533.2868149657
 10
701.8386560595
 20
533.26492939
 10
701.8989977025
 20
533.2603901524
 10
701.9648331873
 20
533.2733751145
  0
LINE
  5
387
330
1F
100
AcDbEntity
  8
0
  6
Continuous
 62
     7
370
    15
100
AcDbLine
 10
701.9648331873
 20
533.2733751145
 30
0.0
 11
702.1028514721
 21
533.3174471101
 31
0.0
  0
ARC
  5
388
330
1F
100
AcDbEntity
  8
0
  6
Continuous
 62
     7
370
    15
100
AcDbCircle
 10
701.8724322487
 20
533.889709314
 30
0.0
 40
0.6169092708318351
100
AcDbArc
 50
291.9319954966
 51
325.7792097178
  0
ARC
  5
389
330
1F
100
AcDbEntity
  8
0
  6
Continuous
 62
     7
370
    15
100
AcDbCircle
 10
701.0988182327
 20
534.1240029792
 30
0.0
 40
2.678621999860411
100
AcDbArc
 50
292.8635814974
 51
335.4847329702
  0
LINE
  5
38A
330
1F
100
AcDbEntity
  8
0
  6
Continuous
 62
     7
370
    15
100
AcDbLine
 10
702.1395655918
 20
531.6558334646
 30
0.0
 11
701.3114495609
 21
531.3914027079
 31
0.0
  0
LWPOLYLINE
  5
38B
330
1F
100
AcDbEntity
  8
0
  6
Continuous
 62
     7
370
    15
100
AcDbPolyline
 90
        9
 70
   128
 43
0.0
 10
701.3114495609
 20
531.3914027079
 10
701.048113944
 20
531.3394689426
 10
700.8067452646
 20
531.3576198095
 10
700.596620044
 20
531.4451560292
 10
700.4258157258
 20
531.5987174229
 10
700.3008966815
 20
531.8124009657
 10
700.2266592225
 20
532.0779932085
 10
700.2059609052
 20
532.3852902962
 10
700.2395940903
 20
532.72248247
  0
LINE
  5
38C
330
1F
100
AcDbEntity
  8
0
  6
Continuous
 62
     7
370
    15
100
AcDbLine
 10
700.2395940903
 20
532.72248247
 30
0.0
 11
703.0146037092
 21
548.6686142295
 31
0.0
  0
ARC
  5
38D
330
1F
100
AcDbEntity
  8
0
  6
Continuous
 62
     7
370
    15
100
AcDbCircle
 10
706.243052382
 20
548.0474329043
 30
0.0
 40
3.287665900210448
100
AcDbArc
 50
136.0314488411
 51
169.1088970425
  0
LINE
  5
38E
330
1F
100
AcDbEntity
  8
0
  6
Continuous
 62
     7
370
    15
100
AcDbLine
 10
703.8768502581
 20
550.3299391103
 30
0.0
 11
707.9038636221
 21
554.4849750455
 31
0.0
  0
ARC
  5
38F
330
1F
100
AcDbEntity
  8
0
  6
Continuous
 62
     7
370
    15
100
AcDbCircle
 10
705.5376480964
 20
556.7674882071
 30
0.0
 40
3.287680374832358
100
AcDbArc
 50
316.031523748
 51
349.1088221356
  0
LINE
  5
390
330
1F
100
AcDbEntity
  8
0
  6
Continuous
 62
     7
370
    15
100
AcDbLine
 10
708.766110171
 20
556.1462999263
 30
0.0
 11
709.6252736779
 21
561.0833360347
 31
0.0
  0
LINE
  5
391
330
1F
100
AcDbEntity
  8
0
  6
Continuous
 62
     7
370
    15
100
AcDbLine
 10
702.9293269369
 20
550.8769326805
 30
0.0
 11
706.956340301
 21
555.0319686157
 31
0.0
  0
ARC
  5
392
330
1F
100
AcDbEntity
  8
0
  6
Continuous
 62
     7
370
    15
100
AcDbCircle
 10
705.2955290608
 20
548.5944264745
 30
0.0
 40
3.287665900211167
100
AcDbArc
 50
136.0314488411
 51
169.1088970425
  0
LINE
  5
393
330
1F
100
AcDbEntity
  8
0
  6
Continuous
 62
     7
370
    15
100
AcDbLine
 10
707.8185868498
 20
556.6932934965
 30
0.0
 11
708.6777503567
 21
561.6303296049
 31
0.0
  0
LINE
  5
394
330
1F
100
AcDbEntity
  8
0
  6
Continuous
 62
     7
370
    15
100
AcDbLine
 10
699.2920707692
 20
533.2694760402
 30
0.0
 11
702.0670803881
 21
549.2156077997
 31
0.0
  0
ARC
  5
395
330
1F
100
AcDbEntity
  8
0
  6
Continuous
 62
     7
370
    15
100
AcDbCircle
 10
704.5901247753
 20
557.3144817773
 30
0.0
 40
3.287680374833049
100
AcDbArc
 50
316.031523748
 51
349.1088221356
  0
LWPOLYLINE
  5
396
330
1F
100
AcDbEntity
  8
0
  6
Continuous
 62
     7
370
    15
100
AcDbPolyline
 90
        7
 70
   128
 43
0.0
 10
699.6723428172
 20
531.9780928472
 10
699.6490967229
 20
531.9921495994
 10
699.4782924046
 20
532.1457109931
 10
699.3533733603
 20
532.3593945359
 10
699.2791359014
 20
532.6249867787
 10
699.2584375841
 20
532.9322838664
 10
699.2920707692
 20
533.2694760402
  0
LINE
  5
397
330
1F
100
AcDbEntity
  8
0
  6
Continuous
 62
     7
370
    15
100
AcDbLine
 10
708.1401557136
 20
560.6728216751
 30
0.0
 11
707.7488917675
 21
558.4244835384
 31
0.0
  0
ARC
  5
398
330
1F
100
AcDbEntity
  8
0
  6
Continuous
 62
     7
370
    15
100
AcDbCircle
 10
706.1634164913
 20
558.7052955959
 30
0.0
 40
1.610151316792571
100
AcDbArc
 50
287.6479764119
 51
349.9561960116
  0
LINE
  5
399
330
1F
100
AcDbEntity
  8
0
  6
Continuous
 62
     7
370
    15
100
AcDbLine
 10
706.6515627417
 20
557.1709225965
 30
0.0
 11
701.2693912207
 21
555.3665099526
 31
0.0
  0
ARC
  5
39A
330
1F
100
AcDbEntity
  8
0
  6
Continuous
 62
     7
370
    15
100
AcDbCircle
 10
701.7575289233
 20
553.8321497663
 30
0.0
 40
1.610136515275378
100
AcDbArc
 50
107.6478247858
 51
169.9565657677
  0
LINE
  5
39B
330
1F
100
AcDbEntity
  8
0
  6
Continuous
 62
     7
370
    15
100
AcDbLine
 10
700.1720664096
 20
554.1129490107
 30
0.0
 11
697.6378164482
 21
539.5503127068
 31
0.0
  0
LINE
  5
39C
330
1F
100
AcDbEntity
  8
0
  6
Continuous
 62
     7
370
    15
100
AcDbLine
 10
697.6378164482
 20
539.5503127068
 30
0.0
 11
697.6317704828
 21
539.4885435433
 31
0.0
  0
LINE
  5
39D
330
1F
100
AcDbEntity
  8
0
  6
Continuous
 62
     7
370
    15
100
AcDbLine
 10
698.0384664975
 20
537.1357878465
 30
0.0
 11
697.2523982699
 21
537.3355730972
 31
0.0
  0
ARC
  5
39E
330
1F
100
AcDbEntity
  8
0
  6
Continuous
 62
     7
370
    15
100
AcDbCircle
 10
697.7030345072
 20
539.3567312401
 30
0.0
 40
2.070785661748196
100
AcDbArc
 50
173.4196164672
 51
257.4309482158
  0
LINE
  5
39F
330
1F
100
AcDbEntity
  8
0
  6
Continuous
 62
     7
370
    15
100
AcDbLine
 10
695.6458910599
 20
539.5940371491
 30
0.0
 11
698.4209027862
 21
555.5401701251
 31
0.0
  0
ARC
  5
3A0
330
1F
100
AcDbEntity
  8
0
  6
Continuous
 62
     7
370
    15
100
AcDbCircle
 10
700.0063572279
 20
555.259375637
 30
0.0
 40
1.610127737568506
100
AcDbArc
 50
107.647544042
 51
169.9566823316
  0
LINE
  5
3A1
330
1F
100
AcDbEntity
  8
0
  6
Continuous
 62
     7
370
    15
100
AcDbLine
 10
699.5182297046
 20
556.7937298504
 30
0.0
 11
704.9004012255
 21
558.5981449275
 31
0.0
  0
ARC
  5
3A2
330
1F
100
AcDbEntity
  8
0
  6
Continuous
 62
     7
370
    15
100
AcDbCircle
 10
704.4122620848
 20
560.1325091742
 30
0.0
 40
1.610140820704072
100
AcDbArc
 50
287.647829751
 51
349.9564241846
  0
LINE
  5
3A3
330
1F
100
AcDbEntity
  8
0
  6
Continuous
 62
     7
370
    15
100
AcDbLine
 10
705.997728144
 20
559.8517052612
 30
0.0
 11
706.5426932173
 21
562.9832585625
 31
0.0
  0
LINE
  5
3A4
330
1F
100
AcDbEntity
  8
0
  6
Continuous
 62
     7
370
    15
100
AcDbLine
 10
708.349381099
 20
560.5248292612
 30
0.0
 11
708.0759681707
 21
558.9536996475
 31
0.0
  0
ARC
  5
3A5
330
1F
100
AcDbEntity
  8
0
  6
Continuous
 62
     7
370
    15
100
AcDbCircle
 10
704.7052652705
 20
560.7165181863
 30
0.0
 40
1.672761866290082
100
AcDbArc
 50
288.1910772459
 51
316.6315463343
  0
ARC
  5
3A6
330
1F
100
AcDbEntity
  8
0
  6
Continuous
 62
     7
370
    15
100
AcDbCircle
 10
706.5090378056
 20
559.2233739521
 30
0.0
 40
1.589966980592607
100
AcDbArc
 50
328.3427744714
 51
350.2348554019
  0
LINE
  5
3A7
330
1F
100
AcDbEntity
  8
0
  6
Continuous
 62
     7
370
    15
100
AcDbLine
 10
699.8453061078
 20
557.3229459595
 30
0.0
 11
705.2274797361
 21
559.12735982
 31
0.0
  0
ARC
  5
3A8
330
1F
100
AcDbEntity
  8
0
  6
Continuous
 62
     7
370
    15
100
AcDbCircle
 10
700.3497006542
 20
555.7643463407
 30
0.0
 40
1.638183942707369
100
AcDbArc
 50
107.9326360552
 51
147.9286088661
  0
LWPOLYLINE
  5
3A9
330
1F
100
AcDbEntity
  8
0
  6
Continuous
 62
     7
370
    15
100
AcDbPolyline
 90
        3
 70
   128
 43
0.0
 10
700.5755866593
 20
554.9260144767
 10
700.5509012501
 20
554.8541790257
 10
700.4991428128
 20
554.6421651198
  0
LINE
  5
3AA
330
1F
100
AcDbEntity
  8
0
  6
Continuous
 62
     7
370
    15
100
AcDbLine
 10
700.4991428128
 20
554.6421651198
 30
0.0
 11
698.013705224
 21
540.3600304028
 31
0.0
  0
LINE
  5
3AB
330
1F
100
AcDbEntity
  8
0
  6
Continuous
 62
     7
370
    15
100
AcDbLine
 10
744.2788803535
 20
537.7524664861
 30
0.0
 11
745.1380438604
 21
542.6895025945
 31
0.0
  0
ARC
  5
3AC
330
1F
100
AcDbEntity
  8
0
  6
Continuous
 62
     7
370
    15
100
AcDbCircle
 10
750.2818839722
 20
536.7496989383
 30
0.0
 40
6.086180674352682
100
AcDbArc
 50
170.5166269671
 51
188.2425945912
  0
LINE
  5
3AD
330
1F
100
AcDbEntity
  8
0
  6
Continuous
 62
     7
370
    15
100
AcDbLine
 10
745.0850505205
 20
530.4885641146
 30
0.0
 11
744.2585740019
 21
535.8771554135
 31
0.0
  0
ARC
  5
3AE
330
1F
100
AcDbEntity
  8
0
  6
Continuous
 62
     7
370
    15
100
AcDbCircle
 10
739.0617455039
 20
529.6160208615
 30
0.0
 40
6.086175732881756
100
AcDbArc
 50
350.5166224099
 51
8.2425987459
  0
LINE
  5
3AF
330
1F
100
AcDbEntity
  8
0
  6
Continuous
 62
     7
370
    15
100
AcDbLine
 10
742.2897324426
 20
512.6671206744
 30
0.0
 11
745.0647441688
 21
528.6132536504
 31
0.0
  0
LWPOLYLINE
  5
3B0
330
1F
100
AcDbEntity
  8
0
  6
Continuous
 62
     7
370
    15
100
AcDbPolyline
 90
        9
 70
   128
 43
0.0
 10
741.4467491109
 20
511.8227174131
 10
741.5569778711
 20
511.6758365635
 10
741.6748204595
 20
511.6026889746
 10
741.79574609
 20
511.6060889528
 10
741.9151101796
 20
511.685899132
 10
742.0283250441
 20
511.8390585012
 10
742.1310390213
 20
512.0596785628
 10
742.2193071661
 20
512.3392806218
 10
742.2897324426
 20
512.6671206744
  0
LINE
  5
3B1
330
1F
100
AcDbEntity
  8
0
  6
Continuous
 62
     7
370
    15
100
AcDbLine
 10
741.1259589101
 20
512.3791479869
 30
0.0
 11
741.4467491109
 21
511.8227174131
 31
0.0
  0
ARC
  5
3B2
330
1F
100
AcDbEntity
  8
0
  6
Continuous
 62
     7
370
    15
100
AcDbCircle
 10
744.8737424515
 20
513.9617272321
 30
0.0
 40
4.068223019955451
100
AcDbArc
 50
174.7678741985
 51
202.8929097961
  0
ARC
  5
3B3
330
1F
100
AcDbEntity
  8
0
  6
Continuous
 62
     7
370
    15
100
AcDbCircle
 10
742.3930724961
 20
514.2825676437
 30
0.0
 40
0.9016273743803851
100
AcDbArc
 50
179.3763810773
 51
203.7740360149
  0
LINE
  5
3B4
330
1F
100
AcDbEntity
  8
0
  6
Continuous
 62
     7
370
    15
100
AcDbLine
 10
741.6214204025
 20
513.8263562075
 30
0.0
 11
741.5679550178
 21
513.9190940281
 31
0.0
  0
LWPOLYLINE
  5
3B5
330
1F
100
AcDbEntity
  8
0
  6
Continuous
 62
     7
370
    15
100
AcDbPolyline
 90
        9
 70
   128
 43
0.0
 10
741.8321672891
 20
514.0374570227
 10
741.8145604431
 20
513.9554967053
 10
741.7924944606
 20
513.8855974073
 10
741.7668143858
 20
513.8304420878
 10
741.7385106697
 20
513.7921504205
 10
741.7086707009
 20
513.7721972674
 10
741.6784387665
 20
513.7713481853
 10
741.6489781194
 20
513.7896350826
 10
741.6214204025
 20
513.8263562075
  0
LINE
  5
3B6
330
1F
100
AcDbEntity
  8
0
  6
Continuous
 62
     7
370
    15
100
AcDbLine
 10
744.3664172505
 20
528.6000933266
 30
0.0
 11
741.8321672891
 21
514.0374570227
 31
0.0
  0
ARC
  5
3B7
330
1F
100
AcDbEntity
  8
0
  6
Continuous
 62
     7
370
    15
100
AcDbCircle
 10
738.363323691
 20
529.6028677679
 30
0.0
 40
6.08627052183237
100
AcDbArc
 50
350.5167024622
 51
8.2423891338
  0
LINE
  5
3B8
330
1F
100
AcDbEntity
  8
0
  6
Continuous
 62
     7
370
    15
100
AcDbLine
 10
743.5602449763
 20
535.8639938732
 30
0.0
 11
744.3867257095
 21
530.4754025743
 31
0.0
  0
ARC
  5
3B9
330
1F
100
AcDbEntity
  8
0
  6
Continuous
 62
     7
370
    15
100
AcDbCircle
 10
749.5836926205
 20
536.7365294865
 30
0.0
 40
6.086315791943973
100
AcDbArc
 50
170.5167581298
 51
188.242335076
  0
LINE
  5
3BA
330
1F
100
AcDbEntity
  8
0
  6
Continuous
 62
     7
370
    15
100
AcDbLine
 10
744.2442630395
 20
541.5532001148
 30
0.0
 11
743.5805534352
 21
537.739305554
 31
0.0
  0
LINE
  5
3BB
330
1F
100
AcDbEntity
  8
0
  6
Continuous
 62
     7
370
    15
100
AcDbLine
 10
746.3596512984
 20
530.4707860453
 30
0.0
 11
745.5331726726
 21
535.8593785607
 31
0.0
  0
ARC
  5
3BC
330
1F
100
AcDbEntity
  8
0
  6
Continuous
 62
     7
370
    15
100
AcDbCircle
 10
740.3361915454
 20
529.5982444677
 30
0.0
 40
6.08632863071389
100
AcDbArc
 50
350.5168468547
 51
8.2423743011
  0
LINE
  5
3BD
330
1F
100
AcDbEntity
  8
0
  6
Continuous
 62
     7
370
    15
100
AcDbLine
 10
743.5643332206
 20
512.649342605
 30
0.0
 11
746.3393449468
 21
528.595475581
 31
0.0
  0
LINE
  5
3BE
330
1F
100
AcDbEntity
  8
0
  6
Continuous
 62
     7
370
    15
100
AcDbLine
 10
745.5534811315
 20
537.7346884168
 30
0.0
 11
746.4126446384
 21
542.6717245251
 31
0.0
  0
ARC
  5
3BF
330
1F
100
AcDbEntity
  8
0
  6
Continuous
 62
     7
370
    15
100
AcDbCircle
 10
751.5565081104
 20
536.7319144134
 30
0.0
 40
6.086204778924526
100
AcDbArc
 50
170.5166032584
 51
188.2424887401
  0
LWPOLYLINE
  5
3C0
330
1F
100
AcDbEntity
  8
0
  6
Continuous
 62
     7
370
    15
100
AcDbPolyline
 90
        7
 70
   128
 43
0.0
 10
743.0017908041
 20
511.5769261073
 10
743.0703468679
 20
511.5883108835
 10
743.1897109576
 20
511.6681210626
 10
743.3029258221
 20
511.8212804319
 10
743.4056397992
 20
512.0419004934
 10
743.4939058367
 20
512.321503769
 10
743.5643332206
 20
512.649342605
  0
LINE
  5
3C1
330
1F
100
AcDbEntity
  8
0
  6
Continuous
 62
     7
370
    15
100
AcDbLine
 10
750.2540148325
 20
539.2356334957
 30
0.0
 11
751.1131772857
 21
544.1726696042
 31
0.0
  0
ARC
  5
3C2
330
1F
100
AcDbEntity
  8
0
  6
Continuous
 62
     7
370
    15
100
AcDbCircle
 10
752.1615102752
 20
538.9579369672
 30
0.0
 40
1.927603233506468
100
AcDbArc
 50
171.7169699071
 51
226.7423973901
  0
LINE
  5
3C3
330
1F
100
AcDbEntity
  8
0
  6
Continuous
 62
     7
370
    15
100
AcDbLine
 10
755.1653754991
 20
533.2825761909
 30
0.0
 11
750.8405630402
 21
537.5541019953
 31
0.0
  0
ARC
  5
3C4
330
1F
100
AcDbEntity
  8
0
  6
Continuous
 62
     7
370
    15
100
AcDbCircle
 10
753.844425109
 20
531.8787375271
 30
0.0
 40
1.927608084375702
100
AcDbArc
 50
351.7170652526
 51
46.7424042944
  0
LINE
  5
3C5
330
1F
100
AcDbEntity
  8
0
  6
Continuous
 62
     7
370
    15
100
AcDbLine
 10
752.9769151415
 20
515.6549123229
 30
0.0
 11
755.7519258141
 21
531.6010434739
 31
0.0
  0
ARC
  5
3C6
330
1F
100
AcDbEntity
  8
0
  6
Continuous
 62
     7
370
    15
100
AcDbCircle
 10
751.2842221488
 20
516.0176254167
 30
0.0
 40
1.731118238581969
100
AcDbArc
 50
252.1552230739
 51
347.9054640653
  0
LINE
  5
3C7
330
1F
100
AcDbEntity
  8
0
  6
Continuous
 62
     7
370
    15
100
AcDbLine
 10
749.6048343006
 20
514.6617962232
 30
0.0
 11
750.7537394786
 21
514.3697909309
 31
0.0
  0
ARC
  5
3C8
330
1F
100
AcDbEntity
  8
0
  6
Continuous
 62
     7
370
    15
100
AcDbCircle
 10
750.1619185483
 20
516.8367684914
 30
0.0
 40
2.245183116466262
100
AcDbArc
 50
226.7595011936
 51
255.6334607199
  0
LINE
  5
3C9
330
1F
100
AcDbEntity
  8
0
  6
Continuous
 62
     7
370
    15
100
AcDbLine
 10
750.5833629508
 20
516.2632521698
 30
0.0
 11
750.4854073528
 21
516.2881502003
 31
0.0
  0
ARC
  5
3CA
330
1F
100
AcDbEntity
  8
0
  6
Continuous
 62
     7
370
    15
100
AcDbCircle
 10
750.7159827935
 20
516.6752131302
 30
0.0
 40
0.4327815333714506
100
AcDbArc
 50
252.1554219107
 51
347.9052651346
  0
LINE
  5
3CB
330
1F
100
AcDbEntity
  8
0
  6
Continuous
 62
     7
370
    15
100
AcDbLine
 10
753.6734065646
 20
531.1471674529
 30
0.0
 11
751.1391576568
 21
516.584532974
 31
0.0
  0
ARC
  5
3CC
330
1F
100
AcDbEntity
  8
0
  6
Continuous
 62
     7
370
    15
100
AcDbCircle
 10
751.7659013131
 20
531.424860936
 30
0.0
 40
1.927612501250524
100
AcDbArc
 50
351.7171014885
 51
46.7423422728
  0
LINE
  5
3CD
330
1F
100
AcDbEntity
  8
0
  6
Continuous
 62
     7
370
    15
100
AcDbLine
 10
748.7620437906
 20
537.100227191
 30
0.0
 11
753.0868562496
 21
532.8287013866
 31
0.0
  0
ARC
  5
3CE
330
1F
100
AcDbEntity
  8
0
  6
Continuous
 62
     7
370
    15
100
AcDbCircle
 10
750.0829910256
 20
538.5040621629
 30
0.0
 40
1.927603233506663
100
AcDbArc
 50
171.7169699071
 51
226.7423973901
  0
LINE
  5
3CF
330
1F
100
AcDbEntity
  8
0
  6
Continuous
 62
     7
370
    15
100
AcDbLine
 10
748.7026936522
 20
541.8112133038
 30
0.0
 11
748.175495583
 21
538.7817586915
 31
0.0
  0
LINE
  5
3D0
330
1F
100
AcDbEntity
  8
0
  6
Continuous
 62
     7
370
    15
100
AcDbLine
 10
750.5810912357
 20
539.7648496048
 30
0.0
 11
751.4402536889
 21
544.7018857133
 31
0.0
  0
LINE
  5
3D1
330
1F
100
AcDbEntity
  8
0
  6
Continuous
 62
     7
370
    15
100
AcDbLine
 10
755.4924519023
 20
533.8117923
 30
0.0
 11
751.1676415507
 21
538.0833168879
 31
0.0
  0
ARC
  5
3D2
330
1F
100
AcDbEntity
  8
0
  6
Continuous
 62
     7
370
    15
100
AcDbCircle
 10
752.4885879645
 20
539.4871541647
 30
0.0
 40
1.927604349421466
100
AcDbArc
 50
171.7170074295
 51
226.7424621175
  0
ARC
  5
3D3
330
1F
100
AcDbEntity
  8
0
  6
Continuous
 62
     7
370
    15
100
AcDbCircle
 10
754.1715095086
 20
532.4079564254
 30
0.0
 40
1.92760057325675
100
AcDbArc
 50
351.7169489681
 51
46.7425205788
  0
LINE
  5
3D4
330
1F
100
AcDbEntity
  8
0
  6
Continuous
 62
     7
370
    15
100
AcDbLine
 10
753.3039915447
 20
516.1841259985
 30
0.0
 11
756.0790022173
 21
532.130259583
 31
0.0
  0
LWPOLYLINE
  5
3D5
330
1F
100
AcDbEntity
  8
0
  6
Continuous
 62
     7
370
    15
100
AcDbPolyline
 90
        3
 70
   128
 43
0.0
 10
753.090447161
 20
515.6193296978
 10
753.2070453638
 20
515.847818703
 10
753.3039915447
 20
516.1841259985
  0
ARC
  5
3D6
330
1F
100
AcDbEntity
  8
0
  6
Continuous
 62
     7
370
    15
100
AcDbCircle
 10
751.0389585236
 20
517.271737066
 30
0.0
 40
0.4957066568868553
100
AcDbArc
 50
261.9049428023
 51
286.0291194413
  0
LINE
  5
3D7
330
1F
100
AcDbEntity
  8
0
  6
Continuous
 62
     7
370
    15
100
AcDbLine
 10
737.1315324357
 20
543.936456137
 30
0.0
 11
736.7402684896
 21
541.6881180003
 31
0.0
  0
ARC
  5
3D8
330
1F
100
AcDbEntity
  8
0
  6
Continuous
 62
     7
370
    15
100
AcDbCircle
 10
735.1547991314
 20
541.9689225677
 30
0.0
 40
1.61014418319472
100
AcDbArc
 50
287.6479148728
 51
349.9564217304
  0
LINE
  5
3D9
330
1F
100
AcDbEntity
  8
0
  6
Continuous
 62
     7
370
    15
100
AcDbLine
 10
735.6429415711
 20
540.4345558419
 30
0.0
 11
730.2607700502
 21
538.6301431979
 31
0.0
  0
ARC
  5
3DA
330
1F
100
AcDbEntity
  8
0
  6
Continuous
 62
     7
370
    15
100
AcDbCircle
 10
730.7489072242
 20
537.0957820054
 30
0.0
 40
1.610137313910873
100
AcDbArc
 50
107.6477960077
 51
169.9565124559
  0
LINE
  5
3DB
330
1F
100
AcDbEntity
  8
0
  6
Continuous
 62
     7
370
    15
100
AcDbLine
 10
729.1634441854
 20
537.3765828643
 30
0.0
 11
726.6291942239
 21
522.8139465604
 31
0.0
  0
LINE
  5
3DC
330
1F
100
AcDbEntity
  8
0
  6
Continuous
 62
     7
370
    15
100
AcDbLine
 10
726.6291942239
 20
522.8139465604
 30
0.0
 11
726.6232610013
 21
522.756122602
 31
0.0
  0
LINE
  5
3DD
330
1F
100
AcDbEntity
  8
0
  6
Continuous
 62
     7
370
    15
100
AcDbLine
 10
727.0305844773
 20
520.3992303873
 30
0.0
 11
726.2437760457
 21
520.5992069508
 31
0.0
  0
ARC
  5
3DE
330
1F
100
AcDbEntity
  8
0
  6
Continuous
 62
     7
370
    15
100
AcDbCircle
 10
726.6944114787
 20
522.6203640098
 30
0.0
 40
2.070784428785928
100
AcDbArc
 50
173.4195908133
 51
257.4309634088
  0
LINE
  5
3DF
330
1F
100
AcDbEntity
  8
0
  6
Continuous
 62
     7
370
    15
100
AcDbLine
 10
724.6372693625
 20
522.8576706985
 30
0.0
 11
727.4122810888
 21
538.8038036745
 31
0.0
  0
ARC
  5
3E0
330
1F
100
AcDbEntity
  8
0
  6
Continuous
 62
     7
370
    15
100
AcDbCircle
 10
728.9977406093
 20
538.5230058954
 30
0.0
 40
1.61013331248157
100
AcDbArc
 50
107.6477099289
 51
169.9565985347
  0
LINE
  5
3E1
330
1F
100
AcDbEntity
  8
0
  6
Continuous
 62
     7
370
    15
100
AcDbLine
 10
728.5096069536
 20
540.0573640082
 30
0.0
 11
733.891780055
 21
541.8617781728
 31
0.0
  0
ARC
  5
3E2
330
1F
100
AcDbEntity
  8
0
  6
Continuous
 62
     7
370
    15
100
AcDbCircle
 10
733.4036361861
 20
543.3961450895
 30
0.0
 40
1.610144798354949
100
AcDbArc
 50
287.6479612757
 51
349.9563747498
  0
LINE
  5
3E3
330
1F
100
AcDbEntity
  8
0
  6
Continuous
 62
     7
370
    15
100
AcDbLine
 10
734.9891059198
 20
543.1153391148
 30
0.0
 11
735.534070993
 21
546.2468924161
 31
0.0
  0
LINE
  5
3E4
330
1F
100
AcDbEntity
  8
0
  6
Continuous
 62
     7
370
    15
100
AcDbLine
 10
737.3407588747
 20
543.7884631149
 30
0.0
 11
737.0673459464
 21
542.2173335011
 31
0.0
  0
ARC
  5
3E5
330
1F
100
AcDbEntity
  8
0
  6
Continuous
 62
     7
370
    15
100
AcDbCircle
 10
733.6966663315
 20
543.9801170859
 30
0.0
 40
1.672720936535669
100
AcDbArc
 50
288.1906794008
 51
316.6318690045
  0
ARC
  5
3E6
330
1F
100
AcDbEntity
  8
0
  6
Continuous
 62
     7
370
    15
100
AcDbCircle
 10
735.5004155814
 20
542.4870078057
 30
0.0
 40
1.589966980592145
100
AcDbArc
 50
328.3427744714
 51
350.2348554019
  0
LINE
  5
3E7
330
1F
100
AcDbEntity
  8
0
  6
Continuous
 62
     7
370
    15
100
AcDbLine
 10
728.8366838836
 20
540.5865798131
 30
0.0
 11
734.218856985
 21
542.3909939778
 31
0.0
  0
ARC
  5
3E8
330
1F
100
AcDbEntity
  8
0
  6
Continuous
 62
     7
370
    15
100
AcDbCircle
 10
729.3411112264
 20
539.027936666
 30
0.0
 40
1.638235454493083
100
AcDbArc
 50
107.933258622
 51
147.9279286456
  0
LWPOLYLINE
  5
3E9
330
1F
100
AcDbEntity
  8
0
  6
Continuous
 62
     7
370
    15
100
AcDbPolyline
 90
        3
 70
   128
 43
0.0
 10
729.5669639082
 20
538.1896486344
 10
729.5422800796
 20
538.117812271
 10
729.4905216422
 20
537.9057983651
  0
LINE
  5
3EA
330
1F
100
AcDbEntity
  8
0
  6
Continuous
 62
     7
370
    15
100
AcDbLine
 10
729.4905216422
 20
537.9057983651
 30
0.0
 11
727.003297027
 21
523.6133920915
 31
0.0
  0
LINE
  5
3EB
330
1F
100
AcDbEntity
  8
0
  6
Continuous
 62
     7
370
    15
100
AcDbLine
 10
736.9607059903
 20
541.2396975029
 30
0.0
 11
737.1519388861
 21
542.3385873724
 31
0.0
  0
ARC
  5
3EC
330
1F
100
AcDbEntity
  8
0
  6
Continuous
 62
     7
370
    15
100
AcDbCircle
 10
740.1751920995
 20
541.867408756
 30
0.0
 40
3.05974987229376
100
AcDbArc
 50
157.6826891945
 51
171.1416291634
  0
LINE
  5
3ED
330
1F
100
AcDbEntity
  8
0
  6
Continuous
 62
     7
370
    15
100
AcDbLine
 10
707.9693271609
 20
557.9760642576
 30
0.0
 11
708.1605600566
 21
559.0749541271
 31
0.0
  0
ARC
  5
3EE
330
1F
100
AcDbEntity
  8
0
  6
Continuous
 62
     7
370
    15
100
AcDbCircle
 10
711.1838678211
 20
558.6037522803
 30
0.0
 40
3.059807350029772
100
AcDbArc
 50
157.6826792441
 51
171.1413566583
  0
LINE
  5
3EF
330
1F
100
AcDbEntity
  8
0
  6
Continuous
 62
     7
370
    15
100
AcDbLine
 10
739.6200024903
 20
542.6222280337
 30
0.0
 11
738.9740029918
 21
538.9100987804
 31
0.0
  0
ARC
  5
3F0
330
1F
100
AcDbEntity
  8
0
  6
Continuous
 62
     7
370
    15
100
AcDbCircle
 10
735.7455468217
 20
539.5312856684
 30
0.0
 40
3.287674313564136
100
AcDbArc
 50
316.0314850397
 51
349.1088265289
  0
LINE
  5
3F1
330
1F
100
AcDbEntity
  8
0
  6
Continuous
 62
     7
370
    15
100
AcDbLine
 10
738.1117564429
 20
537.2487751163
 30
0.0
 11
734.0847430789
 21
533.0937379643
 31
0.0
  0
ARC
  5
3F2
330
1F
100
AcDbEntity
  8
0
  6
Continuous
 62
     7
370
    15
100
AcDbCircle
 10
736.4509452028
 20
530.8112317584
 30
0.0
 40
3.287665900212028
100
AcDbArc
 50
136.0314488411
 51
169.1088970425
  0
LINE
  5
3F3
330
1F
100
AcDbEntity
  8
0
  6
Continuous
 62
     7
370
    15
100
AcDbLine
 10
733.22249653
 20
531.4324130835
 30
0.0
 11
730.6882465685
 21
516.8697779963
 31
0.0
  0
LWPOLYLINE
  5
3F4
330
1F
100
AcDbEntity
  8
0
  6
Continuous
 62
     7
370
    15
100
AcDbPolyline
 90
        9
 70
   128
 43
0.0
 10
730.6882465685
 20
516.8697779963
 10
730.6798382723
 20
516.7854805612
 10
730.6850139053
 20
516.7086550725
 10
730.70357327
 20
516.6422570118
 10
730.7348040848
 20
516.5888367343
 10
730.7775051643
 20
516.550448211
 10
730.830034889
 20
516.5285626353
 10
730.890376532
 20
516.5240233977
 10
730.9562120167
 20
516.5370083598
  0
LINE
  5
3F5
330
1F
100
AcDbEntity
  8
0
  6
Continuous
 62
     7
370
    15
100
AcDbLine
 10
730.9562120167
 20
516.5370083598
 30
0.0
 11
731.0942303015
 21
516.5810803555
 31
0.0
  0
ARC
  5
3F6
330
1F
100
AcDbEntity
  8
0
  6
Continuous
 62
     7
370
    15
100
AcDbCircle
 10
730.8644729122
 20
517.1522682252
 30
0.0
 40
0.6156655264056925
100
AcDbArc
 50
291.9122041585
 51
325.5251063105
  0
ARC
  5
3F7
330
1F
100
AcDbEntity
  8
0
  6
Continuous
 62
     7
370
    15
100
AcDbCircle
 10
730.0900537664
 20
517.3878648618
 30
0.0
 40
2.678888349956991
100
AcDbArc
 50
292.8645055191
 51
335.5021185602
  0
LINE
  5
3F8
330
1F
100
AcDbEntity
  8
0
  6
Continuous
 62
     7
370
    15
100
AcDbLine
 10
731.1309444212
 20
514.91946671
 30
0.0
 11
730.3028283903
 21
514.6550359532
 31
0.0
  0
LWPOLYLINE
  5
3F9
330
1F
100
AcDbEntity
  8
0
  6
Continuous
 62
     7
370
    15
100
AcDbPolyline
 90
        9
 70
   128
 43
0.0
 10
730.3028283903
 20
514.6550359532
 10
730.0394927735
 20
514.6031021879
 10
729.7981240941
 20
514.6212530549
 10
729.5879988735
 20
514.7087892746
 10
729.4171945552
 20
514.8623506682
 10
729.2922755109
 20
515.0760342111
 10
729.2180380519
 20
515.3416264539
 10
729.1973397346
 20
515.6489235416
 10
729.2309729197
 20
515.9861157153
  0
LINE
  5
3FA
330
1F
100
AcDbEntity
  8
0
  6
Continuous
 62
     7
370
    15
100
AcDbLine
 10
729.2309729197
 20
515.9861157153
 30
0.0
 11
732.0059825386
 21
531.9322474748
 31
0.0
  0
ARC
  5
3FB
330
1F
100
AcDbEntity
  8
0
  6
Continuous
 62
     7
370
    15
100
AcDbCircle
 10
735.2344312114
 20
531.3110661497
 30
0.0
 40
3.287665900210384
100
AcDbArc
 50
136.0314488411
 51
169.1088970425
  0
LINE
  5
3FC
330
1F
100
AcDbEntity
  8
0
  6
Continuous
 62
     7
370
    15
100
AcDbLine
 10
732.8682290875
 20
533.5935723556
 30
0.0
 11
736.8952424515
 21
537.7486082908
 31
0.0
  0
ARC
  5
3FD
330
1F
100
AcDbEntity
  8
0
  6
Continuous
 62
     7
370
    15
100
AcDbCircle
 10
734.5290269258
 20
540.0311214525
 30
0.0
 40
3.287680374828287
100
AcDbArc
 50
316.0315237479
 51
349.1088221356
  0
LINE
  5
3FE
330
1F
100
AcDbEntity
  8
0
  6
Continuous
 62
     7
370
    15
100
AcDbLine
 10
737.7574890004
 20
539.4099331717
 30
0.0
 11
738.6166525073
 21
544.34696928
 31
0.0
  0
LINE
  5
3FF
330
1F
100
AcDbEntity
  8
0
  6
Continuous
 62
     7
370
    15
100
AcDbLine
 10
731.9207057664
 20
534.1405659258
 30
0.0
 11
735.9477191304
 21
538.295601861
 31
0.0
  0
ARC
  5
400
330
1F
100
AcDbEntity
  8
0
  6
Continuous
 62
     7
370
    15
100
AcDbCircle
 10
734.2869078903
 20
531.8580597199
 30
0.0
 40
3.287665900212251
100
AcDbArc
 50
136.0314488411
 51
169.1088970425
  0
LINE
  5
401
330
1F
100
AcDbEntity
  8
0
  6
Continuous
 62
     7
370
    15
100
AcDbLine
 10
736.8099656793
 20
539.9569267419
 30
0.0
 11
737.6691291862
 21
544.8939628502
 31
0.0
  0
LINE
  5
402
330
1F
100
AcDbEntity
  8
0
  6
Continuous
 62
     7
370
    15
100
AcDbLine
 10
728.2834495986
 20
516.5331092855
 30
0.0
 11
731.0584592175
 21
532.479241045
 31
0.0
  0
ARC
  5
403
330
1F
100
AcDbEntity
  8
0
  6
Continuous
 62
     7
370
    15
100
AcDbCircle
 10
733.5815036047
 20
540.5781150227
 30
0.0
 40
3.287680374829266
100
AcDbArc
 50
316.0315237479
 51
349.1088221356
  0
LWPOLYLINE
  5
404
330
1F
100
AcDbEntity
  8
0
  6
Continuous
 62
     7
370
    15
100
AcDbPolyline
 90
        7
 70
   128
 43
0.0
 10
728.6637216467
 20
515.2417260925
 10
728.6404755524
 20
515.2557828448
 10
728.4696712341
 20
515.4093442384
 10
728.3447521898
 20
515.6230277813
 10
728.2705147308
 20
515.8886200241
 10
728.2498164135
 20
516.1959171118
 10
728.2834495986
 20
516.5331092855
  0
LINE
  5
405
330
1F
100
AcDbEntity
  8
0
  6
Continuous
 62
     7
370
    15
100
AcDbLine
 10
751.5258086304
 20
545.005551156
 30
0.0
 11
751.4402536889
 21
544.7018857133
 31
0.0
  0
LWPOLYLINE
  5
406
330
1F
100
AcDbEntity
  8
0
  6
Continuous
 62
     7
370
    15
100
AcDbPolyline
 90
       10
 70
   128
 43
0.0
 10
751.1131772857
 20
544.1726696042
 10
750.8251067371
 20
543.8919160594
 10
750.4685159496
 20
543.6348748928
 10
750.0468103885
 20
543.4040002731
 10
749.5640077021
 20
543.2014969726
 10
749.0247198093
 20
543.029294822
 10
748.4340928404
 20
542.889037155
 10
747.7977586679
 20
542.7820649952
 10
747.1217917064
 20
542.7093957694
 10
746.4126446384
 20
542.6717245251
  0
ARC
  5
407
330
1F
100
AcDbEntity
  8
0
  6
Continuous
 62
     7
370
    15
100
AcDbCircle
 10
745.9230809765
 20
559.4363880673
 30
0.0
 40
16.76527531276968
100
AcDbArc
 50
244.1633286519
 51
267.316133148
  0
LWPOLYLINE
  5
408
330
1F
100
AcDbEntity
  8
0
  6
Continuous
 62
     7
370
    15
100
AcDbPolyline
 90
       10
 70
   128
 43
0.0
 10
737.6691291862
 20
544.8939628502
 10
737.1927633772
 20
545.2329410183
 10
736.7779625235
 20
545.5828391362
 10
736.4286768385
 20
545.9403151057
 10
736.1482443526
 20
546.3019596349
 10
735.9393382296
 20
546.6643205684
 10
735.8039530691
 20
547.0239418156
 10
735.7433827795
 20
547.3773919388
 10
735.7582005577
 20
547.7212969984
 10
735.7627165925
 20
547.7487097805
  0
LINE
  5
409
330
1F
100
AcDbEntity
  8
0
  6
Continuous
 62
     7
370
    15
100
AcDbLine
 10
744.9314589751
 20
541.5024010785
 30
0.0
 11
745.1380438604
 21
542.6895025945
 31
0.0
  0
LINE
  5
40A
330
1F
100
AcDbEntity
  8
0
  6
Continuous
 62
     7
370
    15
100
AcDbLine
 10
738.410067622
 20
543.159867764
 30
0.0
 11
738.6166525073
 21
544.34696928
 31
0.0
  0
ARC
  5
40B
330
1F
100
AcDbEntity
  8
0
  6
Continuous
 62
     7
370
    15
100
AcDbCircle
 10
745.7164973043
 20
558.2492913244
 30
0.0
 40
16.76528013742315
100
AcDbArc
 50
244.1633320294
 51
267.3161297705
  0
LINE
  5
40C
330
1F
100
AcDbEntity
  8
0
  6
Continuous
 62
     7
370
    15
100
AcDbLine
 10
750.9065934541
 20
542.9855686965
 30
0.0
 11
751.1131772857
 21
544.1726696042
 31
0.0
  0
LINE
  5
40D
330
1F
100
AcDbEntity
  8
0
  6
Continuous
 62
     7
370
    15
100
AcDbLine
 10
746.2060597531
 20
541.4846230091
 30
0.0
 11
746.4126446384
 21
542.6717245251
 31
0.0
  0
LWPOLYLINE
  5
40E
330
1F
100
AcDbEntity
  8
0
  6
Continuous
 62
     7
370
    15
100
AcDbPolyline
 90
       10
 70
   128
 43
0.0
 10
750.9065934541
 20
542.9855686965
 10
750.6185218518
 20
542.7048145434
 10
750.261932118
 20
542.4477739851
 10
749.8402265568
 20
542.2168993654
 10
749.3574238704
 20
542.0143960649
 10
748.8181359777
 20
541.8421939143
 10
748.2275090087
 20
541.7019362472
 10
747.5911737826
 20
541.5949634792
 10
746.9152078747
 20
541.5222948616
 10
746.2060597531
 20
541.4846230091
  0
LINE
  5
40F
330
1F
100
AcDbEntity
  8
0
  6
Continuous
 62
     7
370
    15
100
AcDbLine
 10
737.4625443009
 20
543.7068613342
 30
0.0
 11
737.6691291862
 21
544.8939628502
 31
0.0
  0
LWPOLYLINE
  5
410
330
1F
100
AcDbEntity
  8
0
  6
Continuous
 62
     7
370
    15
100
AcDbPolyline
 90
       10
 70
   128
 43
0.0
 10
737.4625443009
 20
543.7068613342
 10
736.9861805992
 20
544.0458407189
 10
736.5713776382
 20
544.3957376202
 10
736.2220919532
 20
544.7532138939
 10
735.9416594673
 20
545.1148584231
 10
735.7327554516
 20
545.4772205731
 10
735.5973702912
 20
545.8368418203
 10
735.5367978941
 20
546.1902904228
 10
735.5516156724
 20
546.5341954824
 10
735.5561317072
 20
546.5616082645
  0
LINE
  5
411
330
1F
100
AcDbEntity
  8
0
  6
Continuous
 62
     7
370
    15
100
AcDbLine
 10
751.2336698572
 20
543.5147848056
 30
0.0
 11
751.4402536889
 21
544.7018857133
 31
0.0
  0
LINE
  5
412
330
1F
100
AcDbEntity
  8
0
  6
Continuous
 62
     7
370
    15
100
AcDbLine
 10
751.319223745
 20
543.81844964
 30
0.0
 11
751.2336698572
 21
543.5147848056
 31
0.0
  0
ARC
  5
413
330
1F
100
AcDbEntity
  8
0
  6
Continuous
 62
     7
370
    15
100
AcDbCircle
 10
716.9317037601
 20
576.1727555215
 30
0.0
 40
16.76527664540646
100
AcDbArc
 50
244.1633247324
 51
267.3161314478
  0
LWPOLYLINE
  5
414
330
1F
100
AcDbEntity
  8
0
  6
Continuous
 62
     7
370
    15
100
AcDbPolyline
 90
       10
 70
   128
 43
0.0
 10
708.6777503567
 20
561.6303296049
 10
708.2013856014
 20
561.9693071647
 10
707.7865836941
 20
562.3192058909
 10
707.4372990628
 20
562.6766812521
 10
707.1568665768
 20
563.0383257813
 10
706.9479594001
 20
563.400687323
 10
706.8125742397
 20
563.7603085702
 10
706.7520050037
 20
564.1137580852
 10
706.7668238356
 20
564.4576625365
 10
706.7713377631
 20
564.4850765351
  0
LINE
  5
415
330
1F
100
AcDbEntity
  8
0
  6
Continuous
 62
     7
370
    15
100
AcDbLine
 10
722.5344298009
 20
561.7419179106
 30
0.0
 11
722.4488759131
 21
561.4382518597
 31
0.0
  0
LWPOLYLINE
  5
416
330
1F
100
AcDbEntity
  8
0
  6
Continuous
 62
     7
370
    15
100
AcDbPolyline
 90
       10
 70
   128
 43
0.0
 10
722.1217995099
 20
560.9090357506
 10
721.8337300151
 20
560.6282815975
 10
721.4771392275
 20
560.3712404309
 10
721.0554315591
 20
560.1403670277
 10
720.57263098
 20
559.9378625107
 10
720.0333430872
 20
559.7656603601
 10
719.4427140109
 20
559.6254039096
 10
718.8063819458
 20
559.5184305333
 10
718.1304149843
 20
559.4457613075
 10
717.4212668626
 20
559.4080906715
  0
LINE
  5
417
330
1F
100
AcDbEntity
  8
0
  6
Continuous
 62
     7
370
    15
100
AcDbLine
 10
715.9400811993
 20
558.2387672249
 30
0.0
 11
716.1466660847
 21
559.4258687409
 31
0.0
  0
LINE
  5
418
330
1F
100
AcDbEntity
  8
0
  6
Continuous
 62
     7
370
    15
100
AcDbLine
 10
709.4186887925
 20
559.8962345187
 30
0.0
 11
709.6252736779
 21
561.0833360347
 31
0.0
  0
ARC
  5
419
330
1F
100
AcDbEntity
  8
0
  6
Continuous
 62
     7
370
    15
100
AcDbCircle
 10
716.7251200879
 20
574.9856587786
 30
0.0
 40
16.76528147005779
100
AcDbArc
 50
244.1633281099
 51
267.3161280703
  0
LINE
  5
41A
330
1F
100
AcDbEntity
  8
0
  6
Continuous
 62
     7
370
    15
100
AcDbLine
 10
721.9152156783
 20
559.7219348428
 30
0.0
 11
722.1217995099
 21
560.9090357506
 31
0.0
  0
LINE
  5
41B
330
1F
100
AcDbEntity
  8
0
  6
Continuous
 62
     7
370
    15
100
AcDbLine
 10
717.2146819773
 20
558.2209891555
 30
0.0
 11
717.4212668626
 21
559.4080906715
 31
0.0
  0
LWPOLYLINE
  5
41C
330
1F
100
AcDbEntity
  8
0
  6
Continuous
 62
     7
370
    15
100
AcDbPolyline
 90
       10
 70
   128
 43
0.0
 10
721.9152156783
 20
559.7219348428
 10
721.6271451297
 20
559.4411800815
 10
721.2705553959
 20
559.1841395232
 10
720.8488477274
 20
558.95326612
 10
720.3660471483
 20
558.750761603
 10
719.8267592556
 20
558.5785594524
 10
719.2361301793
 20
558.4383030019
 10
718.5997970605
 20
558.3313290173
 10
717.9238311526
 20
558.2586603998
 10
717.2146819773
 20
558.2209891555
  0
LINE
  5
41D
330
1F
100
AcDbEntity
  8
0
  6
Continuous
 62
     7
370
    15
100
AcDbLine
 10
708.4711654714
 20
560.4432280889
 30
0.0
 11
708.6777503567
 21
561.6303296049
 31
0.0
  0
LWPOLYLINE
  5
41E
330
1F
100
AcDbEntity
  8
0
  6
Continuous
 62
     7
370
    15
100
AcDbPolyline
 90
       10
 70
   128
 43
0.0
 10
708.4711654714
 20
560.4432280889
 10
707.9948028235
 20
560.7822068653
 10
707.5799988088
 20
561.1321043749
 10
707.2307141774
 20
561.4895800403
 10
706.9502816915
 20
561.8512245695
 10
706.7413766222
 20
562.2135873277
 10
706.6059914617
 20
562.5732085749
 10
706.5454201184
 20
562.9266565692
 10
706.5602389503
 20
563.2705610205
 10
706.5647528778
 20
563.2979750191
  0
LINE
  5
41F
330
1F
100
AcDbEntity
  8
0
  6
Continuous
 62
     7
370
    15
100
AcDbLine
 10
722.2422920815
 20
560.251150952
 30
0.0
 11
722.4488759131
 21
561.4382518597
 31
0.0
  0
LINE
  5
420
330
1F
100
AcDbEntity
  8
0
  6
Continuous
 62
     7
370
    15
100
AcDbLine
 10
722.3278449156
 20
560.5548163946
 30
0.0
 11
722.2422920815
 21
560.251150952
 31
0.0
  0
LINE
  5
421
330
1F
100
AcDbEntity
  8
0
  6
Continuous
 62
     7
370
    15
100
AcDbLine
 10
698.307295956
 20
539.1786696107
 30
0.0
 11
698.3114094884
 21
539.2016099928
 31
0.0
  0
LWPOLYLINE
  5
422
330
1F
100
AcDbEntity
  8
0
  6
Continuous
 62
     7
370
    15
100
AcDbPolyline
 90
       18
 70
   128
 43
0.0
 10
722.1593428689
 20
536.2681091402
 10
722.2037414128
 20
535.8777965821
 10
722.1832411857
 20
535.4682805033
 10
722.0923625704
 20
535.0705221406
 10
721.9316413588
 20
534.6868580453
 10
721.7020190061
 20
534.3195377785
 10
721.4048431578
 20
533.9707187422
 10
721.0418586933
 20
533.6424470183
 10
720.6151945555
 20
533.3366503761
 10
720.1273547938
 20
533.0551215438
 10
719.5812038136
 20
532.7995133443
 10
718.9799426679
 20
532.5713231854
 10
718.3271043164
 20
532.3718957979
 10
717.6265178002
 20
532.2023976877
 10
716.8822955981
 20
532.0638244379
 10
716.0988035967
 20
531.9569864139
 10
715.2806415977
 20
531.8825175861
 10
715.004438548
 20
531.8651572707
  0
LWPOLYLINE
  5
423
330
1F
100
AcDbEntity
  8
0
  6
Continuous
 62
     7
370
    15
100
AcDbPolyline
 90
       15
 70
   128
 43
0.0
 10
713.0268367662
 20
531.8429197612
 10
712.6669838126
 20
531.8566994879
 10
711.7597544592
 20
531.9141284303
 10
710.8433175998
 20
532.0041731316
 10
709.923049592
 20
532.1263039709
 10
709.0043515542
 20
532.2798067255
 10
708.0926172295
 20
532.4637816585
 10
707.1931939992
 20
532.6771465611
 10
706.3113607562
 20
532.9186495266
 10
705.4522931334
 20
533.1868744258
 10
704.6210329475
 20
533.480246381
 10
703.8224544817
 20
533.7970439335
 10
703.0612518411
 20
534.1354087741
 10
702.3418831087
 20
534.4933536523
 10
701.8938884508
 20
534.7382826969
  0
LWPOLYLINE
  5
424
330
1F
100
AcDbEntity
  8
0
  6
Continuous
 62
     7
370
    15
100
AcDbPolyline
 90
       12
 70
   128
 43
0.0
 10
699.8051380538
 20
536.2177241308
 10
699.5104430744
 20
536.4999617044
 10
699.1205236127
 20
536.9281546229
 10
698.795567196
 20
537.3595390635
 10
698.5374809691
 20
537.7915834677
 10
698.3477822187
 20
538.2217550705
 10
698.2275794067
 20
538.6475259838
 10
698.1775827077
 20
539.0663987431
 10
698.1980829348
 20
539.4759160384
 10
698.2889620769
 20
539.873674097
 10
698.4496827617
 20
540.2573384964
 10
698.5188731355
 20
540.3821201139
  0
LINE
  5
425
330
1F
100
AcDbEntity
  8
0
  6
Continuous
 62
     7
370
    15
100
AcDbLine
 10
750.9433128422
 20
518.3275655276
 30
0.0
 11
750.9378959184
 21
518.297612747
 31
0.0
  0
LWPOLYLINE
  5
426
330
1F
100
AcDbEntity
  8
0
  6
Continuous
 62
     7
370
    15
100
AcDbPolyline
 90
        3
 70
   128
 43
0.0
 10
731.6151379537
 20
517.6118804879
 10
730.9229528849
 20
517.9805887091
 10
730.8852662266
 20
518.0019165505
  0
LWPOLYLINE
  5
427
330
1F
100
AcDbEntity
  8
0
  6
Continuous
 62
     7
370
    15
100
AcDbPolyline
 90
       12
 70
   128
 43
0.0
 10
728.7965158296
 20
519.4813579844
 10
728.6751202618
 20
519.594117349
 10
728.2598831883
 20
520.0203329448
 10
727.9087440956
 20
520.4507455115
 10
727.6237608037
 20
520.882831394
 10
727.4066065424
 20
521.3140529568
 10
727.2585520393
 20
521.7418810915
 10
727.1804728951
 20
522.1638055557
 10
727.1728232421
 20
522.5773501799
 10
727.2356473345
 20
522.9800856398
 10
727.3685769142
 20
523.3696504423
 10
727.5102509113
 20
523.6457539675
  0
LWPOLYLINE
  5
428
330
1F
100
AcDbEntity
  8
0
  6
Continuous
 62
     7
370
    15
100
AcDbPolyline
 90
       18
 70
   128
 43
0.0
 10
751.1507206447
 20
519.5317429938
 10
751.1836078306
 20
519.307658085
 10
751.1912585373
 20
518.8941140691
 10
751.1284333912
 20
518.4913780009
 10
750.9955043383
 20
518.1018128943
 10
750.7932479344
 20
517.727703897
 10
750.5228516667
 20
517.3712473428
 10
750.1859013106
 20
517.0345361528
 10
749.7843798752
 20
516.7195446307
 10
749.3206359937
 20
516.4281199461
 10
748.7973976209
 20
516.1619754471
 10
748.2177309399
 20
515.9226718019
 10
747.5850414161
 20
515.7116127437
 10
746.9030379722
 20
515.5300365545
 10
746.1757224515
 20
515.379009985
 10
745.4073685444
 20
515.2594185219
 10
744.6024817491
 20
515.1719676054
 10
743.9958157969
 20
515.1287914285
  0
ARC
  5
429
330
1F
100
AcDbEntity
  8
0
  6
Continuous
 62
     7
370
    15
100
AcDbCircle
 10
742.7172250383
 20
540.8605582159
 30
0.0
 40
25.76348877265367
100
AcDbArc
 50
244.4738319161
 51
268.445268915
  0
LINE
  5
42A
330
1F
100
AcDbEntity
  8
0
  6
Continuous
 62
     7
370
    15
100
AcDbLine
 10
732.6742924414
 20
274.0510478113
 30
0.0
 11
732.966447588
 21
272.7432839069
 31
0.0
  0
LINE
  5
42B
330
1F
100
AcDbEntity
  8
0
  6
Continuous
 62
     7
370
    15
100
AcDbLine
 10
748.5815353356
 20
276.2316915635
 30
0.0
 11
748.2893831692
 21
277.5394554678
 31
0.0
  0
ARC
  5
42C
330
1F
100
AcDbEntity
  8
0
  6
Continuous
 62
     7
370
    15
100
AcDbCircle
 10
759.1749590054
 20
248.5350314081
 30
0.0
 40
0.4200000000000349
100
AcDbArc
 50
282.5930864895
 51
102.5930864895
  0
ARC
  5
42D
330
1F
100
AcDbEntity
  8
0
  6
Continuous
 62
     7
370
    15
100
AcDbCircle
 10
735.166759317
 20
243.1716045446
 30
0.0
 40
0.4199999999999824
100
AcDbArc
 50
102.5930864896
 51
282.5930864895
  0
LWPOLYLINE
  5
42E
330
1F
100
AcDbEntity
  8
0
  6
Continuous
 62
     7
370
    15
100
AcDbPolyline
 90
       14
 70
   128
 43
0.0
 10
759.0833879671
 20
248.9449284468
 10
759.0528018437
 20
248.9380947742
 10
758.9612044058
 20
248.9176324997
 10
758.8090575896
 20
248.883642951
 10
758.5971392355
 20
248.8362989817
 10
758.3265252076
 20
248.7758449707
 10
757.9986013136
 20
248.702587882
 10
757.6150335036
 20
248.6168972645
 10
757.17777979
 20
248.5192141924
 10
756.6890664063
 20
248.4100363645
 10
756.1513818465
 20
248.2899181042
 10
755.5674679242
 20
248.1594703588
 10
754.9403018914
 20
248.0193636808
 10
754.8675454817
 20
248.0031094942
  0
LWPOLYLINE
  5
42F
330
1F
100
AcDbEntity
  8
0
  6
Continuous
 62
     7
370
    15
100
AcDbPolyline
 90
       15
 70
   128
 43
0.0
 10
752.7590460739
 20
247.5320718679
 10
752.0659722052
 20
247.3772368822
 10
751.2742913924
 20
247.2003779802
 10
750.4612333737
 20
247.0187387857
 10
749.6309436522
 20
246.8332521114
 10
748.7876511774
 20
246.6448626909
 10
747.9356504641
 20
246.4545241985
 10
747.079289671
 20
246.2632141504
 10
746.2229258976
 20
246.0719041023
 10
745.3709281645
 20
245.8815656099
 10
744.5276327095
 20
245.6931761894
 10
743.697342988
 20
245.5076895151
 10
742.8842849694
 20
245.3260503206
 10
742.0926056466
 20
245.1491914186
 10
741.3995317779
 20
244.9943564329
  0
LWPOLYLINE
  5
430
330
1F
100
AcDbEntity
  8
0
  6
Continuous
 62
     7
370
    15
100
AcDbPolyline
 90
       14
 70
   128
 43
0.0
 10
739.29103088
 20
244.5233188066
 10
739.2182744704
 20
244.50706462
 10
738.5911084376
 20
244.3669549618
 10
738.0071945153
 20
244.2365101967
 10
737.4695114456
 20
244.1163919363
 10
736.9807965718
 20
244.0072141085
 10
736.5435428582
 20
243.9095310364
 10
736.1599750481
 20
243.8238404188
 10
735.8320511542
 20
243.7505833301
 10
735.5614386163
 20
243.6901293192
 10
735.3495202623
 20
243.6427853498
 10
735.197373446
 20
243.6087958012
 10
735.1057730279
 20
243.5883335266
 10
735.0751883946
 20
243.5814998541
  0
LWPOLYLINE
  5
431
330
1F
100
AcDbEntity
  8
0
  6
Continuous
 62
     7
370
    15
100
AcDbPolyline
 90
       14
 70
   128
 43
0.0
 10
735.2583296261
 20
242.7617094908
 10
735.2889157496
 20
242.7685401831
 10
735.3805146776
 20
242.7890054378
 10
735.5326614938
 20
242.8229949865
 10
735.7445798478
 20
242.8703359756
 10
736.0151923857
 20
242.9307899866
 10
736.3431162796
 20
243.0040500555
 10
736.7266840897
 20
243.0897376928
 10
737.1639378033
 20
243.1874207649
 10
737.6526526771
 20
243.2965985928
 10
738.1903372369
 20
243.4167168531
 10
738.7742496691
 20
243.5471645985
 10
739.4014157019
 20
243.6872742567
 10
739.4741721115
 20
243.7035254631
  0
LWPOLYLINE
  5
432
330
1F
100
AcDbEntity
  8
0
  6
Continuous
 62
     7
370
    15
100
AcDbPolyline
 90
       15
 70
   128
 43
0.0
 10
741.5826730094
 20
244.1745660696
 10
742.2757468782
 20
244.3293980751
 10
743.067427691
 20
244.5062599573
 10
743.8804842196
 20
244.6878961716
 10
744.7107739411
 20
244.8733828459
 10
745.5540693961
 20
245.0617752466
 10
746.4060671292
 20
245.2521107588
 10
747.2624309025
 20
245.4434208069
 10
748.1187916956
 20
245.6347338352
 10
748.970792409
 20
245.8250693474
 10
749.8140848837
 20
246.0134617481
 10
750.6443746052
 20
246.1989484224
 10
751.4574326239
 20
246.3805846367
 10
752.2491134367
 20
246.5574465189
 10
752.9421873055
 20
246.7122785244
  0
LWPOLYLINE
  5
433
330
1F
100
AcDbEntity
  8
0
  6
Continuous
 62
     7
370
    15
100
AcDbPolyline
 90
       14
 70
   128
 43
0.0
 10
755.0506867133
 20
247.1833161507
 10
755.1234431229
 20
247.1995703373
 10
755.7506091557
 20
247.3396799955
 10
756.334523078
 20
247.4701247606
 10
756.8722076378
 20
247.590243021
 10
757.3609210215
 20
247.6994238291
 10
757.7981747351
 20
247.7971069012
 10
758.1817425452
 20
247.8827945385
 10
758.5096664391
 20
247.9560516272
 10
758.7802804671
 20
248.0165056381
 10
758.9921988211
 20
248.0638496075
 10
759.1443456374
 20
248.0978391561
 10
759.2359460554
 20
248.1183014307
 10
759.2665291987
 20
248.1251351032
  0
ARC
  5
434
330
1F
100
AcDbEntity
  8
0
  6
Continuous
 62
     7
370
    15
100
AcDbCircle
 10
753.7994145612
 20
263.8828951051
 30
0.0
 40
1.60000000000003
100
AcDbArc
 50
12.5930864895
 51
68.5158912094
  0
ARC
  5
435
330
1F
100
AcDbEntity
  8
0
  6
Continuous
 62
     7
370
    15
100
AcDbCircle
 10
733.4997985645
 20
259.3479650742
 30
0.0
 40
1.600000000000013
100
AcDbArc
 50
136.6702817697
 51
192.5930864895
  0
LINE
  5
436
330
1F
100
AcDbEntity
  8
0
  6
Continuous
 62
     7
370
    15
100
AcDbLine
 10
758.7906039915
 20
248.8795212898
 30
0.0
 11
755.3609229288
 21
264.2317361627
 31
0.0
  0
LINE
  5
437
330
1F
100
AcDbEntity
  8
0
  6
Continuous
 62
     7
370
    15
100
AcDbLine
 10
731.9382898174
 20
258.9991248641
 30
0.0
 11
735.3679708801
 21
243.646907011
 31
0.0
  0
LINE
  5
438
330
1F
100
AcDbEntity
  8
0
  6
Continuous
 62
     7
370
    15
100
AcDbLine
 10
754.3854035101
 20
265.3717256579
 30
0.0
 11
748.3267523013
 21
267.7563510332
 31
0.0
  0
LINE
  5
439
330
1F
100
AcDbEntity
  8
0
  6
Continuous
 62
     7
370
    15
100
AcDbLine
 10
736.8037826977
 20
265.1821217928
 30
0.0
 11
732.3359317742
 21
260.4458786044
 31
0.0
  0
ARC
  5
43A
330
1F
100
AcDbEntity
  8
0
  6
Continuous
 62
     7
370
    15
100
AcDbCircle
 10
748.9127410664
 20
269.2451819055
 30
0.0
 40
1.59999999999998
100
AcDbArc
 50
192.5930864895
 51
248.5158912094
  0
ARC
  5
43B
330
1F
100
AcDbEntity
  8
0
  6
Continuous
 62
     7
370
    15
100
AcDbCircle
 10
735.6399152224
 20
266.2800353468
 30
0.0
 40
1.600000000000013
100
AcDbArc
 50
316.6702817697
 51
12.5930864895
  0
ARC
  5
43C
330
1F
100
AcDbEntity
  8
0
  6
Continuous
 62
     7
370
    15
100
AcDbCircle
 10
745.9894661383
 20
274.0746629217
 30
0.0
 40
0.199999999999999
100
AcDbArc
 50
12.5930864895
 51
102.5930864895
  0
ARC
  5
43D
330
1F
100
AcDbEntity
  8
0
  6
Continuous
 62
     7
370
    15
100
AcDbCircle
 10
736.2300353706
 20
271.8944080991
 30
0.0
 40
0.1999999999999866
100
AcDbArc
 50
102.5930864895
 51
192.5930864895
  0
LINE
  5
43E
330
1F
100
AcDbEntity
  8
0
  6
Continuous
 62
     7
370
    15
100
AcDbLine
 10
747.3512328825
 20
268.8963405285
 30
0.0
 11
746.1846537552
 21
274.1182676945
 31
0.0
  0
LINE
  5
43F
330
1F
100
AcDbEntity
  8
0
  6
Continuous
 62
     7
370
    15
100
AcDbLine
 10
736.0348470173
 20
271.8508026991
 30
0.0
 11
737.2014246545
 21
266.6288755331
 31
0.0
  0
LINE
  5
440
330
1F
100
AcDbEntity
  8
0
  6
Continuous
 62
     7
370
    15
100
AcDbLine
 10
719.7441804818
 20
281.9494805727
 30
0.0
 11
718.404180523
 21
281.9494805727
 31
0.0
  0
LINE
  5
441
330
1F
100
AcDbEntity
  8
0
  6
Continuous
 62
     7
370
    15
100
AcDbLine
 10
719.7441804818
 20
255.9494815264
 30
0.0
 11
718.404180523
 21
255.9494815264
 31
0.0
  0
LINE
  5
442
330
1F
100
AcDbEntity
  8
0
  6
Continuous
 62
     7
370
    15
100
AcDbLine
 10
718.404180523
 20
281.9494805727
 30
0.0
 11
718.404180523
 21
255.9494815264
 31
0.0
  0
LINE
  5
443
330
1F
100
AcDbEntity
  8
0
  6
Continuous
 62
     7
370
    15
100
AcDbLine
 10
719.7441804818
 20
281.9494805727
 30
0.0
 11
719.7441804818
 21
255.9494815264
 31
0.0
  0
CIRCLE
  5
444
330
1F
100
AcDbEntity
  8
0
  6
Continuous
 62
     7
370
    15
100
AcDbCircle
 10
729.744180523
 20
268.9494805727
 30
0.0
 40
0.5999999999999659
  0
LINE
  5
445
330
1F
100
AcDbEntity
  8
0
  6
Continuous
 62
     7
370
    15
100
AcDbLine
 10
729.7441802583
 20
271.9494804237
 30
0.0
 11
719.7441804818
 21
271.9494804237
 31
0.0
  0
LINE
  5
446
330
1F
100
AcDbEntity
  8
0
  6
Continuous
 62
     7
370
    15
100
AcDbLine
 10
719.7441804818
 20
265.9494809303
 30
0.0
 11
729.7441802583
 21
265.9494809303
 31
0.0
  0
ARC
  5
447
330
1F
100
AcDbEntity
  8
0
  6
Continuous
 62
     7
370
    15
100
AcDbCircle
 10
729.744180523
 20
268.9494805727
 30
0.0
 40
3.000000000000057
100
AcDbArc
 50
270.0
 51
90.0
  0
LWPOLYLINE
  5
448
330
1F
100
AcDbEntity
  8
0
  6
Continuous
 62
     7
370
    15
100
AcDbPolyline
 90
       36
 70
   128
 43
0.0
 10
748.5815353356
 20
276.2316915635
 10
748.5799856148
 20
276.2313451115
 10
748.5346085987
 20
276.2212082241
 10
748.4267510138
 20
276.1971123013
 10
748.2572741471
 20
276.1592518035
 10
748.0275489054
 20
276.1079310868
 10
747.7394200526
 20
276.0435632858
 10
747.3952121697
 20
275.9666669611
 10
746.9976938925
 20
275.8778612558
 10
746.5500630103
 20
275.7778614256
 10
746.0559285841
 20
275.6674721334
 10
745.5192692242
 20
275.5475818608
 10
744.9444003067
 20
275.419156203
 10
744.3359560929
 20
275.2832300458
 10
743.6988331042
 20
275.1408963892
 10
743.0381588302
 20
274.9933026228
 10
742.3592559657
 20
274.8416356239
 10
741.6675887666
 20
274.6871172879
 10
740.9687272869
 20
274.5309918616
 10
740.2682982049
 20
274.374516258
 10
739.5719416104
 20
274.2189503703
 10
738.8852618299
 20
274.065545896
 10
738.2137886844
 20
273.9155388865
 10
737.5629298053
 20
273.7701370809
 10
736.9379244409
 20
273.6305109653
 10
736.3438047133
 20
273.4977848325
 10
735.7853538952
 20
273.3730270955
 10
735.2670691572
 20
273.2572428379
 10
734.7931228242
 20
273.151362637
 10
734.3673310838
 20
273.0562410746
 10
733.993121203
 20
272.97264258
 10
733.6735076866
 20
272.901241431
 10
733.4110624752
 20
272.8426113222
 10
733.2079000435
 20
272.7972246203
 10
733.0656535588
 20
272.765447149
 10
732.9938761554
 20
272.7494120095
  0
LWPOLYLINE
  5
449
330
1F
100
AcDbEntity
  8
0
  6
Continuous
 62
     7
370
    15
100
AcDbPolyline
 90
       37
 70
   128
 43
0.0
 10
748.2893831692
 20
277.5394554678
 10
748.2878304682
 20
277.5391090158
 10
748.2424564324
 20
277.5289721284
 10
748.1345958672
 20
277.5048762057
 10
747.9651190005
 20
277.4670153353
 10
747.7353937588
 20
277.4156946186
 10
747.4472678862
 20
277.3513271902
 10
747.1030570231
 20
277.2744308654
 10
746.7055387459
 20
277.1856251601
 10
746.2579108439
 20
277.0856249574
 10
745.7637764178
 20
276.9752356652
 10
745.2271140776
 20
276.8553453926
 10
744.6522481404
 20
276.7269201074
 10
744.0438009463
 20
276.5909935776
 10
743.4066779576
 20
276.4486602936
 10
742.7460036836
 20
276.3010661546
 10
742.0671008191
 20
276.1493991557
 10
741.3754351101
 20
275.9948811922
 10
740.6765736304
 20
275.8387557659
 10
739.9761445485
 20
275.6822801623
 10
739.2797864638
 20
275.5267135296
 10
738.5931081734
 20
275.3733098004
 10
737.9216350279
 20
275.2233027909
 10
737.2707761488
 20
275.0779009852
 10
736.6457707844
 20
274.9382748697
 10
736.0516510568
 20
274.8055487368
 10
735.4932002387
 20
274.6807909999
 10
734.9749155007
 20
274.5650059972
 10
734.5009676776
 20
274.4591265414
 10
734.0751759372
 20
274.3640049789
 10
733.7009675465
 20
274.2804064844
 10
733.3813525401
 20
274.2090045903
 10
733.1189088188
 20
274.1503744814
 10
732.9157448969
 20
274.1049877796
 10
732.7734999023
 20
274.0732103083
 10
732.693318244
 20
274.0552976224
 10
732.6742924414
 20
274.0510478113
  0
ARC
  5
44A
330
1F
100
AcDbEntity
  8
0
  6
Continuous
 62
     7
370
    15
100
AcDbCircle
 10
734.4403925219
 20
266.2744006629
 30
0.0
 40
2.000000000000016
100
AcDbArc
 50
316.6702817697
 51
12.5930864895
  0
LINE
  5
44B
330
1F
100
AcDbEntity
  8
0
  6
Continuous
 62
     7
370
    15
100
AcDbLine
 10
735.8952261172
 20
264.9020097647
 30
0.0
 11
731.6955022178
 21
260.4499987755
 31
0.0
  0
ARC
  5
44C
330
1F
100
AcDbEntity
  8
0
  6
Continuous
 62
     7
370
    15
100
AcDbCircle
 10
733.1503363767
 20
259.0776076985
 30
0.0
 40
1.999999999999933
100
AcDbArc
 50
136.6702817697
 51
192.5930864895
  0
LINE
  5
44D
330
1F
100
AcDbEntity
  8
0
  6
Continuous
 62
     7
370
    15
100
AcDbLine
 10
731.1984501443
 20
258.6415566001
 30
0.0
 11
734.7824208103
 21
242.5987027082
 31
0.0
  0
ARC
  5
44E
330
1F
100
AcDbEntity
  8
0
  6
Continuous
 62
     7
370
    15
100
AcDbCircle
 10
735.270391951
 20
242.7077158713
 30
0.0
 40
0.4999999999999884
100
AcDbArc
 50
192.5930864895
 51
282.5930864896
  0
LINE
  5
44F
330
1F
100
AcDbEntity
  8
0
  6
Continuous
 62
     7
370
    15
100
AcDbLine
 10
735.3794045411
 20
242.2197453175
 30
0.0
 11
735.5745933614
 21
242.2633490953
 31
0.0
  0
ARC
  5
450
330
1F
100
AcDbEntity
  8
0
  6
Continuous
 62
     7
370
    15
100
AcDbCircle
 10
735.4655805663
 20
242.7513209678
 30
0.0
 40
0.4999999999999975
100
AcDbArc
 50
282.5930864895
 51
12.5930864895
  0
LINE
  5
451
330
1F
100
AcDbEntity
  8
0
  6
Continuous
 62
     7
370
    15
100
AcDbLine
 10
735.9535522423
 20
242.8603343162
 30
0.0
 11
735.9414897523
 21
242.9143271837
 31
0.0
  0
LINE
  5
452
330
1F
100
AcDbEntity
  8
0
  6
Continuous
 62
     7
370
    15
100
AcDbLine
 10
737.8933764658
 20
243.3503768835
 30
0.0
 11
738.0144513808
 21
242.8084127102
 31
0.0
  0
ARC
  5
453
330
1F
100
AcDbEntity
  8
0
  6
Continuous
 62
     7
370
    15
100
AcDbCircle
 10
736.0625648458
 20
242.3723621705
 30
0.0
 40
2.000000000000095
100
AcDbArc
 50
282.5930864895
 51
12.5930864895
  0
LINE
  5
454
330
1F
100
AcDbEntity
  8
0
  6
Continuous
 62
     7
370
    15
100
AcDbLine
 10
736.4986158572
 20
240.4204748068
 30
0.0
 11
735.3274844251
 21
240.158846179
 31
0.0
  0
ARC
  5
455
330
1F
100
AcDbEntity
  8
0
  6
Continuous
 62
     7
370
    15
100
AcDbCircle
 10
734.8914331537
 20
242.1107315918
 30
0.0
 40
2.000000000000088
100
AcDbArc
 50
192.5930864895
 51
282.5930864895
  0
LINE
  5
456
330
1F
100
AcDbEntity
  8
0
  6
Continuous
 62
     7
370
    15
100
AcDbLine
 10
732.9395465217
 20
241.6746817026
 30
0.0
 11
729.0150880478
 21
259.2416561637
 31
0.0
  0
ARC
  5
457
330
1F
100
AcDbEntity
  8
0
  6
Continuous
 62
     7
370
    15
100
AcDbCircle
 10
730.9669744731
 20
259.6777069736
 30
0.0
 40
2.000000000000016
100
AcDbArc
 50
136.6702817697
 51
192.5930864895
  0
LINE
  5
458
330
1F
100
AcDbEntity
  8
0
  6
Continuous
 62
     7
370
    15
100
AcDbLine
 10
729.5121408663
 20
261.0500983391
 30
0.0
 11
734.0980700813
 21
265.9115127716
 31
0.0
  0
ARC
  5
459
330
1F
100
AcDbEntity
  8
0
  6
Continuous
 62
     7
370
    15
100
AcDbCircle
 10
733.7343608859
 20
266.2546113076
 30
0.0
 40
0.4999999999999913
100
AcDbArc
 50
316.6702817697
 51
102.5930864895
  0
LINE
  5
45A
330
1F
100
AcDbEntity
  8
0
  6
Continuous
 62
     7
370
    15
100
AcDbLine
 10
733.6253486238
 20
266.7425833139
 30
0.0
 11
730.3982570432
 21
266.0216517243
 31
0.0
  0
LINE
  5
45B
330
1F
100
AcDbEntity
  8
0
  6
Continuous
 62
     7
370
    15
100
AcDbLine
 10
729.4131606481
 20
271.9494804237
 30
0.0
 11
732.9938761554
 21
272.7494120095
 31
0.0
  0
LINE
  5
45C
330
1F
100
AcDbEntity
  8
0
  6
Continuous
 62
     7
370
    15
100
AcDbLine
 10
735.2379165254
 20
271.877699295
 30
0.0
 11
736.3922781906
 21
266.7104519401
 31
0.0
  0
LINE
  5
45D
330
1F
100
AcDbEntity
  8
0
  6
Continuous
 62
     7
370
    15
100
AcDbLine
 10
729.5121408663
 20
261.0500983391
 30
0.0
 11
733.7118647657
 21
265.5021078381
 31
0.0
  0
ARC
  5
45E
330
1F
100
AcDbEntity
  8
0
  6
Continuous
 62
     7
370
    15
100
AcDbCircle
 10
732.2570306183
 20
266.8744999381
 30
0.0
 40
1.99999999999999
100
AcDbArc
 50
316.6702817697
 51
12.5930864895
  0
LINE
  5
45F
330
1F
100
AcDbEntity
  8
0
  6
Continuous
 62
     7
370
    15
100
AcDbLine
 10
734.2089168392
 20
267.3105515037
 30
0.0
 11
732.9938761554
 21
272.7494120095
 31
0.0
  0
LINE
  5
460
330
1F
100
AcDbEntity
  8
0
  6
Continuous
 62
     7
370
    15
100
AcDbLine
 10
749.7691459618
 20
270.7867033276
 30
0.0
 11
748.554105278
 21
276.2255638335
 31
0.0
  0
ARC
  5
461
330
1F
100
AcDbEntity
  8
0
  6
Continuous
 62
     7
370
    15
100
AcDbCircle
 10
751.7210331824
 20
271.2227541003
 30
0.0
 40
2.000000000000101
100
AcDbArc
 50
192.5930864895
 51
248.5158912094
  0
LINE
  5
462
330
1F
100
AcDbEntity
  8
0
  6
Continuous
 62
     7
370
    15
100
AcDbLine
 10
756.6836036406
 20
267.1201981101
 30
0.0
 11
750.9885467253
 21
269.3617157135
 31
0.0
  0
ARC
  5
463
330
1F
100
AcDbEntity
  8
0
  6
Continuous
 62
     7
370
    15
100
AcDbCircle
 10
755.9511172383
 20
265.2591593194
 30
0.0
 40
1.99999999999999
100
AcDbArc
 50
12.5930864895
 51
68.5158912094
  0
LINE
  5
464
330
1F
100
AcDbEntity
  8
0
  6
Continuous
 62
     7
370
    15
100
AcDbLine
 10
761.8274606428
 20
248.1282345447
 30
0.0
 11
757.9030044041
 21
265.6952104959
 31
0.0
  0
ARC
  5
465
330
1F
100
AcDbEntity
  8
0
  6
Continuous
 62
     7
370
    15
100
AcDbCircle
 10
759.8755759189
 20
247.6921839376
 30
0.0
 40
1.99999999999999
100
AcDbArc
 50
282.5930864895
 51
12.5930864895
  0
LINE
  5
466
330
1F
100
AcDbEntity
  8
0
  6
Continuous
 62
     7
370
    15
100
AcDbLine
 10
759.1404951773
 20
245.4786680136
 30
0.0
 11
760.3116280995
 21
245.7402966413
 31
0.0
  0
ARC
  5
467
330
1F
100
AcDbEntity
  8
0
  6
Continuous
 62
     7
370
    15
100
AcDbCircle
 10
758.7044442268
 20
247.4305533589
 30
0.0
 40
1.999999999999971
100
AcDbArc
 50
192.5930864895
 51
282.5930864895
  0
LINE
  5
468
330
1F
100
AcDbEntity
  8
0
  6
Continuous
 62
     7
370
    15
100
AcDbLine
 10
756.631482359
 20
247.5364677105
 30
0.0
 11
756.7525572739
 21
246.9945035372
 31
0.0
  0
LINE
  5
469
330
1F
100
AcDbEntity
  8
0
  6
Continuous
 62
     7
370
    15
100
AcDbLine
 10
758.5954315625
 20
247.9185245428
 30
0.0
 11
758.5833705626
 21
247.9725174103
 31
0.0
  0
ARC
  5
46A
330
1F
100
AcDbEntity
  8
0
  6
Continuous
 62
     7
370
    15
100
AcDbCircle
 10
759.083403024
 20
248.0275376384
 30
0.0
 40
0.4999999999999851
100
AcDbArc
 50
192.5930864895
 51
282.5930864895
  0
LINE
  5
46B
330
1F
100
AcDbEntity
  8
0
  6
Continuous
 62
     7
370
    15
100
AcDbLine
 10
759.3876041136
 20
247.5831709299
 30
0.0
 11
759.1924167834
 21
247.539567152
 31
0.0
  0
ARC
  5
46C
330
1F
100
AcDbEntity
  8
0
  6
Continuous
 62
     7
370
    15
100
AcDbCircle
 10
759.2785916394
 20
248.0711427349
 30
0.0
 40
0.5000000000000439
100
AcDbArc
 50
282.5930864896
 51
12.5930864895
  0
LINE
  5
46D
330
1F
100
AcDbEntity
  8
0
  6
Continuous
 62
     7
370
    15
100
AcDbLine
 10
756.1825938187
 20
264.2230085525
 30
0.0
 11
759.7665644846
 21
248.1801561508
 31
0.0
  0
ARC
  5
46E
330
1F
100
AcDbEntity
  8
0
  6
Continuous
 62
     7
370
    15
100
AcDbCircle
 10
754.2307068348
 20
263.7869581152
 30
0.0
 40
1.999999999999979
100
AcDbArc
 50
12.5930864895
 51
68.5158912094
  0
LINE
  5
46F
330
1F
100
AcDbEntity
  8
0
  6
Continuous
 62
     7
370
    15
100
AcDbLine
 10
749.2681361399
 20
267.8895152602
 30
0.0
 11
754.9631930552
 21
265.6479961667
 31
0.0
  0
ARC
  5
470
330
1F
100
AcDbEntity
  8
0
  6
Continuous
 62
     7
370
    15
100
AcDbCircle
 10
750.0006227789
 20
269.7505528962
 30
0.0
 40
1.99999999999999
100
AcDbArc
 50
192.5930864895
 51
248.5158912094
  0
LINE
  5
471
330
1F
100
AcDbEntity
  8
0
  6
Continuous
 62
     7
370
    15
100
AcDbLine
 10
746.8943752013
 20
274.4817494843
 30
0.0
 11
748.0487353764
 21
269.3145013843
 31
0.0
  0
LINE
  5
472
330
1F
100
AcDbEntity
  8
0
  6
Continuous
 62
     7
370
    15
100
AcDbLine
 10
745.3128106556
 20
269.7911589835
 30
0.0
 11
744.0977699719
 21
275.2300194893
 31
0.0
  0
ARC
  5
473
330
1F
100
AcDbEntity
  8
0
  6
Continuous
 62
     7
370
    15
100
AcDbCircle
 10
748.1666468405
 20
270.3083529857
 30
0.0
 40
2.900322500369062
100
AcDbArc
 50
190.2720903589
 51
224.6437339268
  0
LINE
  5
474
330
1F
100
AcDbEntity
  8
0
  6
Continuous
 62
     7
370
    15
100
AcDbLine
 10
749.324459549
 20
265.4761664066
 30
0.0
 11
746.1030967198
 21
268.2703069839
 31
0.0
  0
ARC
  5
475
330
1F
100
AcDbEntity
  8
0
  6
Continuous
 62
     7
370
    15
100
AcDbCircle
 10
747.2609427667
 20
263.4381374753
 30
0.0
 40
2.900286785111925
100
AcDbArc
 50
10.2718904621
 51
44.6439567927
  0
LINE
  5
476
330
1F
100
AcDbEntity
  8
0
  6
Continuous
 62
     7
370
    15
100
AcDbLine
 10
754.0392048321
 20
246.388339201
 30
0.0
 11
750.1147456131
 21
263.9553151522
 31
0.0
  0
LWPOLYLINE
  5
477
330
1F
100
AcDbEntity
  8
0
  6
Continuous
 62
     7
370
    15
100
AcDbPolyline
 90
        9
 70
   128
 43
0.0
 10
753.4993119202
 20
244.2184291277
 10
753.6813325844
 20
244.2984692249
 10
753.8395978175
 20
244.4504402075
 10
753.9680309258
 20
244.6685097608
 10
754.0616936646
 20
244.9442885313
 10
754.1169859133
 20
245.2671847734
 10
754.1317857466
 20
245.6247888002
 10
754.1055209599
 20
246.0033557806
 10
754.0392048321
 20
246.388339201
  0
LINE
  5
478
330
1F
100
AcDbEntity
  8
0
  6
Continuous
 62
     7
370
    15
100
AcDbLine
 10
752.9137469492
 20
244.0876118336
 30
0.0
 11
753.4993119202
 21
244.2184291277
 31
0.0
  0
LWPOLYLINE
  5
479
330
1F
100
AcDbEntity
  8
0
  6
Continuous
 62
     7
370
    15
100
AcDbPolyline
 90
        9
 70
   128
 43
0.0
 10
751.5017516575
 20
245.8214722071
 10
751.605574008
 20
245.4448691997
 10
751.7429120503
 20
245.091115633
 10
751.9084848128
 20
244.7738073263
 10
752.0959354601
 20
244.50513939
 10
752.2980548106
 20
244.2954353485
 10
752.5070763789
 20
244.1527567301
 10
752.7149714194
 20
244.0825841818
 10
752.9137469492
 20
244.0876118336
  0
LINE
  5
47A
330
1F
100
AcDbEntity
  8
0
  6
Continuous
 62
     7
370
    15
100
AcDbLine
 10
751.3806797228
 20
246.3634363804
 30
0.0
 11
751.5017516575
 21
245.8214722071
 31
0.0
  0
LINE
  5
47B
330
1F
100
AcDbEntity
  8
0
  6
Continuous
 62
     7
370
    15
100
AcDbLine
 10
752.3686833344
 20
246.527471343
 30
0.0
 11
752.3566223345
 21
246.5814642105
 31
0.0
  0
LWPOLYLINE
  5
47C
330
1F
100
AcDbEntity
  8
0
  6
Continuous
 62
     7
370
    15
100
AcDbPolyline
 90
        9
 70
   128
 43
0.0
 10
752.7216829024
 20
246.0940055046
 10
752.6719875298
 20
246.0927478466
 10
752.6200152598
 20
246.1102924738
 10
752.5677598677
 20
246.1459628735
 10
752.5172300301
 20
246.1983881388
 10
752.4703658781
 20
246.2655536327
 10
752.4289734326
 20
246.3448814545
 10
752.394638177
 20
246.4333198461
 10
752.3686833344
 20
246.527471343
  0
LINE
  5
47D
330
1F
100
AcDbEntity
  8
0
  6
Continuous
 62
     7
370
    15
100
AcDbLine
 10
752.8192765675
 20
246.1158088837
 30
0.0
 11
752.7216829024
 21
246.0940055046
 31
0.0
  0
LWPOLYLINE
  5
47E
330
1F
100
AcDbEntity
  8
0
  6
Continuous
 62
     7
370
    15
100
AcDbPolyline
 90
        9
 70
   128
 43
0.0
 10
752.9542483054
 20
246.6582856569
 10
752.9708273373
 20
246.5620390568
 10
752.9773927889
 20
246.4673988018
 10
752.9736943207
 20
246.3779977951
 10
752.9598720036
 20
246.2972722444
 10
752.9364563189
 20
246.2283275518
 10
752.9043472967
 20
246.1738101635
 10
752.8647817335
 20
246.1358181629
 10
752.8192765675
 20
246.1158088837
  0
LINE
  5
47F
330
1F
100
AcDbEntity
  8
0
  6
Continuous
 62
     7
370
    15
100
AcDbLine
 10
749.3702776394
 20
262.7011395488
 30
0.0
 11
752.9542483054
 21
246.6582856569
 31
0.0
  0
ARC
  5
480
330
1F
100
AcDbEntity
  8
0
  6
Continuous
 62
     7
370
    15
100
AcDbCircle
 10
746.516474793
 20
262.1839618719
 30
0.0
 40
2.900286785112129
100
AcDbArc
 50
10.2718904621
 51
44.6439567927
  0
LINE
  5
481
330
1F
100
AcDbEntity
  8
0
  6
Continuous
 62
     7
370
    15
100
AcDbLine
 10
745.3586317263
 20
267.0161313806
 30
0.0
 11
748.5799915753
 21
264.2219908032
 31
0.0
  0
ARC
  5
482
330
1F
100
AcDbEntity
  8
0
  6
Continuous
 62
     7
370
    15
100
AcDbCircle
 10
747.4221808656
 20
269.0541827181
 30
0.0
 40
2.900325551519466
100
AcDbArc
 50
190.2722015178
 51
224.6438225464
  0
LINE
  5
483
330
1F
100
AcDbEntity
  8
0
  6
Continuous
 62
     7
370
    15
100
AcDbLine
 10
743.4139825068
 20
273.70422999
 30
0.0
 11
744.5683426819
 21
268.536982635
 31
0.0
  0
ARC
  5
484
330
1F
100
AcDbEntity
  8
0
  6
Continuous
 62
     7
370
    15
100
AcDbCircle
 10
748.393504673
 20
263.6911529071
 30
0.0
 40
2.900281283281287
100
AcDbArc
 50
10.271856846
 51
44.6439904088
  0
LINE
  5
485
330
1F
100
AcDbEntity
  8
0
  6
Continuous
 62
     7
370
    15
100
AcDbLine
 10
755.1717616282
 20
246.6413519773
 30
0.0
 11
751.2473024092
 21
264.2083279285
 31
0.0
  0
LINE
  5
486
330
1F
100
AcDbEntity
  8
0
  6
Continuous
 62
     7
370
    15
100
AcDbLine
 10
753.4993119202
 20
244.2184291277
 30
0.0
 11
754.6318687163
 21
244.4714419041
 31
0.0
  0
LWPOLYLINE
  5
487
330
1F
100
AcDbEntity
  8
0
  6
Continuous
 62
     7
370
    15
100
AcDbPolyline
 90
        9
 70
   128
 43
0.0
 10
754.6318687163
 20
244.4714419041
 10
754.8138893805
 20
244.5514820013
 10
754.9721546135
 20
244.7034529838
 10
755.1005877219
 20
244.9215225372
 10
755.1942504607
 20
245.1973013077
 10
755.2495427094
 20
245.5201975498
 10
755.2643425427
 20
245.8778015766
 10
755.238077756
 20
246.256368557
 10
755.1717616282
 20
246.6413519773
  0
LINE
  5
488
330
1F
100
AcDbEntity
  8
0
  6
Continuous
 62
     7
370
    15
100
AcDbLine
 10
750.4570163451
 20
265.729179183
 30
0.0
 11
747.2356535159
 21
268.5233197603
 31
0.0
  0
ARC
  5
489
330
1F
100
AcDbEntity
  8
0
  6
Continuous
 62
     7
370
    15
100
AcDbCircle
 10
749.2992036366
 20
270.5613657621
 30
0.0
 40
2.900322500368604
100
AcDbArc
 50
190.2720903589
 51
224.6437339268
  0
LINE
  5
48A
330
1F
100
AcDbEntity
  8
0
  6
Continuous
 62
     7
370
    15
100
AcDbLine
 10
746.4453674517
 20
270.0441717598
 30
0.0
 11
745.230326768
 21
275.4830322657
 31
0.0
  0
LINE
  5
48B
330
1F
100
AcDbEntity
  8
0
  6
Continuous
 62
     7
370
    15
100
AcDbLine
 10
738.7183092199
 20
272.6552180443
 30
0.0
 11
739.8726708851
 21
267.4879706893
 31
0.0
  0
ARC
  5
48C
330
1F
100
AcDbEntity
  8
0
  6
Continuous
 62
     7
370
    15
100
AcDbCircle
 10
737.0700789696
 20
266.7415140882
 30
0.0
 40
2.900296347310177
100
AcDbArc
 50
340.5422626969
 51
14.9142141489
  0
LINE
  5
48D
330
1F
100
AcDbEntity
  8
0
  6
Continuous
 62
     7
370
    15
100
AcDbLine
 10
739.8047320209
 20
265.7753921542
 30
0.0
 11
738.0787036977
 21
261.8760056291
 31
0.0
  0
ARC
  5
48E
330
1F
100
AcDbEntity
  8
0
  6
Continuous
 62
     7
370
    15
100
AcDbCircle
 10
740.8133602856
 20
260.9098829053
 30
0.0
 40
2.900299945048897
100
AcDbArc
 50
160.5422712589
 51
194.9142095361
  0
LINE
  5
48F
330
1F
100
AcDbEntity
  8
0
  6
Continuous
 62
     7
370
    15
100
AcDbLine
 10
738.0107648335
 20
260.1634256039
 30
0.0
 11
741.5947340093
 21
244.1205732021
 31
0.0
  0
LWPOLYLINE
  5
490
330
1F
100
AcDbEntity
  8
0
  6
Continuous
 62
     7
370
    15
100
AcDbPolyline
 90
        9
 70
   128
 43
0.0
 10
741.5947340093
 20
244.1205732021
 10
741.620690342
 20
244.0264217052
 10
741.6550241075
 20
243.9379833136
 10
741.6964180432
 20
243.8586554918
 10
741.7432792149
 20
243.7914899979
 10
741.7938090525
 20
243.7390647325
 10
741.8460659347
 20
243.7033943329
 10
741.8980396948
 20
243.6858497057
 10
741.9477335773
 20
243.6871073637
  0
LINE
  5
491
330
1F
100
AcDbEntity
  8
0
  6
Continuous
 62
     7
370
    15
100
AcDbLine
 10
741.9477335773
 20
243.6871073637
 30
0.0
 11
742.0453272424
 21
243.7089107428
 31
0.0
  0
LWPOLYLINE
  5
492
330
1F
100
AcDbEntity
  8
0
  6
Continuous
 62
     7
370
    15
100
AcDbPolyline
 90
        9
 70
   128
 43
0.0
 10
742.0453272424
 20
243.7089107428
 10
742.0908324085
 20
243.728920022
 10
742.1303979717
 20
243.7669120226
 10
742.1625069938
 20
243.8214294109
 10
742.1859226785
 20
243.8903741035
 10
742.1997449956
 20
243.9710996542
 10
742.203444954
 20
244.0605006609
 10
742.1968795023
 20
244.1551409159
 10
742.1803004704
 20
244.251387516
  0
LINE
  5
493
330
1F
100
AcDbEntity
  8
0
  6
Continuous
 62
     7
370
    15
100
AcDbLine
 10
742.1803004704
 20
244.251387516
 30
0.0
 11
742.1682379804
 21
244.3053803835
 31
0.0
  0
LINE
  5
494
330
1F
100
AcDbEntity
  8
0
  6
Continuous
 62
     7
370
    15
100
AcDbLine
 10
743.1441820822
 20
244.5234052334
 30
0.0
 11
743.265255507
 21
243.9814410601
 31
0.0
  0
LWPOLYLINE
  5
495
330
1F
100
AcDbEntity
  8
0
  6
Continuous
 62
     7
370
    15
100
AcDbPolyline
 90
        9
 70
   128
 43
0.0
 10
743.265255507
 20
243.9814410601
 10
743.3315731249
 20
243.5964576397
 10
743.3578364215
 20
243.2178906593
 10
743.3430365882
 20
242.8602896128
 10
743.2877428494
 20
242.5373903904
 10
743.1940816007
 20
242.2616116199
 10
743.0656484924
 20
242.0435420666
 10
742.9073817692
 20
241.891571084
 10
742.7253640852
 20
241.8115309868
  0
LINE
  5
496
330
1F
100
AcDbEntity
  8
0
  6
Continuous
 62
     7
370
    15
100
AcDbLine
 10
742.7253640852
 20
241.8115309868
 30
0.0
 11
742.1397976241
 21
241.6807136927
 31
0.0
  0
LWPOLYLINE
  5
497
330
1F
100
AcDbEntity
  8
0
  6
Continuous
 62
     7
370
    15
100
AcDbPolyline
 90
        9
 70
   128
 43
0.0
 10
742.1397976241
 20
241.6807136927
 10
741.9410220943
 20
241.6756860409
 10
741.7331285439
 20
241.7458585892
 10
741.5241054855
 20
241.8885372076
 10
741.321986135
 20
242.0982412491
 10
741.1345369778
 20
242.3669091854
 10
740.9689627252
 20
242.6842174921
 10
740.8316261731
 20
243.0379710588
 10
740.7278038226
 20
243.4145770464
  0
LINE
  5
498
330
1F
100
AcDbEntity
  8
0
  6
Continuous
 62
     7
370
    15
100
AcDbLine
 10
740.7278038226
 20
243.4145770464
 30
0.0
 11
736.8033460937
 21
260.9815515075
 31
0.0
  0
ARC
  5
499
330
1F
100
AcDbEntity
  8
0
  6
Continuous
 62
     7
370
    15
100
AcDbCircle
 10
739.6059267097
 20
261.7280085568
 30
0.0
 40
2.900285543869899
100
AcDbArc
 50
160.5421966883
 51
194.9142801576
  0
LINE
  5
49A
330
1F
100
AcDbEntity
  8
0
  6
Continuous
 62
     7
370
    15
100
AcDbLine
 10
736.8712849579
 20
262.6941300425
 30
0.0
 11
738.5973132811
 21
266.5935165677
 31
0.0
  0
ARC
  5
49B
330
1F
100
AcDbEntity
  8
0
  6
Continuous
 62
     7
370
    15
100
AcDbCircle
 10
735.8626602298
 20
267.5596385017
 30
0.0
 40
2.900296347310291
100
AcDbArc
 50
340.5422626969
 51
14.9142141489
  0
LINE
  5
49C
330
1F
100
AcDbEntity
  8
0
  6
Continuous
 62
     7
370
    15
100
AcDbLine
 10
738.6652521453
 20
268.3060951028
 30
0.0
 11
737.4502129517
 21
273.7449563537
 31
0.0
  0
LINE
  5
49D
330
1F
100
AcDbEntity
  8
0
  6
Continuous
 62
     7
370
    15
100
AcDbLine
 10
741.0072408281
 20
241.4277009163
 30
0.0
 11
742.1397976241
 21
241.6807136927
 31
0.0
  0
LWPOLYLINE
  5
49E
330
1F
100
AcDbEntity
  8
0
  6
Continuous
 62
     7
370
    15
100
AcDbPolyline
 90
        9
 70
   128
 43
0.0
 10
741.0072408281
 20
241.4277009163
 10
740.8084652982
 20
241.4226732645
 10
740.6005717478
 20
241.4928458128
 10
740.3915486894
 20
241.6355244312
 10
740.189429339
 20
241.8452284727
 10
740.0019801817
 20
242.113896409
 10
739.8364059291
 20
242.4312047157
 10
739.699069377
 20
242.7849582825
 10
739.5952470265
 20
243.1615612898
  0
LINE
  5
49F
330
1F
100
AcDbEntity
  8
0
  6
Continuous
 62
     7
370
    15
100
AcDbLine
 10
739.5952470265
 20
243.1615612898
 30
0.0
 11
735.6707892976
 21
260.7285387311
 31
0.0
  0
ARC
  5
4A0
330
1F
100
AcDbEntity
  8
0
  6
Continuous
 62
     7
370
    15
100
AcDbCircle
 10
738.4733798706
 20
261.4749953854
 30
0.0
 40
2.900295063704232
100
AcDbArc
 50
160.5422548542
 51
194.9142219917
  0
LINE
  5
4A1
330
1F
100
AcDbEntity
  8
0
  6
Continuous
 62
     7
370
    15
100
AcDbLine
 10
735.7387281618
 20
262.4411172662
 30
0.0
 11
737.464756485
 21
266.3405037913
 31
0.0
  0
ARC
  5
4A2
330
1F
100
AcDbEntity
  8
0
  6
Continuous
 62
     7
370
    15
100
AcDbCircle
 10
734.7301034337
 20
267.3066257253
 30
0.0
 40
2.900296347310285
100
AcDbArc
 50
340.5422626969
 51
14.9142141489
  0
LINE
  5
4A3
330
1F
100
AcDbEntity
  8
0
  6
Continuous
 62
     7
370
    15
100
AcDbLine
 10
737.5326953493
 20
268.0530823264
 30
0.0
 11
736.3176561556
 21
273.4919435773
 31
0.0
  0
LINE
  5
4A4
330
1F
100
AcDbEntity
  8
0
  6
Continuous
 62
     7
370
    15
100
AcDbLine
 10
744.3899251185
 20
273.9222555849
 30
0.0
 11
744.0977699719
 21
275.2300194893
 31
0.0
  0
LWPOLYLINE
  5
4A5
330
1F
100
AcDbEntity
  8
0
  6
Continuous
 62
     7
370
    15
100
AcDbPolyline
 90
       10
 70
   128
 43
0.0
 10
744.3899251185
 20
273.9222555849
 10
743.6847842894
 20
273.7647272143
 10
742.9546571932
 20
273.6016168687
 10
742.2065086327
 20
273.4344809744
 10
741.4474792443
 20
273.2649139557
 10
740.6848109923
 20
273.0945340786
 10
739.9257816038
 20
272.9249670598
 10
739.1776345334
 20
272.7578311655
 10
738.4475074373
 20
272.5947208199
 10
737.7423666082
 20
272.4371924493
  0
LINE
  5
4A6
330
1F
100
AcDbEntity
  8
0
  6
Continuous
 62
     7
370
    15
100
AcDbLine
 10
737.7423666082
 20
272.4371924493
 30
0.0
 11
737.4502129517
 21
273.7449563537
 31
0.0
  0
LWPOLYLINE
  5
4A7
330
1F
100
AcDbEntity
  8
0
  6
Continuous
 62
     7
370
    15
100
AcDbPolyline
 90
       10
 70
   128
 43
0.0
 10
744.0977699719
 20
275.2300194893
 10
743.3926306329
 20
275.0724911187
 10
742.6625020466
 20
274.9093807731
 10
741.9143549762
 20
274.7422448788
 10
741.1553255878
 20
274.57267786
 10
740.3926573358
 20
274.4022979829
 10
739.6336279474
 20
274.2327309642
 10
738.885480877
 20
274.0655950699
 10
738.1553522907
 20
273.9024847243
 10
737.4502129517
 20
273.7449563537
  0
LINE
  5
4A8
330
1F
100
AcDbEntity
  8
0
  6
Continuous
 62
     7
370
    15
100
AcDbLine
 10
736.6098098121
 20
272.1841796729
 30
0.0
 11
736.3176561556
 21
273.4919435773
 31
0.0
  0
LINE
  5
4A9
330
1F
100
AcDbEntity
  8
0
  6
Continuous
 62
     7
370
    15
100
AcDbLine
 10
733.2860298119
 20
271.4416481051
 30
0.0
 11
732.9938761554
 21
272.7494120095
 31
0.0
  0
LWPOLYLINE
  5
4AA
330
1F
100
AcDbEntity
  8
0
  6
Continuous
 62
     7
370
    15
100
AcDbPolyline
 90
       10
 70
   128
 43
0.0
 10
736.3176561556
 20
273.4919435773
 10
735.7134319506
 20
273.3569599185
 10
735.1574964486
 20
273.2327639553
 10
734.6551529727
 20
273.1205403302
 10
734.2111967168
 20
273.0213604364
 10
733.8298625908
 20
272.9361704979
 10
733.5147894583
 20
272.8657833729
 10
733.2689843736
 20
272.8108711038
 10
733.0947927795
 20
272.7719567213
 10
732.9938761554
 20
272.7494120095
  0
LWPOLYLINE
  5
4AB
330
1F
100
AcDbEntity
  8
0
  6
Continuous
 62
     7
370
    15
100
AcDbPolyline
 90
       10
 70
   128
 43
0.0
 10
736.6098098121
 20
272.1841796729
 10
736.0055856071
 20
272.0491960142
 10
735.449650105
 20
271.925000051
 10
734.9473066292
 20
271.8127771709
 10
734.5033503733
 20
271.7135972772
 10
734.1220162473
 20
271.6284073386
 10
733.8069431148
 20
271.5580202136
 10
733.5611380301
 20
271.5031071994
 10
733.386946436
 20
271.464192817
 10
733.2860298119
 20
271.4416481051
  0
LINE
  5
4AC
330
1F
100
AcDbEntity
  8
0
  6
Continuous
 62
     7
370
    15
100
AcDbLine
 10
745.5224819146
 20
274.1752683613
 30
0.0
 11
745.230326768
 21
275.4830322657
 31
0.0
  0
LINE
  5
4AD
330
1F
100
AcDbEntity
  8
0
  6
Continuous
 62
     7
370
    15
100
AcDbLine
 10
748.8462604246
 20
274.9177999291
 30
0.0
 11
748.554105278
 21
276.2255638335
 31
0.0
  0
LWPOLYLINE
  5
4AE
330
1F
100
AcDbEntity
  8
0
  6
Continuous
 62
     7
370
    15
100
AcDbPolyline
 90
       10
 70
   128
 43
0.0
 10
748.554105278
 20
276.2255638335
 10
748.4531916342
 20
276.2030191216
 10
748.2789970599
 20
276.1641047392
 10
748.0331934653
 20
276.1091920975
 10
747.7181203328
 20
276.0388049725
 10
747.3367876969
 20
275.953615034
 10
746.892831441
 20
275.8544351402
 10
746.390486475
 20
275.7422118876
 10
745.834550973
 20
275.6180159244
 10
745.230326768
 20
275.4830322657
  0
LWPOLYLINE
  5
4AF
330
1F
100
AcDbEntity
  8
0
  6
Continuous
 62
     7
370
    15
100
AcDbPolyline
 90
       10
 70
   128
 43
0.0
 10
748.8462604246
 20
274.9177999291
 10
748.7453438006
 20
274.8952552173
 10
748.5711522065
 20
274.8563408348
 10
748.3253486119
 20
274.8014285657
 10
748.0102754794
 20
274.7310414407
 10
747.6289398632
 20
274.6458515022
 10
747.1849836073
 20
274.5466716084
 10
746.6826416216
 20
274.4344479833
 10
746.1267061196
 20
274.3102520201
 10
745.5224819146
 20
274.1752683613
  0
ENDSEC
  0
SECTION
  2
OBJECTS
  0
DICTIONARY
  5
C
330
0
100
AcDbDictionary
281
     1
  3
ACAD_GROUP
350
D
  3
ACAD_LAYOUT
350
1A
  3
ACAD_MLINESTYLE
350
17
  3
ACAD_PLOTSETTINGS
350
19
  3
ACAD_PLOTSTYLENAME
350
E
  3
ACAD_SCALELIST
350
47
  0
DICTIONARY
  5
D
102
{ACAD_REACTORS
330
C
102
}
330
C
100
AcDbDictionary
281
     1
  0
DICTIONARY
  5
1A
102
{ACAD_REACTORS
330
C
102
}
330
C
100
AcDbDictionary
281
     1
  3
Layout1
350
1E
  3
Layout2
350
26
  3
Model
350
22
  0
DICTIONARY
  5
17
102
{ACAD_REACTORS
330
C
102
}
330
C
100
AcDbDictionary
281
     1
  3
Standard
350
18
  0
DICTIONARY
  5
19
102
{ACAD_REACTORS
330
C
102
}
330
C
100
AcDbDictionary
281
     1
  0
ACDBDICTIONARYWDFLT
  5
E
102
{ACAD_REACTORS
330
C
102
}
330
C
100
AcDbDictionary
281
     1
  3
Normal
350
F
100
AcDbDictionaryWithDefault
340
F
  0
DICTIONARY
  5
47
102
{ACAD_REACTORS
330
C
102
}
330
C
100
AcDbDictionary
281
     1
  3
A0
350
48
  3
A1
350
49
  3
A2
350
4A
  3
A3
350
4B
  3
A4
350
4C
  3
A5
350
4D
  3
A6
350
4E
  3
A7
350
4F
  3
A8
350
50
  3
A9
350
51
  3
B0
350
52
  3
B1
350
53
  3
B2
350
54
  3
B3
350
55
  3
B4
350
56
  3
B5
350
57
  3
B6
350
58
  3
B7
350
59
  3
B8
350
5A
  3
B9
350
5B
  3
C0
350
5C
  3
C1
350
5D
  3
C2
350
5E
  3
C3
350
5F
  3
C4
350
60
  3
C5
350
61
  3
C6
350
62
  3
C7
350
63
  3
C8
350
64
  3
C9
350
65
  3
D0
350
66
  3
D1
350
67
  3
D2
350
68
  0
LAYOUT
  5
1E
102
{ACAD_REACTORS
330
1A
102
}
330
1A
100
AcDbPlotSettings
  1

  2
none_device
  4

  6

 40
0.0
 41
0.0
 42
0.0
 43
0.0
 44
0.0
 45
0.0
 46
0.0
 47
0.0
 48
0.0
 49
0.0
140
0.0
141
0.0
142
1.0
143
1.0
 70
   688
 72
     1
 73
     0
 74
     5
  7

 75
    16
147
1.0
148
0.0
149
0.0
100
AcDbLayout
  1
Layout1
 70
     1
 71
     1
 10
0.0
 20
0.0
 11
420.0
 21
297.0
 12
0.0
 22
0.0
 32
0.0
 14
1.0000000000E+20
 24
1.0000000000E+20
 34
1.0000000000E+20
 15
-1.0000000000E+20
 25
-1.0000000000E+20
 35
-1.0000000000E+20
146
0.0
 13
0.0
 23
0.0
 33
0.0
 16
1.0
 26
0.0
 36
0.0
 17
0.0
 27
1.0
 37
0.0
 76
     0
330
1B
  0
LAYOUT
  5
26
102
{ACAD_REACTORS
330
1A
102
}
330
1A
100
AcDbPlotSettings
  1

  2
none_device
  4

  6

 40
0.0
 41
0.0
 42
0.0
 43
0.0
 44
0.0
 45
0.0
 46
0.0
 47
0.0
 48
0.0
 49
0.0
140
0.0
141
0.0
142
1.0
143
1.0
 70
   688
 72
     1
 73
     0
 74
     5
  7

 75
    16
147
1.0
148
0.0
149
0.0
100
AcDbLayout
  1
Layout2
 70
     1
 71
     2
 10
0.0
 20
0.0
 11
0.0
 21
0.0
 12
0.0
 22
0.0
 32
0.0
 14
0.0
 24
0.0
 34
0.0
 15
0.0
 25
0.0
 35
0.0
146
0.0
 13
0.0
 23
0.0
 33
0.0
 16
1.0
 26
0.0
 36
0.0
 17
0.0
 27
1.0
 37
0.0
 76
     0
330
23
  0
LAYOUT
  5
22
102
{ACAD_REACTORS
330
1A
102
}
330
1A
100
AcDbPlotSettings
  1

  2
none_device
  4
Letter_(8.50_x_11.00_Inches)
  6

 40
6.35
 41
6.35
 42
6.35000508
 43
6.35000508
 44
215.9
 45
279.4
 46
0.0
 47
0.0
 48
0.0
 49
0.0
140
0.0
141
0.0
142
1.0
143
1.0
 70
  1712
 72
     1
 73
     0
 74
     0
  7

 75
     0
147
1.0
148
0.0
149
0.0
100
AcDbLayout
  1
Model
 70
     1
 71
     0
 10
0.0
 20
0.0
 11
1189.0
 21
841.0
 12
0.0
 22
0.0
 32
0.0
 14
0.0
 24
0.0
 34
0.0
 15
1189.0
 25
841.0
 35
0.0
146
0.0
 13
0.0
 23
0.0
 33
0.0
 16
1.0
 26
0.0
 36
0.0
 17
0.0
 27
1.0
 37
0.0
 76
     0
330
1F
331
29
  0
MLINESTYLE
  5
18
102
{ACAD_REACTORS
330
17
102
}
330
17
100
AcDbMlineStyle
  2
Standard
 70
     0
  3

 62
   256
 51
90.0
 52
90.0
 71
     2
 49
0.5
 62
   256
  6
BYLAYER
 49
-0.5
 62
   256
  6
BYLAYER
  0
ACDBPLACEHOLDER
  5
F
102
{ACAD_REACTORS
330
E
102
}
330
E
  0
SCALE
  5
48
102
{ACAD_REACTORS
330
47
102
}
330
47
100
AcDbScale
 70
     0
300
1:1
140
1.0
141
1.0
290
     1
  0
SCALE
  5
49
102
{ACAD_REACTORS
330
47
102
}
330
47
100
AcDbScale
 70
     0
300
1:2
140
1.0
141
2.0
290
     0
  0
SCALE
  5
4A
102
{ACAD_REACTORS
330
47
102
}
330
47
100
AcDbScale
 70
     0
300
1:4
140
1.0
141
4.0
290
     0
  0
SCALE
  5
4B
102
{ACAD_REACTORS
330
47
102
}
330
47
100
AcDbScale
 70
     0
300
1:5
140
1.0
141
5.0
290
     0
  0
SCALE
  5
4C
102
{ACAD_REACTORS
330
47
102
}
330
47
100
AcDbScale
 70
     0
300
1:8
140
1.0
141
8.0
290
     0
  0
SCALE
  5
4D
102
{ACAD_REACTORS
330
47
102
}
330
47
100
AcDbScale
 70
     0
300
1:10
140
1.0
141
10.0
290
     0
  0
SCALE
  5
4E
102
{ACAD_REACTORS
330
47
102
}
330
47
100
AcDbScale
 70
     0
300
1:16
140
1.0
141
16.0
290
     0
  0
SCALE
  5
4F
102
{ACAD_REACTORS
330
47
102
}
330
47
100
AcDbScale
 70
     0
300
1:20
140
1.0
141
20.0
290
     0
  0
SCALE
  5
50
102
{ACAD_REACTORS
330
47
102
}
330
47
100
AcDbScale
 70
     0
300
1:30
140
1.0
141
30.0
290
     0
  0
SCALE
  5
51
102
{ACAD_REACTORS
330
47
102
}
330
47
100
AcDbScale
 70
     0
300
1:40
140
1.0
141
40.0
290
     0
  0
SCALE
  5
52
102
{ACAD_REACTORS
330
47
102
}
330
47
100
AcDbScale
 70
     0
300
1:50
140
1.0
141
50.0
290
     0
  0
SCALE
  5
53
102
{ACAD_REACTORS
330
47
102
}
330
47
100
AcDbScale
 70
     0
300
1:100
140
1.0
141
100.0
290
     0
  0
SCALE
  5
54
102
{ACAD_REACTORS
330
47
102
}
330
47
100
AcDbScale
 70
     0
300
2:1
140
2.0
141
1.0
290
     0
  0
SCALE
  5
55
102
{ACAD_REACTORS
330
47
102
}
330
47
100
AcDbScale
 70
     0
300
4:1
140
4.0
141
1.0
290
     0
  0
SCALE
  5
56
102
{ACAD_REACTORS
330
47
102
}
330
47
100
AcDbScale
 70
     0
300
8:1
140
8.0
141
1.0
290
     0
  0
SCALE
  5
57
102
{ACAD_REACTORS
330
47
102
}
330
47
100
AcDbScale
 70
     0
300
10:1
140
10.0
141
1.0
290
     0
  0
SCALE
  5
58
102
{ACAD_REACTORS
330
47
102
}
330
47
100
AcDbScale
 70
     0
300
100:1
140
100.0
141
1.0
290
     0
  0
SCALE
  5
59
102
{ACAD_REACTORS
330
47
102
}
330
47
100
AcDbScale
 70
     0
300
1/128" = 1'-0"
140
0.0078125
141
12.0
290
     0
  0
SCALE
  5
5A
102
{ACAD_REACTORS
330
47
102
}
330
47
100
AcDbScale
 70
     0
300
1/64" = 1'-0"
140
0.015625
141
12.0
290
     0
  0
SCALE
  5
5B
102
{ACAD_REACTORS
330
47
102
}
330
47
100
AcDbScale
 70
     0
300
1/32" = 1'-0"
140
0.03125
141
12.0
290
     0
  0
SCALE
  5
5C
102
{ACAD_REACTORS
330
47
102
}
330
47
100
AcDbScale
 70
     0
300
1/16" = 1'-0"
140
0.0625
141
12.0
290
     0
  0
SCALE
  5
5D
102
{ACAD_REACTORS
330
47
102
}
330
47
100
AcDbScale
 70
     0
300
3/32" = 1'-0"
140
0.09375
141
12.0
290
     0
  0
SCALE
  5
5E
102
{ACAD_REACTORS
330
47
102
}
330
47
100
AcDbScale
 70
     0
300
1/8" = 1'-0"
140
0.125
141
12.0
290
     0
  0
SCALE
  5
5F
102
{ACAD_REACTORS
330
47
102
}
330
47
100
AcDbScale
 70
     0
300
3/16" = 1'-0"
140
0.1875
141
12.0
290
     0
  0
SCALE
  5
60
102
{ACAD_REACTORS
330
47
102
}
330
47
100
AcDbScale
 70
     0
300
1/4" = 1'-0"
140
0.25
141
12.0
290
     0
  0
SCALE
  5
61
102
{ACAD_REACTORS
330
47
102
}
330
47
100
AcDbScale
 70
     0
300
3/8" = 1'-0"
140
0.375
141
12.0
290
     0
  0
SCALE
  5
62
102
{ACAD_REACTORS
330
47
102
}
330
47
100
AcDbScale
 70
     0
300
1/2" = 1'-0"
140
0.5
141
12.0
290
     0
  0
SCALE
  5
63
102
{ACAD_REACTORS
330
47
102
}
330
47
100
AcDbScale
 70
     0
300
3/4" = 1'-0"
140
0.75
141
12.0
290
     0
  0
SCALE
  5
64
102
{ACAD_REACTORS
330
47
102
}
330
47
100
AcDbScale
 70
     0
300
1" = 1'-0"
140
1.0
141
12.0
290
     0
  0
SCALE
  5
65
102
{ACAD_REACTORS
330
47
102
}
330
47
100
AcDbScale
 70
     0
300
1-1/2" = 1'-0"
140
1.5
141
12.0
290
     0
  0
SCALE
  5
66
102
{ACAD_REACTORS
330
47
102
}
330
47
100
AcDbScale
 70
     0
300
3" = 1'-0"
140
3.0
141
12.0
290
     0
  0
SCALE
  5
67
102
{ACAD_REACTORS
330
47
102
}
330
47
100
AcDbScale
 70
     0
300
6" = 1'-0"
140
6.0
141
12.0
290
     0
  0
SCALE
  5
68
102
{ACAD_REACTORS
330
47
102
}
330
47
100
AcDbScale
 70
     0
300
1'-0" = 1'-0"
140
12.0
141
12.0
290
     0
  0
ENDSEC
  0
EOF
