  0
SECTION
  2
HEADER
  9
$ACADVER
  1
AC1015
  9
$ACADMAINTVER
 70
     6
  9
$DWGCODEPAGE
  3
ANSI_1252
  9
$INSBASE
 10
0.0
 20
0.0
 30
0.0
  9
$EXTMIN
 10
0.0
 20
0.0
 30
0.0
  9
$EXTMAX
 10
1189.0
 20
841.0
 30
0.0
  9
$LIMMIN
 10
0.0
 20
0.0
  9
$LIMMAX
 10
1189.0
 20
841.0
  9
$ORTHOMODE
 70
     0
  9
$REGENMODE
 70
     1
  9
$FILLMODE
 70
     1
  9
$QTEXTMODE
 70
     0
  9
$MIRRTEXT
 70
     1
  9
$LTSCALE
 40
1.0
  9
$ATTMODE
 70
     1
  9
$TEXTSIZE
 40
3.5
  9
$TRACEWID
 40
1.0
  9
$TEXTSTYLE
  7
Standard
  9
$CLAYER
  8
0
  9
$CELTYPE
  6
ByLayer
  9
$CECOLOR
 62
   256
  9
$CELTSCALE
 40
1.0
  9
$DISPSILH
 70
     0
  9
$DIMSCALE
 40
1.0
  9
$DIMASZ
 40
3.302
  9
$DIMEXO
 40
1.0
  9
$DIMDLI
 40
3.75
  9
$DIMRND
 40
0.0
  9
$DIMDLE
 40
0.0
  9
$DIMEXE
 40
1.0
  9
$DIMTP
 40
0.0
  9
$DIMTM
 40
0.0
  9
$DIMTXT
 40
3.5
  9
$DIMCEN
 40
2.5
  9
$DIMTSZ
 40
0.0
  9
$DIMTOL
 70
     0
  9
$DIMLIM
 70
     0
  9
$DIMTIH
 70
     1
  9
$DIMTOH
 70
     1
  9
$DIMSE1
 70
     0
  9
$DIMSE2
 70
     0
  9
$DIMTAD
 70
     1
  9
$DIMZIN
 70
     0
  9
$DIMBLK
  1

  9
$DIMASO
 70
     1
  9
$DIMSHO
 70
     1
  9
$DIMPOST
  1

  9
$DIMAPOST
  1

  9
$DIMALT
 70
     0
  9
$DIMALTD
 70
     3
  9
$DIMALTF
 40
0.0393700787
  9
$DIMLFAC
 40
5.0
  9
$DIMTOFL
 70
     1
  9
$DIMTVP
 40
0.0
  9
$DIMTIX
 70
     0
  9
$DIMSOXD
 70
     0
  9
$DIMSAH
 70
     0
  9
$DIMBLK1
  1

  9
$DIMBLK2
  1

  9
$DIMSTYLE
  2
ISO-25
  9
$DIMCLRD
 70
     0
  9
$DIMCLRE
 70
     0
  9
$DIMCLRT
 70
     0
  9
$DIMTFAC
 40
1.0
  9
$DIMGAP
 40
1.524
  9
$DIMJUST
 70
     0
  9
$DIMSD1
 70
     0
  9
$DIMSD2
 70
     0
  9
$DIMTOLJ
 70
     0
  9
$DIMTZIN
 70
     0
  9
$DIMALTZ
 70
     0
  9
$DIMALTTZ
 70
     0
  9
$DIMUPT
 70
     0
  9
$DIMDEC
 70
     2
  9
$DIMTDEC
 70
     2
  9
$DIMALTU
 70
     2
  9
$DIMALTTD
 70
     3
  9
$DIMTXSTY
  7
Standard
  9
$DIMAUNIT
 70
     0
  9
$DIMADEC
 70
     2
  9
$DIMALTRND
 40
0.0
  9
$DIMAZIN
 70
     0
  9
$DIMDSEP
 70
    44
  9
$DIMATFIT
 70
     3
  9
$DIMFRAC
 70
     0
  9
$DIMLDRBLK
  1

  9
$DIMLUNIT
 70
     2
  9
$DIMLWD
 70
    -2
  9
$DIMLWE
 70
    -2
  9
$DIMTMOVE
 70
     0
  9
$LUNITS
 70
     2
  9
$LUPREC
 70
     2
  9
$SKETCHINC
 40
1.0
  9
$FILLETRAD
 40
10.0
  9
$AUNITS
 70
     0
  9
$AUPREC
 70
     2
  9
$MENU
  1
.
  9
$ELEVATION
 40
0.0
  9
$PELEVATION
 40
0.0
  9
$THICKNESS
 40
0.0
  9
$LIMCHECK
 70
     0
  9
$CHAMFERA
 40
0.0
  9
$CHAMFERB
 40
0.0
  9
$CHAMFERC
 40
0.0
  9
$CHAMFERD
 40
0.0
  9
$SKPOLY
 70
     0
  9
$TDCREATE
 40
2458057.531938125
  9
$TDUCREATE
 40
2458057.531938125
  9
$TDUPDATE
 40
2458057.531938334
  9
$TDUUPDATE
 40
2458057.531938334
  9
$TDINDWG
 40
0.0000000116
  9
$TDUSRTIMER
 40
0.0000000116
  9
$USRTIMER
 70
     1
  9
$ANGBASE
 50
0.0
  9
$ANGDIR
 70
     0
  9
$PDMODE
 70
     0
  9
$PDSIZE
 40
-1.0
  9
$PLINEWID
 40
0.0
  9
$SPLFRAME
 70
     0
  9
$SPLINETYPE
 70
     6
  9
$SPLINESEGS
 70
     8
  9
$HANDSEED
  5
2F2
  9
$SURFTAB1
 70
     6
  9
$SURFTAB2
 70
     6
  9
$SURFTYPE
 70
     6
  9
$SURFU
 70
     6
  9
$SURFV
 70
     6
  9
$UCSBASE
  2

  9
$UCSNAME
  2

  9
$UCSORG
 10
0.0
 20
0.0
 30
0.0
  9
$UCSXDIR
 10
1.0
 20
0.0
 30
0.0
  9
$UCSYDIR
 10
0.0
 20
1.0
 30
0.0
  9
$UCSORTHOREF
  2

  9
$UCSORTHOVIEW
 70
     0
  9
$UCSORGTOP
 10
0.0
 20
0.0
 30
0.0
  9
$UCSORGBOTTOM
 10
0.0
 20
0.0
 30
0.0
  9
$UCSORGLEFT
 10
0.0
 20
0.0
 30
0.0
  9
$UCSORGRIGHT
 10
0.0
 20
0.0
 30
0.0
  9
$UCSORGFRONT
 10
0.0
 20
0.0
 30
0.0
  9
$UCSORGBACK
 10
0.0
 20
0.0
 30
0.0
  9
$PUCSBASE
  2

  9
$PUCSNAME
  2

  9
$PUCSORG
 10
0.0
 20
0.0
 30
0.0
  9
$PUCSXDIR
 10
1.0
 20
0.0
 30
0.0
  9
$PUCSYDIR
 10
0.0
 20
1.0
 30
0.0
  9
$PUCSORTHOREF
  2

  9
$PUCSORTHOVIEW
 70
     0
  9
$PUCSORGTOP
 10
0.0
 20
0.0
 30
0.0
  9
$PUCSORGBOTTOM
 10
0.0
 20
0.0
 30
0.0
  9
$PUCSORGLEFT
 10
0.0
 20
0.0
 30
0.0
  9
$PUCSORGRIGHT
 10
0.0
 20
0.0
 30
0.0
  9
$PUCSORGFRONT
 10
0.0
 20
0.0
 30
0.0
  9
$PUCSORGBACK
 10
0.0
 20
0.0
 30
0.0
  9
$USERI1
 70
     0
  9
$USERI2
 70
     0
  9
$USERI3
 70
     0
  9
$USERI4
 70
     0
  9
$USERI5
 70
     0
  9
$USERR1
 40
0.0
  9
$USERR2
 40
0.0
  9
$USERR3
 40
0.0
  9
$USERR4
 40
0.0
  9
$USERR5
 40
0.0
  9
$WORLDVIEW
 70
     1
  9
$SHADEDGE
 70
     3
  9
$SHADEDIF
 70
    70
  9
$TILEMODE
 70
     1
  9
$MAXACTVP
 70
    64
  9
$PINSBASE
 10
0.0
 20
0.0
 30
0.0
  9
$PLIMCHECK
 70
     0
  9
$PEXTMIN
 10
1.0000000000E+20
 20
1.0000000000E+20
 30
1.0000000000E+20
  9
$PEXTMAX
 10
-1.0000000000E+20
 20
-1.0000000000E+20
 30
-1.0000000000E+20
  9
$PLIMMIN
 10
0.0
 20
0.0
  9
$PLIMMAX
 10
420.0
 20
297.0
  9
$UNITMODE
 70
     0
  9
$VISRETAIN
 70
     1
  9
$PLINEGEN
 70
     0
  9
$PSLTSCALE
 70
     1
  9
$TREEDEPTH
 70
  3020
  9
$CMLSTYLE
  2
Standard
  9
$CMLJUST
 70
     0
  9
$CMLSCALE
 40
20.0
  9
$PROXYGRAPHICS
 70
     1
  9
$MEASUREMENT
 70
     1
  9
$CELWEIGHT
370
    -1
  9
$ENDCAPS
280
     0
  9
$JOINSTYLE
280
     0
  9
$LWDISPLAY
290
     1
  9
$INSUNITS
 70
     4
  9
$HYPERLINKBASE
  1

  9
$STYLESHEET
  1

  9
$XEDIT
290
     1
  9
$CEPSNTYPE
380
     0
  9
$PSTYLEMODE
290
     1
  9
$FINGERPRINTGUID
  2
{FE555B40-AFF0-47C1-BAE0-AB3332DCC20E}
  9
$VERSIONGUID
  2
{FAEB1C32-E019-11D5-929B-00C0DF256EC4}
  9
$EXTNAMES
290
     1
  9
$PSVPSCALE
 40
0.0
  9
$OLESTARTUP
290
     0
  0
ENDSEC
  0
SECTION
  2
CLASSES
  0
CLASS
  1
ACDBDICTIONARYWDFLT
  2
AcDbDictionaryWithDefault
  3
ObjectDBX Classes
 90
        0
280
     0
281
     0
  0
CLASS
  1
VISUALSTYLE
  2
AcDbVisualStyle
  3
ObjectDBX Classes
 90
     4095
280
     0
281
     0
  0
CLASS
  1
MATERIAL
  2
AcDbMaterial
  3
ObjectDBX Classes
 90
     1153
280
     0
281
     0
  0
CLASS
  1
SCALE
  2
AcDbScale
  3
ObjectDBX Classes
 90
     1153
280
     0
281
     0
  0
CLASS
  1
TABLESTYLE
  2
AcDbTableStyle
  3
ObjectDBX Classes
 90
     4095
280
     0
281
     0
  0
CLASS
  1
MLEADERSTYLE
  2
AcDbMLeaderStyle
  3
ACDB_MLEADERSTYLE_CLASS
 90
     4095
280
     0
281
     0
  0
CLASS
  1
SUN
  2
AcDbSun
  3
SCENEOE
 90
     1153
280
     0
281
     0
  0
CLASS
  1
ACDBPLACEHOLDER
  2
AcDbPlaceHolder
  3
ObjectDBX Classes
 90
        0
280
     0
281
     0
  0
CLASS
  1
LAYOUT
  2
AcDbLayout
  3
ObjectDBX Classes
 90
        0
280
     0
281
     0
  0
ENDSEC
  0
SECTION
  2
TABLES
  0
TABLE
  2
VPORT
  5
8
330
0
100
AcDbSymbolTable
 70
     1
  0
VPORT
  5
29
330
8
100
AcDbSymbolTableRecord
100
AcDbViewportTableRecord
  2
*Active
 70
     0
 10
0.0
 20
0.0
 11
1.0
 21
1.0
 12
594.5
 22
420.5
 13
0.0
 23
0.0
 14
10.0
 24
10.0
 15
10.0
 25
10.0
 16
0.0
 26
0.0
 36
1.0
 17
0.0
 27
0.0
 37
0.0
 40
841.0
 41
1.4137931034
 42
50.0
 43
0.0
 44
0.0
 50
0.0
 51
0.0
 71
     0
 72
  2000
 73
     1
 74
     3
 75
     0
 76
     0
 77
     0
 78
     0
281
     0
 65
     1
110
0.0
120
0.0
130
0.0
111
1.0
121
0.0
131
0.0
112
0.0
122
1.0
132
0.0
 79
     0
146
0.0
  0
ENDTAB
  0
TABLE
  2
LTYPE
  5
5
330
0
100
AcDbSymbolTable
 70
     6
  0
LTYPE
  5
14
330
5
100
AcDbSymbolTableRecord
100
AcDbLinetypeTableRecord
  2
ByBlock
 70
     0
  3

 72
    65
 73
     0
 40
0.0
  0
LTYPE
  5
15
330
5
100
AcDbSymbolTableRecord
100
AcDbLinetypeTableRecord
  2
ByLayer
 70
     0
  3

 72
    65
 73
     0
 40
0.0
  0
LTYPE
  5
16
330
5
100
AcDbSymbolTableRecord
100
AcDbLinetypeTableRecord
  2
Continuous
 70
     0
  3
Solid line
 72
    65
 73
     0
 40
0.0
  0
LTYPE
  5
6E
330
5
100
AcDbSymbolTableRecord
100
AcDbLinetypeTableRecord
  2
HIDDEN
 70
     0
  3
Hidden __ __ __ __ __ __ __ __ __ __ __ __ __ __
 72
    65
 73
     2
 40
1.905
 49
1.27
 74
     0
 49
-0.635
 74
     0
  0
LTYPE
  5
6F
330
5
100
AcDbSymbolTableRecord
100
AcDbLinetypeTableRecord
  2
PHANTOM
 70
     0
  3
Phantom ______  __  __  ______  __  __  ______
 72
    65
 73
     6
 40
12.7
 49
6.35
 74
     0
 49
-1.27
 74
     0
 49
1.27
 74
     0
 49
-1.27
 74
     0
 49
1.27
 74
     0
 49
-1.27
 74
     0
  0
LTYPE
  5
70
330
5
100
AcDbSymbolTableRecord
100
AcDbLinetypeTableRecord
  2
CENTER
 70
     0
  3
Center ____ _ ____ _ ____ _ ____ _ ____ _ ____
 72
    65
 73
     4
 40
10.16
 49
6.35
 74
     0
 49
-1.27
 74
     0
 49
1.27
 74
     0
 49
-1.27
 74
     0
  0
LTYPE
  5
71
330
5
100
AcDbSymbolTableRecord
100
AcDbLinetypeTableRecord
  2
CENTERX2
 70
     0
  3
Center (2x) ________  __  ________  __  _____
 72
    65
 73
     4
 40
20.32
 49
12.7
 74
     0
 49
-2.54
 74
     0
 49
2.54
 74
     0
 49
-2.54
 74
     0
  0
LTYPE
  5
72
330
5
100
AcDbSymbolTableRecord
100
AcDbLinetypeTableRecord
  2
DOT2
 70
     0
  3
Dot (.5x) ........................................
 72
    65
 73
     2
 40
0.635
 49
0.0
 74
     0
 49
-0.635
 74
     0
  0
ENDTAB
  0
TABLE
  2
LAYER
  5
2
330
0
100
AcDbSymbolTable
 70
     2
  0
LAYER
  5
10
330
2
100
AcDbSymbolTableRecord
100
AcDbLayerTableRecord
  2
0
 70
     0
 62
     7
  6
Continuous
370
    -3
390
F
  0
LAYER
  5
73
330
2
100
AcDbSymbolTableRecord
100
AcDbLayerTableRecord
  2
FORMAT
 70
     0
 62
     7
  6
Continuous
370
    -3
390
F
  0
ENDTAB
  0
TABLE
  2
STYLE
  5
3
330
0
100
AcDbSymbolTable
 70
     1
  0
STYLE
  5
11
330
3
100
AcDbSymbolTableRecord
100
AcDbTextStyleTableRecord
  2
Standard
 70
     0
 40
0.0
 41
1.0
 50
0.0
 71
     0
 42
3.5
  3
txt
  4

  0
ENDTAB
  0
TABLE
  2
VIEW
  5
6
330
0
100
AcDbSymbolTable
 70
     0
  0
ENDTAB
  0
TABLE
  2
UCS
  5
7
330
0
100
AcDbSymbolTable
 70
     0
  0
ENDTAB
  0
TABLE
  2
APPID
  5
9
330
0
100
AcDbSymbolTable
 70
     1
  0
APPID
  5
12
330
9
100
AcDbSymbolTableRecord
100
AcDbRegAppTableRecord
  2
ACAD
 70
     0
  0
ENDTAB
  0
TABLE
  2
DIMSTYLE
  5
A
330
0
100
AcDbSymbolTable
 70
     1
100
AcDbDimStyleTable
  0
DIMSTYLE
105
27
330
A
100
AcDbSymbolTableRecord
100
AcDbDimStyleTableRecord
  2
ISO-25
 70
     0
 41
2.5
 42
0.625
 43
3.75
 44
1.25
 73
     0
 74
     0
 77
     1
 78
     8
140
2.5
141
2.5
143
0.0393700787
147
0.625
171
     3
172
     1
178
     0
271
     2
272
     2
274
     3
278
    44
283
     0
284
     8
340
11
  0
ENDTAB
  0
TABLE
  2
BLOCK_RECORD
  5
1
330
0
100
AcDbSymbolTable
 70
     1
  0
BLOCK_RECORD
  5
1F
330
1
100
AcDbSymbolTableRecord
100
AcDbBlockTableRecord
  2
*Model_Space
340
22
  0
BLOCK_RECORD
  5
1B
330
1
100
AcDbSymbolTableRecord
100
AcDbBlockTableRecord
  2
*Paper_Space
340
1E
  0
BLOCK_RECORD
  5
23
330
1
100
AcDbSymbolTableRecord
100
AcDbBlockTableRecord
  2
*Paper_Space0
340
26
  0
ENDTAB
  0
ENDSEC
  0
SECTION
  2
BLOCKS
  0
BLOCK
  5
20
330
1F
100
AcDbEntity
  8
0
100
AcDbBlockBegin
  2
*Model_Space
 70
     0
 10
0.0
 20
0.0
 30
0.0
  3
*Model_Space
  1

  0
ENDBLK
  5
21
330
1F
100
AcDbEntity
  8
0
100
AcDbBlockEnd
  0
BLOCK
  5
1C
330
1B
100
AcDbEntity
 67
     1
  8
0
100
AcDbBlockBegin
  2
*Paper_Space
 70
     0
 10
0.0
 20
0.0
 30
0.0
  3
*Paper_Space
  1

  0
ENDBLK
  5
1D
330
1B
100
AcDbEntity
 67
     1
  8
0
100
AcDbBlockEnd
  0
BLOCK
  5
24
330
23
100
AcDbEntity
  8
0
100
AcDbBlockBegin
  2
*Paper_Space0
 70
     0
 10
0.0
 20
0.0
 30
0.0
  3
*Paper_Space0
  1

  0
ENDBLK
  5
25
330
23
100
AcDbEntity
  8
0
100
AcDbBlockEnd
  0
ENDSEC
  0
SECTION
  2
ENTITIES
  0
LINE
  5
74
330
1F
100
AcDbEntity
  8
0
  6
Continuous
 62
     7
370
    15
100
AcDbLine
 10
449.4459673792
 20
304.2118298265
 30
0.0
 11
449.4459673792
 21
302.9814718667
 31
0.0
  0
LINE
  5
75
330
1F
100
AcDbEntity
  8
0
  6
Continuous
 62
     7
370
    15
100
AcDbLine
 10
465.4459677666
 20
302.9814718667
 30
0.0
 11
465.4459677666
 21
304.2118298265
 31
0.0
  0
LINE
  5
76
330
1F
100
AcDbEntity
  8
0
  6
Continuous
 62
     7
370
    15
100
AcDbLine
 10
458.1159673661
 20
273.9721918854
 30
0.0
 11
456.7759674072
 21
273.9721918854
 31
0.0
  0
LINE
  5
77
330
1F
100
AcDbEntity
  8
0
  6
Continuous
 62
     7
370
    15
100
AcDbLine
 10
456.7759674072
 20
268.0756563696
 30
0.0
 11
458.1159673661
 21
268.0756563696
 31
0.0
  0
LINE
  5
78
330
1F
100
AcDbEntity
  8
0
  6
Continuous
 62
     7
370
    15
100
AcDbLine
 10
469.3276777893
 20
270.7321728024
 30
0.0
 11
469.9976772099
 21
271.1919153485
 31
0.0
  0
LINE
  5
79
330
1F
100
AcDbEntity
  8
0
  6
Continuous
 62
     7
370
    15
100
AcDbLine
 10
466.0562962323
 20
276.0038936886
 30
0.0
 11
465.5449047714
 21
275.6529847535
 31
0.0
  0
LINE
  5
7A
330
1F
100
AcDbEntity
  8
0
  6
Continuous
 62
     7
370
    15
100
AcDbLine
 10
448.19665775
 20
275.5654344711
 30
0.0
 11
448.8666571706
 21
276.0251785073
 31
0.0
  0
LINE
  5
7B
330
1F
100
AcDbEntity
  8
0
  6
Continuous
 62
     7
370
    15
100
AcDbLine
 10
445.5642573565
 20
296.0882677141
 30
0.0
 11
444.8942579358
 21
295.6285238641
 31
0.0
  0
LINE
  5
7C
330
1F
100
AcDbEntity
  8
0
  6
Continuous
 62
     7
370
    15
100
AcDbLine
 10
451.3386890322
 20
296.5898545834
 30
0.0
 11
452.0086891979
 21
297.0495984334
 31
0.0
  0
LINE
  5
7D
330
1F
100
AcDbEntity
  8
0
  6
Continuous
 62
     7
370
    15
100
AcDbLine
 10
456.7759674072
 20
277.7421826872
 30
0.0
 11
458.1159673661
 21
277.7421826872
 31
0.0
  0
LINE
  5
7E
330
1F
100
AcDbEntity
  8
0
  6
Continuous
 62
     7
370
    15
100
AcDbLine
 10
444.8942579358
 20
271.1919153485
 30
0.0
 11
445.5642573565
 21
270.7321728024
 31
0.0
  0
LINE
  5
7F
330
1F
100
AcDbEntity
  8
0
  6
Continuous
 62
     7
370
    15
100
AcDbLine
 10
449.3470303744
 20
275.6529847535
 30
0.0
 11
448.8356389135
 21
276.0038936886
 31
0.0
  0
LINE
  5
80
330
1F
100
AcDbEntity
  8
0
  6
Continuous
 62
     7
370
    15
100
AcDbLine
 10
466.0252772301
 20
276.0251785073
 30
0.0
 11
466.6952773958
 21
275.5654344711
 31
0.0
  0
LINE
  5
81
330
1F
100
AcDbEntity
  8
0
  6
Continuous
 62
     7
370
    15
100
AcDbLine
 10
469.9976772099
 20
295.6285238641
 30
0.0
 11
469.3276777893
 21
296.0882677141
 31
0.0
  0
LINE
  5
82
330
1F
100
AcDbEntity
  8
0
  6
Continuous
 62
     7
370
    15
100
AcDbLine
 10
462.8832459479
 20
297.0495984334
 30
0.0
 11
463.5532461136
 21
296.5898545834
 31
0.0
  0
LINE
  5
83
330
1F
100
AcDbEntity
  8
0
  6
Continuous
 62
     7
370
    15
100
AcDbLine
 10
465.4459677666
 20
301.7511139068
 30
0.0
 11
465.4459677666
 21
302.9814718667
 31
0.0
  0
LINE
  5
84
330
1F
100
AcDbEntity
  8
0
  6
Continuous
 62
     7
370
    15
100
AcDbLine
 10
449.4459673792
 20
302.9814718667
 30
0.0
 11
449.4459673792
 21
301.7511139068
 31
0.0
  0
ARC
  5
85
330
1F
100
AcDbEntity
  8
0
  6
Continuous
 62
     7
370
    15
100
AcDbCircle
 10
457.4982893709
 20
251.1153846134
 30
0.0
 40
30.2185648415548
100
AcDbArc
 50
83.9817948369
 51
88.8287727341
  0
LWPOLYLINE
  5
86
330
1F
100
AcDbEntity
  8
0
  6
Continuous
 62
     7
370
    15
100
AcDbPolyline
 90
       19
 70
   128
 43
0.0
 10
456.7759674072
 20
281.3264126334
 10
456.6167221434
 20
281.3240835819
 10
455.8808725822
 20
281.2959472093
 10
455.150306251
 20
281.2505687031
 10
454.4274630986
 20
281.1880866441
 10
453.7147531315
 20
281.1086828265
 10
453.0145470082
 20
281.0125926885
 10
452.3291664227
 20
280.9000904116
 10
451.6608756065
 20
280.7714933905
 10
451.0118722945
 20
280.6271547827
 10
450.384280461
 20
280.467456058
 10
449.7801426827
 20
280.2928069982
 10
449.2014151096
 20
280.1036293063
 10
448.6499644845
 20
279.9003506455
 10
448.1275700062
 20
279.6833942088
 10
447.6359263092
 20
279.4531667981
 10
447.1766628354
 20
279.2100483927
 10
446.7513650685
 20
278.95438768
 10
446.6958425968
 20
278.9162272963
  0
LWPOLYLINE
  5
87
330
1F
100
AcDbEntity
  8
0
  6
Continuous
 62
     7
370
    15
100
AcDbPolyline
 90
       13
 70
   128
 43
0.0
 10
444.773235175
 20
276.4999414238
 10
444.7326853901
 20
276.2198130044
 10
444.7303019493
 20
275.8994112167
 10
444.7711765795
 20
275.5818153176
 10
444.854479286
 20
275.2680996808
 10
444.9799902766
 20
274.9581778797
 10
445.1480448275
 20
274.6520663056
 10
445.3591026395
 20
274.3502835187
 10
445.613233748
 20
274.0539515766
 10
445.9097862273
 20
273.7646202001
 10
446.2473996013
 20
273.4839136156
 10
446.6242611438
 20
273.2132578644
 10
446.8312129408
 20
273.0835819992
  0
ARC
  5
88
330
1F
100
AcDbEntity
  8
0
  6
Continuous
 62
     7
370
    15
100
AcDbCircle
 10
456.9497699492
 20
295.8692479244
 30
0.0
 40
25.11127770126789
100
AcDbArc
 50
252.0058841482
 51
269.6034358844
  0
ARC
  5
89
330
1F
100
AcDbEntity
  8
0
  6
Continuous
 62
     7
370
    15
100
AcDbCircle
 10
457.9539183534
 20
295.7823393357
 30
0.0
 40
25.02454564390141
100
AcDbArc
 50
270.3710272914
 51
288.0299016636
  0
LWPOLYLINE
  5
8A
330
1F
100
AcDbEntity
  8
0
  6
Continuous
 62
     7
370
    15
100
AcDbPolyline
 90
       13
 70
   128
 43
0.0
 10
468.060927096
 20
273.0833853039
 10
468.3227092057
 20
273.2504899058
 10
468.6957120925
 20
273.5238219055
 10
469.0306961566
 20
273.8088036331
 10
469.3256408005
 20
274.1046661887
 10
469.5785462886
 20
274.4103128466
 10
469.7874739795
 20
274.7240508351
 10
469.9509024649
 20
275.0435421619
 10
470.0681254297
 20
275.3660882267
 10
470.1394155651
 20
275.6891513619
 10
470.165759328
 20
276.0108227286
 10
470.148320499
 20
276.3299966606
 10
470.1164364844
 20
276.4970729503
  0
LWPOLYLINE
  5
8B
330
1F
100
AcDbEntity
  8
0
  6
Continuous
 62
     7
370
    15
100
AcDbPolyline
 90
       15
 70
   128
 43
0.0
 10
468.1960925489
 20
278.9147833738
 10
468.0835396081
 20
278.990666047
 10
467.6531694859
 20
279.2447457465
 10
467.188527438
 20
279.4864589724
 10
466.6914239555
 20
279.7152782235
 10
466.1636531382
 20
279.9307281527
 10
465.6070262223
 20
280.1323632154
 10
465.0234013825
 20
280.3197438273
 10
464.4147001236
 20
280.4924438152
 10
463.782916966
 20
280.650051907
 10
463.1301201909
 20
280.7921747121
 10
462.4584518402
 20
280.9184411916
 10
461.7701239913
 20
281.0285160693
 10
461.0674105614
 20
281.1220968518
 10
460.6665384054
 20
281.1674038324
  0
LWPOLYLINE
  5
8C
330
1F
100
AcDbEntity
  8
0
  6
Continuous
 62
     7
370
    15
100
AcDbPolyline
 90
       20
 70
   128
 43
0.0
 10
446.8444682687
 20
277.9958630356
 10
446.9161205023
 20
278.0512133989
 10
447.2613893479
 20
278.2832513007
 10
447.6440019935
 20
278.508954719
 10
448.0628840655
 20
278.7271837148
 10
448.5166922241
 20
278.9367953691
 10
449.003855142
 20
279.1367018971
 10
449.5226122468
 20
279.3258780989
 10
450.0710416615
 20
279.5033792409
 10
450.6470870256
 20
279.6683425459
 10
451.2485779851
 20
279.819987193
 10
451.8732454657
 20
279.9576113376
 10
452.5187362015
 20
280.0805950913
 10
453.1826237246
 20
280.1883930716
 10
453.8624195411
 20
280.2805329117
 10
454.5555824443
 20
280.3566182408
 10
455.2595278278
 20
280.4163271937
 10
455.9716363932
 20
280.4594019803
 10
456.6892628587
 20
280.4856652769
 10
456.7759674072
 20
280.4867873344
  0
LWPOLYLINE
  5
8D
330
1F
100
AcDbEntity
  8
0
  6
Continuous
 62
     7
370
    15
100
AcDbPolyline
 90
       21
 70
   128
 43
0.0
 10
458.1159673661
 20
280.4875204715
 10
458.1304108753
 20
280.4873669895
 10
458.8485796034
 20
280.4627949747
 10
459.5615755796
 20
280.4213816676
 10
460.2667529165
 20
280.3632984313
 10
460.578078407
 20
280.3320745382
 10
460.9419886052
 20
280.2911142263
 10
461.6240095377
 20
280.2009413394
 10
462.290623787
 20
280.0950045142
 10
462.9392392963
 20
279.9737671766
 10
463.567418608
 20
279.8377553377
 10
464.1727887123
 20
279.6875695142
 10
464.7530563205
 20
279.5238906893
 10
465.3060123354
 20
279.3474818024
 10
465.8295460075
 20
279.1591937098
 10
466.3216605812
 20
278.9599651846
 10
466.7804874509
 20
278.7508407983
 10
467.2043107479
 20
278.5329634699
 10
467.5915956527
 20
278.307584897
 10
467.9410308629
 20
278.0760625753
 10
468.0470079213
 20
277.9954472932
  0
ARC
  5
8E
330
1F
100
AcDbEntity
  8
0
  6
Continuous
 62
     7
370
    15
100
AcDbCircle
 10
462.9690575085
 20
287.996857065
 30
0.0
 40
7.640525758563497
100
AcDbArc
 50
46.9126238572
 51
66.8912890682
  0
ARC
  5
8F
330
1F
100
AcDbEntity
  8
0
  6
Continuous
 62
     7
370
    15
100
AcDbCircle
 10
451.8072227383
 20
288.1828937971
 30
0.0
 40
7.422135550909681
100
AcDbArc
 50
113.843551201
 51
133.4560314688
  0
LINE
  5
90
330
1F
100
AcDbEntity
  8
0
  6
Continuous
 62
     7
370
    15
100
AcDbLine
 10
466.1462694436
 20
294.9426168951
 30
0.0
 11
461.9927123218
 21
296.9295645508
 31
0.0
  0
LINE
  5
91
330
1F
100
AcDbEntity
  8
0
  6
Continuous
 62
     7
370
    15
100
AcDbLine
 10
452.8992228239
 20
296.9295645508
 30
0.0
 11
448.7456657022
 21
294.9426168951
 31
0.0
  0
LINE
  5
92
330
1F
100
AcDbEntity
  8
0
  6
Continuous
 62
     7
370
    15
100
AcDbLine
 10
452.242681387
 20
296.654974893
 30
0.0
 11
452.241987738
 21
296.6151612255
 31
0.0
  0
LINE
  5
93
330
1F
100
AcDbEntity
  8
0
  6
Continuous
 62
     7
370
    15
100
AcDbLine
 10
462.6501619845
 20
296.6150585937
 30
0.0
 11
462.6468926698
 21
296.6546057168
 31
0.0
  0
LINE
  5
94
330
1F
100
AcDbEntity
  8
0
  6
Continuous
 62
     7
370
    15
100
AcDbLine
 10
462.6459673076
 20
296.6546344015
 30
0.0
 11
462.6459673076
 21
297.2604563835
 31
0.0
  0
LINE
  5
95
330
1F
100
AcDbEntity
  8
0
  6
Continuous
 62
     7
370
    15
100
AcDbLine
 10
452.2459674656
 20
297.2604563835
 30
0.0
 11
452.2459674656
 21
296.6546344015
 31
0.0
  0
LWPOLYLINE
  5
96
330
1F
100
AcDbEntity
  8
0
  6
Continuous
 62
     7
370
    15
100
AcDbPolyline
 90
       14
 70
   128
 43
0.0
 10
462.2827798157
 20
302.3838891092
 10
462.2202895611
 20
302.4539092931
 10
462.0105043083
 20
302.6348943266
 10
461.7607973545
 20
302.8064256909
 10
461.4744849532
 20
302.9663933817
 10
461.1551649898
 20
303.1133590642
 10
460.8058210492
 20
303.2465519759
 10
460.4294039338
 20
303.3653160933
 10
460.0289586961
 20
303.4690352532
 10
459.6076831251
 20
303.5571275654
 10
459.1689441382
 20
303.6290647837
 10
458.7582249224
 20
303.6800234023
 10
458.5163343727
 20
303.7031429264
 10
458.1159673661
 20
303.7296770516
  0
LWPOLYLINE
  5
97
330
1F
100
AcDbEntity
  8
0
  6
Continuous
 62
     7
370
    15
100
AcDbPolyline
 90
       14
 70
   128
 43
0.0
 10
456.7759674072
 20
303.7289156023
 10
456.6375498689
 20
303.7226753685
 10
456.1748783599
 20
303.6843100938
 10
455.7226448116
 20
303.6290152374
 10
455.2845074708
 20
303.5571752492
 10
454.8639871675
 20
303.4692710641
 10
454.4644331589
 20
303.3658603582
 10
454.0889938391
 20
303.2475503537
 10
453.7405962154
 20
303.1149594489
 10
453.4219440102
 20
302.9686661813
 10
453.1355517014
 20
302.8091499957
 10
452.883850041
 20
302.6367487761
 10
452.669407989
 20
302.4517165872
 10
452.6091551438
 20
302.3835329714
  0
LWPOLYLINE
  5
98
330
1F
100
AcDbEntity
  8
0
  6
Continuous
 62
     7
370
    15
100
AcDbPolyline
 90
        3
 70
   128
 43
0.0
 10
449.0377880662
 20
295.0823599848
 10
449.0199752181
 20
295.1789973679
 10
448.9966988593
 20
295.4306306693
  0
LWPOLYLINE
  5
99
330
1F
100
AcDbEntity
  8
0
  6
Continuous
 62
     7
370
    15
100
AcDbPolyline
 90
        3
 70
   128
 43
0.0
 10
465.8541470795
 20
295.0823599848
 10
465.8719599276
 20
295.1789973679
 10
465.8952355414
 20
295.4306306693
  0
ARC
  5
9A
330
1F
100
AcDbEntity
  8
0
  6
Continuous
 62
     7
370
    15
100
AcDbCircle
 10
457.4459674483
 20
295.4840447459
 30
0.0
 40
13.0
100
AcDbArc
 50
90.0
 51
181.6703615852
  0
ARC
  5
9B
330
1F
100
AcDbEntity
  8
0
  6
Continuous
 62
     7
370
    15
100
AcDbCircle
 10
457.4459674483
 20
295.4840447459
 30
0.0
 40
13.0
100
AcDbArc
 50
358.3296384148
 51
90.0
  0
LWPOLYLINE
  5
9C
330
1F
100
AcDbEntity
  8
0
  6
Continuous
 62
     7
370
    15
100
AcDbPolyline
 90
       40
 70
   128
 43
0.0
 10
465.3450027138
 20
303.483411521
 10
465.2230680018
 20
303.7244031581
 10
465.0543607801
 20
303.9609270546
 10
464.8398965626
 20
304.1915601495
 10
464.5809635549
 20
304.4149158898
 10
464.2791204184
 20
304.6296505633
 10
463.9361821144
 20
304.8344726118
 10
463.5542102187
 20
305.0281511995
 10
463.1355032354
 20
305.2095199379
 10
462.6825779706
 20
305.3774895522
 10
462.1981598466
 20
305.5310489985
 10
461.685160923
 20
305.66927515
 10
461.1466672301
 20
305.7913365218
 10
460.5859171628
 20
305.8964992318
 10
460.0062832266
 20
305.9841299805
 10
459.4112508028
 20
306.0537027571
 10
458.8043991506
 20
306.1047988388
 10
458.1893779367
 20
306.1371105167
 10
457.5698856294
 20
306.1504440758
 10
456.9496478915
 20
306.1447190496
 10
456.3323952287
 20
306.1199704561
 10
455.7218396833
 20
306.0763458165
 10
455.1216532506
 20
306.0141081366
 10
454.5354454807
 20
305.9336321804
 10
453.9667420119
 20
305.8354014906
 10
453.4189630329
 20
305.7200076434
 10
452.895402725
 20
305.5881427976
 10
452.3992102623
 20
305.4406019303
 10
451.933369416
 20
305.2782709154
 10
451.5006821632
 20
305.1021272692
 10
451.1037506192
 20
304.913228974
 10
450.7449615776
 20
304.7127137336
 10
450.4264734715
 20
304.5017863068
 10
450.1502014726
 20
304.2817151549
 10
449.9178066879
 20
304.0538246188
 10
449.7306875914
 20
303.81948486
 10
449.5899688482
 20
303.5801047835
 10
449.4964968442
 20
303.3371249589
 10
449.4508340984
 20
303.0920057002
 10
449.4459673792
 20
302.9814718667
  0
ARC
  5
9D
330
1F
100
AcDbEntity
  8
0
  6
Continuous
 62
     7
370
    15
100
AcDbCircle
 10
464.1307899808
 20
302.9780485161
 30
0.0
 40
1.315182241233287
100
AcDbArc
 50
0.1491380841
 51
22.5973867803
  0
LWPOLYLINE
  5
9E
330
1F
100
AcDbEntity
  8
0
  6
Continuous
 62
     7
370
    15
100
AcDbPolyline
 90
       40
 70
   128
 43
0.0
 10
465.3450027138
 20
304.7137694809
 10
465.2230680018
 20
304.9547614905
 10
465.0543607801
 20
305.1912846419
 10
464.8398965626
 20
305.4219181094
 10
464.5809635549
 20
305.6452738497
 10
464.2791204184
 20
305.8600085232
 10
463.9361821144
 20
306.0648309442
 10
463.5542102187
 20
306.2585087869
 10
463.1355032354
 20
306.4398782703
 10
462.6825779706
 20
306.6078478846
 10
462.1981598466
 20
306.7614073309
 10
461.685160923
 20
306.8996327373
 10
461.1466672301
 20
307.0216941091
 10
460.5859171628
 20
307.1268568191
 10
460.0062832266
 20
307.2144883129
 10
459.4112508028
 20
307.2840610895
 10
458.8043991506
 20
307.3351564261
 10
458.1893779367
 20
307.3674688491
 10
457.5698856294
 20
307.3808024082
 10
456.9496478915
 20
307.375077382
 10
456.3323952287
 20
307.3503280434
 10
455.7218396833
 20
307.3067034039
 10
455.1216532506
 20
307.244466469
 10
454.5354454807
 20
307.1639905128
 10
453.9667420119
 20
307.065759823
 10
453.4189630329
 20
306.9503652307
 10
452.895402725
 20
306.81850113
 10
452.3992102623
 20
306.6709595177
 10
451.933369416
 20
306.5086292478
 10
451.5006821632
 20
306.3324848565
 10
451.1037506192
 20
306.1435873064
 10
450.7449615776
 20
305.9430713209
 10
450.4264734715
 20
305.7321438941
 10
450.1502014726
 20
305.5120731148
 10
449.9178066879
 20
305.2841829511
 10
449.7306875914
 20
305.0498428199
 10
449.5899688482
 20
304.8104631159
 10
449.4964968442
 20
304.5674829188
 10
449.4508340984
 20
304.32236366
 10
449.4459673792
 20
304.2118298265
  0
ARC
  5
9F
330
1F
100
AcDbEntity
  8
0
  6
Continuous
 62
     7
370
    15
100
AcDbCircle
 10
464.1307899808
 20
304.208406476
 30
0.0
 40
1.315182241233912
100
AcDbArc
 50
0.1491380841
 51
22.5973867803
  0
LINE
  5
A0
330
1F
100
AcDbEntity
  8
0
  6
Continuous
 62
     7
370
    15
100
AcDbLine
 10
458.1159673661
 20
271.3433975729
 30
0.0
 11
458.1159673661
 21
268.7147045883
 31
0.0
  0
LINE
  5
A1
330
1F
100
AcDbEntity
  8
0
  6
Continuous
 62
     7
370
    15
100
AcDbLine
 10
456.7759674072
 20
271.3433975729
 30
0.0
 11
456.7759674072
 21
268.7147045883
 31
0.0
  0
LINE
  5
A2
330
1F
100
AcDbEntity
  8
0
  6
Continuous
 62
     7
370
    15
100
AcDbLine
 10
458.1159673661
 20
273.7306604537
 30
0.0
 11
458.1159673661
 21
271.3433975729
 31
0.0
  0
LINE
  5
A3
330
1F
100
AcDbEntity
  8
0
  6
Continuous
 62
     7
370
    15
100
AcDbLine
 10
456.7759674072
 20
273.7306604537
 30
0.0
 11
456.7759674072
 21
271.3433975729
 31
0.0
  0
LINE
  5
A4
330
1F
100
AcDbEntity
  8
0
  6
Continuous
 62
     7
370
    15
100
AcDbLine
 10
458.1159673661
 20
273.9721918854
 30
0.0
 11
458.1159673661
 21
273.7306604537
 31
0.0
  0
LINE
  5
A5
330
1F
100
AcDbEntity
  8
0
  6
Continuous
 62
     7
370
    15
100
AcDbLine
 10
456.7759674072
 20
273.9721918854
 30
0.0
 11
456.7759674072
 21
273.7306604537
 31
0.0
  0
LINE
  5
A6
330
1F
100
AcDbEntity
  8
0
  6
Continuous
 62
     7
370
    15
100
AcDbLine
 10
458.1159673661
 20
268.7147045883
 30
0.0
 11
458.1159673661
 21
268.2393009219
 31
0.0
  0
LINE
  5
A7
330
1F
100
AcDbEntity
  8
0
  6
Continuous
 62
     7
370
    15
100
AcDbLine
 10
456.7759674072
 20
268.7147045883
 30
0.0
 11
456.7759674072
 21
268.2393009219
 31
0.0
  0
LINE
  5
A8
330
1F
100
AcDbEntity
  8
0
  6
Continuous
 62
     7
370
    15
100
AcDbLine
 10
458.1159673661
 20
268.2393009219
 30
0.0
 11
458.1159673661
 21
268.0756563696
 31
0.0
  0
LINE
  5
A9
330
1F
100
AcDbEntity
  8
0
  6
Continuous
 62
     7
370
    15
100
AcDbLine
 10
456.7759674072
 20
268.2393009219
 30
0.0
 11
456.7759674072
 21
268.0756563696
 31
0.0
  0
ARC
  5
AA
330
1F
100
AcDbEntity
  8
0
  6
Continuous
 62
     7
370
    15
100
AcDbCircle
 10
467.0695802888
 20
296.5886772948
 30
0.0
 40
2.392793992591755
100
AcDbArc
 50
194.5277863841
 51
206.3493026688
  0
LINE
  5
AB
330
1F
100
AcDbEntity
  8
0
  6
Continuous
 62
     7
370
    15
100
AcDbLine
 10
470.5981433421
 20
272.4448437247
 30
0.0
 11
470.5981433421
 21
277.8484011444
 31
0.0
  0
ARC
  5
AC
330
1F
100
AcDbEntity
  8
0
  6
Continuous
 62
     7
370
    15
100
AcDbCircle
 10
469.2090283062
 20
272.353846229
 30
0.0
 40
1.3920923558125
100
AcDbArc
 50
255.7386098894
 51
3.7479500331
  0
LINE
  5
AD
330
1F
100
AcDbEntity
  8
0
  6
Continuous
 62
     7
370
    15
100
AcDbLine
 10
467.8268618911
 20
271.2423587593
 30
0.0
 11
468.8660919696
 21
271.004655436
 31
0.0
  0
ARC
  5
AE
330
1F
100
AcDbEntity
  8
0
  6
Continuous
 62
     7
370
    15
100
AcDbCircle
 10
468.4413902917
 20
273.5072731212
 30
0.0
 40
2.346802552787921
100
AcDbArc
 50
180.7907980284
 51
254.8196778451
  0
LINE
  5
AF
330
1F
100
AcDbEntity
  8
0
  6
Continuous
 62
     7
370
    15
100
AcDbLine
 10
466.0948112636
 20
275.8621434125
 30
0.0
 11
466.0948112636
 21
273.474883512
 31
0.0
  0
LWPOLYLINE
  5
B0
330
1F
100
AcDbEntity
  8
0
  6
Continuous
 62
     7
370
    15
100
AcDbPolyline
 90
        3
 70
   128
 43
0.0
 10
466.1102078884
 20
275.9669000658
 10
466.1014676123
 20
275.9322727475
 10
466.0948112636
 20
275.8621434125
  0
LINE
  5
B1
330
1F
100
AcDbEntity
  8
0
  6
Continuous
 62
     7
370
    15
100
AcDbLine
 10
467.8268618911
 20
273.537802175
 30
0.0
 11
467.8268618911
 21
275.3781760487
 31
0.0
  0
ARC
  5
B2
330
1F
100
AcDbEntity
  8
0
  6
Continuous
 62
     7
370
    15
100
AcDbCircle
 10
468.4154869323
 20
273.5474354349
 30
0.0
 40
0.5887038634365889
100
AcDbArc
 50
180.9376017463
 51
254.6729194072
  0
LINE
  5
B3
330
1F
100
AcDbEntity
  8
0
  6
Continuous
 62
     7
370
    15
100
AcDbLine
 10
468.4330806165
 20
272.9400540146
 30
0.0
 11
468.2598754793
 21
272.9796702418
 31
0.0
  0
ARC
  5
B4
330
1F
100
AcDbEntity
  8
0
  6
Continuous
 62
     7
370
    15
100
AcDbCircle
 10
468.5200922991
 20
273.2758138196
 30
0.0
 40
0.3468510912698991
100
AcDbArc
 50
255.4714861991
 51
4.0153841579
  0
LINE
  5
B5
330
1F
100
AcDbEntity
  8
0
  6
Continuous
 62
     7
370
    15
100
AcDbLine
 10
468.8660919696
 20
273.6687699708
 30
0.0
 11
468.8660919696
 21
273.3001018318
 31
0.0
  0
LINE
  5
B6
330
1F
100
AcDbEntity
  8
0
  6
Continuous
 62
     7
370
    15
100
AcDbLine
 10
462.9527799814
 20
297.0018853809
 30
0.0
 11
462.9527799814
 21
296.4702945578
 31
0.0
  0
ARC
  5
B7
330
1F
100
AcDbEntity
  8
0
  6
Continuous
 62
     7
370
    15
100
AcDbCircle
 10
467.7713949204
 20
273.0475315196
 30
0.0
 40
2.346807400868679
100
AcDbArc
 50
180.7908922224
 51
254.8196075243
  0
LINE
  5
B8
330
1F
100
AcDbEntity
  8
0
  6
Continuous
 62
     7
370
    15
100
AcDbLine
 10
465.4248110979
 20
275.4023993763
 30
0.0
 11
465.4248110979
 21
273.0151379856
 31
0.0
  0
LINE
  5
B9
330
1F
100
AcDbEntity
  8
0
  6
Continuous
 62
     7
370
    15
100
AcDbLine
 10
467.1568624705
 20
270.782613233
 30
0.0
 11
468.1960925489
 21
270.5449128899
 31
0.0
  0
ARC
  5
BA
330
1F
100
AcDbEntity
  8
0
  6
Continuous
 62
     7
370
    15
100
AcDbCircle
 10
468.5519876808
 20
271.9069237645
 30
0.0
 40
1.407741086830399
100
AcDbArc
 50
255.3559711724
 51
303.4368523025
  0
ARC
  5
BB
330
1F
100
AcDbEntity
  8
0
  6
Continuous
 62
     7
370
    15
100
AcDbCircle
 10
465.7201781959
 20
275.4149142368
 30
0.0
 40
0.2956321097442923
100
AcDbArc
 50
126.3614228145
 51
182.4262013385
  0
LINE
  5
BC
330
1F
100
AcDbEntity
  8
0
  6
Continuous
 62
     7
370
    15
100
AcDbLine
 10
468.1960925489
 20
273.1696660075
 30
0.0
 11
468.1960925489
 21
272.999268249
 31
0.0
  0
LINE
  5
BD
330
1F
100
AcDbEntity
  8
0
  6
Continuous
 62
     7
370
    15
100
AcDbLine
 10
452.6091551438
 20
303.1639257821
 30
0.0
 11
452.6091551438
 21
298.3025249353
 31
0.0
  0
ARC
  5
BE
330
1F
100
AcDbEntity
  8
0
  6
Continuous
 62
     7
370
    15
100
AcDbCircle
 10
451.1663635943
 20
298.2296230863
 30
0.0
 40
1.444632179781891
100
AcDbArc
 50
298.1353509452
 51
2.8926000771
  0
LINE
  5
BF
330
1F
100
AcDbEntity
  8
0
  6
Continuous
 62
     7
370
    15
100
AcDbLine
 10
451.8475886464
 20
296.9556942958
 30
0.0
 11
447.457408908
 21
294.8111819479
 31
0.0
  0
ARC
  5
C0
330
1F
100
AcDbEntity
  8
0
  6
Continuous
 62
     7
370
    15
100
AcDbCircle
 10
448.1386336801
 20
293.5372534944
 30
0.0
 40
1.444631750547861
100
AcDbArc
 50
118.1353474573
 51
182.892629578
  0
LINE
  5
C1
330
1F
100
AcDbEntity
  8
0
  6
Continuous
 62
     7
370
    15
100
AcDbLine
 10
446.6958425968
 20
293.4643509242
 30
0.0
 11
446.6958425968
 21
278.3710653338
 31
0.0
  0
ARC
  5
C2
330
1F
100
AcDbEntity
  8
0
  6
Continuous
 62
     7
370
    15
100
AcDbCircle
 10
447.284465931
 20
278.3806968539
 30
0.0
 40
0.58870212819154
100
AcDbArc
 50
180.937435161
 51
254.6728950075
  0
LINE
  5
C3
330
1F
100
AcDbEntity
  8
0
  6
Continuous
 62
     7
370
    15
100
AcDbLine
 10
447.1288546949
 20
277.8129334006
 30
0.0
 11
447.3020598322
 21
277.7733171734
 31
0.0
  0
ARC
  5
C4
330
1F
100
AcDbEntity
  8
0
  6
Continuous
 62
     7
370
    15
100
AcDbCircle
 10
447.3890711058
 20
278.1090788016
 30
0.0
 40
0.3468527536147432
100
AcDbArc
 50
255.4716271353
 51
4.0148162134
  0
LINE
  5
C5
330
1F
100
AcDbEntity
  8
0
  6
Continuous
 62
     7
370
    15
100
AcDbLine
 10
447.7350726753
 20
278.1333635005
 30
0.0
 11
447.7350726753
 21
278.5564000162
 31
0.0
  0
LINE
  5
C6
330
1F
100
AcDbEntity
  8
0
  6
Continuous
 62
     7
370
    15
100
AcDbLine
 10
449.4671236753
 20
279.305642322
 30
0.0
 11
449.4671236753
 21
277.2781053933
 31
0.0
  0
ARC
  5
C7
330
1F
100
AcDbEntity
  8
0
  6
Continuous
 62
     7
370
    15
100
AcDbCircle
 10
448.0780093295
 20
277.1871085525
 30
0.0
 40
1.392091624453559
100
AcDbArc
 50
255.738588755
 51
3.747924997
  0
LINE
  5
C8
330
1F
100
AcDbEntity
  8
0
  6
Continuous
 62
     7
370
    15
100
AcDbLine
 10
447.7350726753
 20
275.8379185948
 30
0.0
 11
446.6958425968
 21
276.075620428
 31
0.0
  0
ARC
  5
C9
330
1F
100
AcDbEntity
  8
0
  6
Continuous
 62
     7
370
    15
100
AcDbCircle
 10
447.310372334
 20
278.3405366099
 30
0.0
 40
2.346804659305703
100
AcDbArc
 50
180.790841758
 51
254.8196579886
  0
LINE
  5
CA
330
1F
100
AcDbEntity
  8
0
  6
Continuous
 62
     7
370
    15
100
AcDbLine
 10
444.9637912243
 20
278.3081451806
 30
0.0
 11
444.9637912243
 21
294.8353412005
 31
0.0
  0
ARC
  5
CB
330
1F
100
AcDbEntity
  8
0
  6
Continuous
 62
     7
370
    15
100
AcDbCircle
 10
446.406584549
 20
294.9082419503
 30
0.0
 40
1.444633897224206
100
AcDbArc
 50
118.1353692283
 51
182.8925529835
  0
LINE
  5
CC
330
1F
100
AcDbEntity
  8
0
  6
Continuous
 62
     7
370
    15
100
AcDbLine
 10
445.7253582805
 20
296.182172038
 30
0.0
 11
450.1155380189
 21
298.3266844557
 31
0.0
  0
ARC
  5
CD
330
1F
100
AcDbEntity
  8
0
  6
Continuous
 62
     7
370
    15
100
AcDbCircle
 10
449.4343133049
 20
299.6006128574
 30
0.0
 40
1.444631677485641
100
AcDbArc
 50
298.1353463927
 51
2.8926179111
  0
LINE
  5
CE
330
1F
100
AcDbEntity
  8
0
  6
Continuous
 62
     7
370
    15
100
AcDbLine
 10
450.87710433
 20
299.6735151301
 30
0.0
 11
450.87710433
 21
304.7904530916
 31
0.0
  0
ARC
  5
CF
330
1F
100
AcDbEntity
  8
0
  6
Continuous
 62
     7
370
    15
100
AcDbCircle
 10
446.6403704903
 20
277.8807904888
 30
0.0
 40
2.346802207736979
100
AcDbArc
 50
180.790791677
 51
254.8196841965
  0
LINE
  5
D0
330
1F
100
AcDbEntity
  8
0
  6
Continuous
 62
     7
370
    15
100
AcDbLine
 10
444.2937918037
 20
277.8484011444
 30
0.0
 11
444.2937918037
 21
294.3755971643
 31
0.0
  0
LINE
  5
D1
330
1F
100
AcDbEntity
  8
0
  6
Continuous
 62
     7
370
    15
100
AcDbLine
 10
447.0650725096
 20
275.3781760487
 30
0.0
 11
446.0258424311
 21
275.6158763918
 31
0.0
  0
ARC
  5
D2
330
1F
100
AcDbEntity
  8
0
  6
Continuous
 62
     7
370
    15
100
AcDbCircle
 10
447.4189352164
 20
276.7524780269
 30
0.0
 40
1.419128162870336
100
AcDbArc
 50
255.5608189038
 51
303.2318576946
  0
LINE
  5
D3
330
1F
100
AcDbEntity
  8
0
  6
Continuous
 62
     7
370
    15
100
AcDbLine
 10
447.0650725096
 20
277.8325299177
 30
0.0
 11
447.0650725096
 21
278.1513164195
 31
0.0
  0
ARC
  5
D4
330
1F
100
AcDbEntity
  8
0
  6
Continuous
 62
     7
370
    15
100
AcDbCircle
 10
445.7606441116
 20
294.4429573009
 30
0.0
 40
1.468398134496653
100
AcDbArc
 50
126.1585197073
 51
182.6292640501
  0
LINE
  5
D5
330
1F
100
AcDbEntity
  8
0
  6
Continuous
 62
     7
370
    15
100
AcDbLine
 10
451.1775888532
 20
296.4959502596
 30
0.0
 11
447.0269344776
 21
294.4684414569
 31
0.0
  0
ARC
  5
D6
330
1F
100
AcDbEntity
  8
0
  6
Continuous
 62
     7
370
    15
100
AcDbCircle
 10
448.6436055662
 20
299.1726924076
 30
0.0
 40
1.564038521723219
100
AcDbArc
 50
321.9956667013
 51
1.5050213551
  0
LINE
  5
D7
330
1F
100
AcDbEntity
  8
0
  6
Continuous
 62
     7
370
    15
100
AcDbLine
 10
451.3386890322
 20
296.5898545834
 30
0.0
 11
451.1775888532
 21
296.4959502596
 31
0.0
  0
LINE
  5
D8
330
1F
100
AcDbEntity
  8
0
  6
Continuous
 62
     7
370
    15
100
AcDbLine
 10
450.2071045368
 20
304.3307090554
 30
0.0
 11
450.87710433
 21
304.7904530916
 31
0.0
  0
LINE
  5
D9
330
1F
100
AcDbEntity
  8
0
  6
Continuous
 62
     7
370
    15
100
AcDbLine
 10
450.2071045368
 20
299.2137711871
 30
0.0
 11
450.2071045368
 21
304.3307090554
 31
0.0
  0
LINE
  5
DA
330
1F
100
AcDbEntity
  8
0
  6
Continuous
 62
     7
370
    15
100
AcDbLine
 10
456.7759674072
 20
278.3812309059
 30
0.0
 11
456.7759674072
 21
281.0099238905
 31
0.0
  0
LINE
  5
DB
330
1F
100
AcDbEntity
  8
0
  6
Continuous
 62
     7
370
    15
100
AcDbLine
 10
458.1159673661
 20
278.3812309059
 30
0.0
 11
458.1159673661
 21
281.0099238905
 31
0.0
  0
LINE
  5
DC
330
1F
100
AcDbEntity
  8
0
  6
Continuous
 62
     7
370
    15
100
AcDbLine
 10
456.7759674072
 20
281.0099238905
 30
0.0
 11
456.7759674072
 21
297.5371205623
 31
0.0
  0
LINE
  5
DD
330
1F
100
AcDbEntity
  8
0
  6
Continuous
 62
     7
370
    15
100
AcDbLine
 10
458.1159673661
 20
281.0099238905
 30
0.0
 11
458.1159673661
 21
297.5371205623
 31
0.0
  0
LINE
  5
DE
330
1F
100
AcDbEntity
  8
0
  6
Continuous
 62
     7
370
    15
100
AcDbLine
 10
456.7759674072
 20
277.9058287296
 30
0.0
 11
456.7759674072
 21
278.3812309059
 31
0.0
  0
LINE
  5
DF
330
1F
100
AcDbEntity
  8
0
  6
Continuous
 62
     7
370
    15
100
AcDbLine
 10
458.1159673661
 20
277.9058287296
 30
0.0
 11
458.1159673661
 21
278.3812309059
 31
0.0
  0
LINE
  5
E0
330
1F
100
AcDbEntity
  8
0
  6
Continuous
 62
     7
370
    15
100
AcDbLine
 10
456.7759674072
 20
277.7421826872
 30
0.0
 11
456.7759674072
 21
277.9058287296
 31
0.0
  0
LINE
  5
E1
330
1F
100
AcDbEntity
  8
0
  6
Continuous
 62
     7
370
    15
100
AcDbLine
 10
458.1159673661
 20
277.7421826872
 30
0.0
 11
458.1159673661
 21
277.9058287296
 31
0.0
  0
LINE
  5
E2
330
1F
100
AcDbEntity
  8
0
  6
Continuous
 62
     7
370
    15
100
AcDbLine
 10
456.7759674072
 20
297.5371205623
 30
0.0
 11
456.7759674072
 21
298.7097593866
 31
0.0
  0
LINE
  5
E3
330
1F
100
AcDbEntity
  8
0
  6
Continuous
 62
     7
370
    15
100
AcDbLine
 10
458.1159673661
 20
297.5371205623
 30
0.0
 11
458.1159673661
 21
298.7097593866
 31
0.0
  0
LINE
  5
E4
330
1F
100
AcDbEntity
  8
0
  6
Continuous
 62
     7
370
    15
100
AcDbLine
 10
456.7759674072
 20
298.7097593866
 30
0.0
 11
456.7759674072
 21
299.8501133549
 31
0.0
  0
LINE
  5
E5
330
1F
100
AcDbEntity
  8
0
  6
Continuous
 62
     7
370
    15
100
AcDbLine
 10
458.1159673661
 20
298.7097593866
 30
0.0
 11
458.1159673661
 21
299.8501133549
 31
0.0
  0
LINE
  5
E6
330
1F
100
AcDbEntity
  8
0
  6
Continuous
 62
     7
370
    15
100
AcDbLine
 10
456.7759674072
 20
299.8501133549
 30
0.0
 11
456.7759674072
 21
301.0227522257
 31
0.0
  0
LINE
  5
E7
330
1F
100
AcDbEntity
  8
0
  6
Continuous
 62
     7
370
    15
100
AcDbLine
 10
458.1159673661
 20
299.8501133549
 30
0.0
 11
458.1159673661
 21
301.0227522257
 31
0.0
  0
LINE
  5
E8
330
1F
100
AcDbEntity
  8
0
  6
Continuous
 62
     7
370
    15
100
AcDbLine
 10
456.7759674072
 20
306.1396899077
 30
0.0
 11
458.1159673661
 21
306.1396899077
 31
0.0
  0
LINE
  5
E9
330
1F
100
AcDbEntity
  8
0
  6
Continuous
 62
     7
370
    15
100
AcDbLine
 10
456.7759674072
 20
301.0227522257
 30
0.0
 11
456.7759674072
 21
306.1396899077
 31
0.0
  0
LINE
  5
EA
330
1F
100
AcDbEntity
  8
0
  6
Continuous
 62
     7
370
    15
100
AcDbLine
 10
458.1159673661
 20
301.0227522257
 30
0.0
 11
458.1159673661
 21
306.1396899077
 31
0.0
  0
LINE
  5
EB
330
1F
100
AcDbEntity
  8
0
  6
Continuous
 62
     7
370
    15
100
AcDbLine
 10
451.9391551643
 20
297.0018853809
 30
0.0
 11
451.9391551643
 21
296.4702945578
 31
0.0
  0
LINE
  5
EC
330
1F
100
AcDbEntity
  8
0
  6
Continuous
 62
     7
370
    15
100
AcDbLine
 10
446.0258424311
 20
273.6681262407
 30
0.0
 11
446.0258424311
 21
273.3001018318
 31
0.0
  0
ARC
  5
ED
330
1F
100
AcDbEntity
  8
0
  6
Continuous
 62
     7
370
    15
100
AcDbCircle
 10
446.3718433387
 20
273.2758149472
 30
0.0
 40
0.3468522463407663
100
AcDbArc
 50
175.9848159683
 51
284.5285075356
  0
LINE
  5
EE
330
1F
100
AcDbEntity
  8
0
  6
Continuous
 62
     7
370
    15
100
AcDbLine
 10
446.4588552743
 20
272.9400540146
 30
0.0
 11
446.6320604115
 21
272.9796702418
 31
0.0
  0
ARC
  5
EF
330
1F
100
AcDbEntity
  8
0
  6
Continuous
 62
     7
370
    15
100
AcDbCircle
 10
446.4764482882
 20
273.5474343834
 30
0.0
 40
0.5887030265854345
100
AcDbArc
 50
285.3271705647
 51
359.0624992667
  0
LINE
  5
F0
330
1F
100
AcDbEntity
  8
0
  6
Continuous
 62
     7
370
    15
100
AcDbLine
 10
447.0650725096
 20
273.537802175
 30
0.0
 11
447.0650725096
 21
275.3781760487
 31
0.0
  0
LWPOLYLINE
  5
F1
330
1F
100
AcDbEntity
  8
0
  6
Continuous
 62
     7
370
    15
100
AcDbPolyline
 90
        3
 70
   128
 43
0.0
 10
448.7817265123
 20
275.9669000658
 10
448.7904675334
 20
275.9322727475
 10
448.7971238821
 20
275.8621434125
  0
LINE
  5
F2
330
1F
100
AcDbEntity
  8
0
  6
Continuous
 62
     7
370
    15
100
AcDbLine
 10
448.7971238821
 20
275.8621434125
 30
0.0
 11
448.7971238821
 21
273.474883512
 31
0.0
  0
ARC
  5
F3
330
1F
100
AcDbEntity
  8
0
  6
Continuous
 62
     7
370
    15
100
AcDbCircle
 10
446.4505454852
 20
273.5072728366
 30
0.0
 40
2.3468019177597
100
AcDbArc
 50
285.1802915472
 51
359.2092087062
  0
LINE
  5
F4
330
1F
100
AcDbEntity
  8
0
  6
Continuous
 62
     7
370
    15
100
AcDbLine
 10
447.0650725096
 20
271.2423587593
 30
0.0
 11
446.0258424311
 21
271.004655436
 31
0.0
  0
ARC
  5
F5
330
1F
100
AcDbEntity
  8
0
  6
Continuous
 62
     7
370
    15
100
AcDbCircle
 10
445.6829058976
 20
272.3538452736
 30
0.0
 40
1.392091478348476
100
AcDbArc
 50
176.2520081942
 51
284.2614076508
  0
LINE
  5
F6
330
1F
100
AcDbEntity
  8
0
  6
Continuous
 62
     7
370
    15
100
AcDbLine
 10
444.2937918037
 20
272.4448437247
 30
0.0
 11
444.2937918037
 21
277.8484011444
 31
0.0
  0
ARC
  5
F7
330
1F
100
AcDbEntity
  8
0
  6
Continuous
 62
     7
370
    15
100
AcDbCircle
 10
447.8223215479
 20
296.5886914376
 30
0.0
 40
2.392829784380761
100
AcDbArc
 50
333.6507439088
 51
345.4720858696
  0
ARC
  5
F8
330
1F
100
AcDbEntity
  8
0
  6
Continuous
 62
     7
370
    15
100
AcDbCircle
 10
447.1205403026
 20
273.0475310681
 30
0.0
 40
2.346806944909597
100
AcDbArc
 50
285.1803935422
 51
359.2091186478
  0
LINE
  5
F9
330
1F
100
AcDbEntity
  8
0
  6
Continuous
 62
     7
370
    15
100
AcDbLine
 10
449.4671236753
 20
275.4023993763
 30
0.0
 11
449.4671236753
 21
273.0151379856
 31
0.0
  0
LINE
  5
FA
330
1F
100
AcDbEntity
  8
0
  6
Continuous
 62
     7
370
    15
100
AcDbLine
 10
447.7350726753
 20
270.782613233
 30
0.0
 11
446.6958425968
 21
270.5449128899
 31
0.0
  0
ARC
  5
FB
330
1F
100
AcDbEntity
  8
0
  6
Continuous
 62
     7
370
    15
100
AcDbCircle
 10
446.3399473413
 20
271.9069230173
 30
0.0
 40
1.407740395090836
100
AcDbArc
 50
236.5631351386
 51
284.6440413865
  0
ARC
  5
FC
330
1F
100
AcDbEntity
  8
0
  6
Continuous
 62
     7
370
    15
100
AcDbCircle
 10
449.1717544471
 20
275.4149134764
 30
0.0
 40
0.2956342058284752
100
AcDbArc
 50
357.5739633614
 51
53.6382739492
  0
LINE
  5
FD
330
1F
100
AcDbEntity
  8
0
  6
Continuous
 62
     7
370
    15
100
AcDbLine
 10
446.6958425968
 20
273.1684053692
 30
0.0
 11
446.6958425968
 21
272.999268249
 31
0.0
  0
LINE
  5
FE
330
1F
100
AcDbEntity
  8
0
  6
Continuous
 62
     7
370
    15
100
AcDbLine
 10
464.0148304432
 20
299.6735151301
 30
0.0
 11
464.0148304432
 21
304.7904530916
 31
0.0
  0
ARC
  5
FF
330
1F
100
AcDbEntity
  8
0
  6
Continuous
 62
     7
370
    15
100
AcDbCircle
 10
465.4576224004
 20
299.6006133844
 30
0.0
 40
1.444632581790796
100
AcDbArc
 50
177.1074048312
 51
241.864630865
  0
LINE
  5
100
330
1F
100
AcDbEntity
  8
0
  6
Continuous
 62
     7
370
    15
100
AcDbLine
 10
469.1665768653
 20
296.182172038
 30
0.0
 11
464.7763967543
 21
298.3266844557
 31
0.0
  0
ARC
  5
101
330
1F
100
AcDbEntity
  8
0
  6
Continuous
 62
     7
370
    15
100
AcDbCircle
 10
468.4853487326
 20
294.9082408962
 30
0.0
 40
1.444635705842738
100
AcDbArc
 50
357.1074925012
 51
61.864585287
  0
LINE
  5
102
330
1F
100
AcDbEntity
  8
0
  6
Continuous
 62
     7
370
    15
100
AcDbLine
 10
469.9281439214
 20
278.3081451806
 30
0.0
 11
469.9281439214
 21
294.8353412005
 31
0.0
  0
ARC
  5
103
330
1F
100
AcDbEntity
  8
0
  6
Continuous
 62
     7
370
    15
100
AcDbCircle
 10
467.5815620267
 20
278.340537219
 30
0.0
 40
2.346805452732625
100
AcDbArc
 50
285.1803566161
 51
359.2091436372
  0
LINE
  5
104
330
1F
100
AcDbEntity
  8
0
  6
Continuous
 62
     7
370
    15
100
AcDbLine
 10
467.1568624705
 20
275.8379185948
 30
0.0
 11
468.1960925489
 21
276.075620428
 31
0.0
  0
ARC
  5
105
330
1F
100
AcDbEntity
  8
0
  6
Continuous
 62
     7
370
    15
100
AcDbCircle
 10
466.8139257449
 20
277.187108826
 30
0.0
 40
1.392091907097389
100
AcDbArc
 50
176.2520870456
 51
284.2614113187
  0
LINE
  5
106
330
1F
100
AcDbEntity
  8
0
  6
Continuous
 62
     7
370
    15
100
AcDbLine
 10
465.4248110979
 20
279.3047557029
 30
0.0
 11
465.4248110979
 21
277.2781053933
 31
0.0
  0
LINE
  5
107
330
1F
100
AcDbEntity
  8
0
  6
Continuous
 62
     7
370
    15
100
AcDbLine
 10
467.1568624705
 20
278.1333635005
 30
0.0
 11
467.1568624705
 21
278.5573551807
 31
0.0
  0
ARC
  5
108
330
1F
100
AcDbEntity
  8
0
  6
Continuous
 62
     7
370
    15
100
AcDbCircle
 10
467.5028629581
 20
278.1090776805
 30
0.0
 40
0.3468517528699303
100
AcDbArc
 50
175.9849865372
 51
284.5284731838
  0
LINE
  5
109
330
1F
100
AcDbEntity
  8
0
  6
Continuous
 62
     7
370
    15
100
AcDbLine
 10
467.7630797058
 20
277.8129334006
 30
0.0
 11
467.5898745685
 21
277.7733171734
 31
0.0
  0
ARC
  5
10A
330
1F
100
AcDbEntity
  8
0
  6
Continuous
 62
     7
370
    15
100
AcDbCircle
 10
467.6074677416
 20
278.3806982045
 30
0.0
 40
0.5887036231725968
100
AcDbArc
 50
285.3271385824
 51
359.0624357565
  0
LINE
  5
10B
330
1F
100
AcDbEntity
  8
0
  6
Continuous
 62
     7
370
    15
100
AcDbLine
 10
468.1960925489
 20
293.4643509242
 30
0.0
 11
468.1960925489
 21
278.3710653338
 31
0.0
  0
ARC
  5
10C
330
1F
100
AcDbEntity
  8
0
  6
Continuous
 62
     7
370
    15
100
AcDbCircle
 10
466.7533002785
 20
293.5372528232
 30
0.0
 40
1.444632902311441
100
AcDbArc
 50
357.1073993877
 51
61.864623577
  0
LINE
  5
10D
330
1F
100
AcDbEntity
  8
0
  6
Continuous
 62
     7
370
    15
100
AcDbLine
 10
463.0443461269
 20
296.9556942958
 30
0.0
 11
467.4345262378
 21
294.8111819479
 31
0.0
  0
ARC
  5
10E
330
1F
100
AcDbEntity
  8
0
  6
Continuous
 62
     7
370
    15
100
AcDbCircle
 10
463.7255715734
 20
298.2296231097
 30
0.0
 40
1.444632386487681
100
AcDbArc
 50
177.10740127
 51
241.8646356994
  0
LINE
  5
10F
330
1F
100
AcDbEntity
  8
0
  6
Continuous
 62
     7
370
    15
100
AcDbLine
 10
462.2827798157
 20
303.1639257821
 30
0.0
 11
462.2827798157
 21
298.3025249353
 31
0.0
  0
ARC
  5
110
330
1F
100
AcDbEntity
  8
0
  6
Continuous
 62
     7
370
    15
100
AcDbCircle
 10
468.2515630175
 20
277.8807919646
 30
0.0
 40
2.346803865880851
100
AcDbArc
 50
285.1803274067
 51
359.2091728467
  0
LINE
  5
111
330
1F
100
AcDbEntity
  8
0
  6
Continuous
 62
     7
370
    15
100
AcDbLine
 10
470.5981433421
 20
277.8484011444
 30
0.0
 11
470.5981433421
 21
294.3755971643
 31
0.0
  0
LINE
  5
112
330
1F
100
AcDbEntity
  8
0
  6
Continuous
 62
     7
370
    15
100
AcDbLine
 10
467.8268618911
 20
275.3781760487
 30
0.0
 11
468.8660919696
 21
275.6158763918
 31
0.0
  0
ARC
  5
113
330
1F
100
AcDbEntity
  8
0
  6
Continuous
 62
     7
370
    15
100
AcDbCircle
 10
467.4729994754
 20
276.7524766921
 30
0.0
 40
1.419126797625107
100
AcDbArc
 50
236.7681280995
 51
284.4391831493
  0
LINE
  5
114
330
1F
100
AcDbEntity
  8
0
  6
Continuous
 62
     7
370
    15
100
AcDbLine
 10
467.8268618911
 20
277.8325299177
 30
0.0
 11
467.8268618911
 21
278.15170683
 31
0.0
  0
ARC
  5
115
330
1F
100
AcDbEntity
  8
0
  6
Continuous
 62
     7
370
    15
100
AcDbCircle
 10
469.1312868719
 20
294.4429553062
 30
0.0
 40
1.468402200851392
100
AcDbArc
 50
357.3708211518
 51
53.8413950908
  0
LINE
  5
116
330
1F
100
AcDbEntity
  8
0
  6
Continuous
 62
     7
370
    15
100
AcDbLine
 10
463.7143462926
 20
296.4959502596
 30
0.0
 11
467.8649999231
 21
294.4684414569
 31
0.0
  0
ARC
  5
117
330
1F
100
AcDbEntity
  8
0
  6
Continuous
 62
     7
370
    15
100
AcDbCircle
 10
466.2482975899
 20
299.1726818592
 30
0.0
 40
1.564006820118686
100
AcDbArc
 50
178.494561568
 51
218.0047503756
  0
LINE
  5
118
330
1F
100
AcDbEntity
  8
0
  6
Continuous
 62
     7
370
    15
100
AcDbLine
 10
463.5532461136
 20
296.5898545834
 30
0.0
 11
463.7143462926
 21
296.4959502596
 31
0.0
  0
LINE
  5
119
330
1F
100
AcDbEntity
  8
0
  6
Continuous
 62
     7
370
    15
100
AcDbLine
 10
464.0148304432
 20
304.7904530916
 30
0.0
 11
464.6848306089
 21
304.3307090554
 31
0.0
  0
LINE
  5
11A
330
1F
100
AcDbEntity
  8
0
  6
Continuous
 62
     7
370
    15
100
AcDbLine
 10
464.6848306089
 20
299.2137711871
 30
0.0
 11
464.6848306089
 21
304.3307090554
 31
0.0
  0
LINE
  5
11B
330
1F
100
AcDbEntity
  8
0
  6
Continuous
 62
     7
370
    15
100
AcDbLine
 10
464.0148304432
 20
303.5600951317
 30
0.0
 11
464.0148304432
 21
304.7904530916
 31
0.0
  0
LWPOLYLINE
  5
11C
330
1F
100
AcDbEntity
  8
0
  6
Continuous
 62
     7
370
    15
100
AcDbPolyline
 90
       12
 70
   128
 43
0.0
 10
464.0148304432
 20
303.5600951317
 10
463.6291466683
 20
303.7621667984
 10
463.2039554446
 20
303.9513891938
 10
462.7419754892
 20
304.1265530887
 10
462.2461572319
 20
304.2865397784
 10
461.7196686595
 20
304.4303266707
 10
461.1658740818
 20
304.556995109
 10
460.588312152
 20
304.6657359603
 10
459.9906723976
 20
304.7558540854
 10
459.3767736136
 20
304.8267739269
 10
458.7505381584
 20
304.8780428621
 10
458.1159673661
 20
304.9093323204
  0
LINE
  5
11D
330
1F
100
AcDbEntity
  8
0
  6
Continuous
 62
     7
370
    15
100
AcDbLine
 10
458.1159673661
 20
304.9093323204
 30
0.0
 11
458.1159673661
 21
306.1396899077
 31
0.0
  0
LWPOLYLINE
  5
11E
330
1F
100
AcDbEntity
  8
0
  6
Continuous
 62
     7
370
    15
100
AcDbPolyline
 90
       12
 70
   128
 43
0.0
 10
464.0148304432
 20
304.7904530916
 10
463.6291466683
 20
304.9925247583
 10
463.2039554446
 20
305.1817471537
 10
462.7419754892
 20
305.3569110486
 10
462.2461572319
 20
305.5168973657
 10
461.7196686595
 20
305.6606846306
 10
461.1658740818
 20
305.7873534414
 10
460.588312152
 20
305.8960939202
 10
459.9906723976
 20
305.9862124178
 10
459.3767736136
 20
306.0571322593
 10
458.7505381584
 20
306.1084004495
 10
458.1159673661
 20
306.1396899077
  0
LWPOLYLINE
  5
11F
330
1F
100
AcDbEntity
  8
0
  6
Continuous
 62
     7
370
    15
100
AcDbPolyline
 90
       12
 70
   128
 43
0.0
 10
464.6848306089
 20
300.4018769044
 10
464.9337172538
 20
300.6352380294
 10
465.1347614854
 20
300.8757289875
 10
465.2866803139
 20
301.1218129101
 10
465.3885014385
 20
301.3719179112
 10
465.4395759135
 20
301.6244454685
 10
465.4395759135
 20
301.8777823451
 10
465.3885014385
 20
302.1303100887
 10
465.2866803139
 20
302.3804149035
 10
465.1347614854
 20
302.6264990124
 10
464.9337172538
 20
302.8669899705
 10
464.6848306089
 20
303.1003510955
  0
LWPOLYLINE
  5
120
330
1F
100
AcDbEntity
  8
0
  6
Continuous
 62
     7
370
    15
100
AcDbPolyline
 90
       12
 70
   128
 43
0.0
 10
450.2071045368
 20
303.1003510955
 10
449.958217892
 20
302.8669899705
 10
449.7571732878
 20
302.6264990124
 10
449.6052548319
 20
302.3804149035
 10
449.5034333348
 20
302.1303100887
 10
449.4523592323
 20
301.8777823451
 10
449.4523592323
 20
301.6244454685
 10
449.5034333348
 20
301.3719179112
 10
449.6052548319
 20
301.1218129101
 10
449.7571732878
 20
300.8757289875
 10
449.958217892
 20
300.6352380294
 10
450.2071045368
 20
300.4018769044
  0
LINE
  5
121
330
1F
100
AcDbEntity
  8
0
  6
Continuous
 62
     7
370
    15
100
AcDbLine
 10
450.87710433
 20
303.5600951317
 30
0.0
 11
452.6091551438
 21
303.1639257821
 31
0.0
  0
LWPOLYLINE
  5
122
330
1F
100
AcDbEntity
  8
0
  6
Continuous
 62
     7
370
    15
100
AcDbPolyline
 90
       12
 70
   128
 43
0.0
 10
456.7759674072
 20
304.9093323204
 10
456.1413967546
 20
304.8780428621
 10
455.5151614332
 20
304.8267739269
 10
454.9012627016
 20
304.7558540854
 10
454.3036229006
 20
304.6657359603
 10
453.7260606914
 20
304.556995109
 10
453.1722661137
 20
304.4303266707
 10
452.6457777276
 20
304.2865397784
 10
452.149959284
 20
304.1265530887
 10
451.6879789561
 20
303.9513891938
 10
451.2627884775
 20
303.7621667984
 10
450.87710433
 20
303.5600951317
  0
LINE
  5
123
330
1F
100
AcDbEntity
  8
0
  6
Continuous
 62
     7
370
    15
100
AcDbLine
 10
462.2827798157
 20
303.1639257821
 30
0.0
 11
464.0148304432
 21
303.5600951317
 31
0.0
  0
LINE
  5
124
330
1F
100
AcDbEntity
  8
0
  6
Continuous
 62
     7
370
    15
100
AcDbLine
 10
456.7759674072
 20
304.9093323204
 30
0.0
 11
456.7759674072
 21
306.1396899077
 31
0.0
  0
LINE
  5
125
330
1F
100
AcDbEntity
  8
0
  6
Continuous
 62
     7
370
    15
100
AcDbLine
 10
450.87710433
 20
303.5600951317
 30
0.0
 11
450.87710433
 21
304.7904530916
 31
0.0
  0
LWPOLYLINE
  5
126
330
1F
100
AcDbEntity
  8
0
  6
Continuous
 62
     7
370
    15
100
AcDbPolyline
 90
       12
 70
   128
 43
0.0
 10
456.7759674072
 20
306.1396899077
 10
456.1413967546
 20
306.1084004495
 10
455.5151614332
 20
306.0571322593
 10
454.9012627016
 20
305.9862124178
 10
454.3036229006
 20
305.8960939202
 10
453.7260606914
 20
305.7873534414
 10
453.1722661137
 20
305.6606846306
 10
452.6457777276
 20
305.5168973657
 10
452.149959284
 20
305.3569110486
 10
451.6879789561
 20
305.1817471537
 10
451.2627884775
 20
304.9925247583
 10
450.87710433
 20
304.7904530916
  0
LINE
  5
127
330
1F
100
AcDbEntity
  8
0
  6
Continuous
 62
     7
370
    15
100
AcDbLine
 10
464.6848306089
 20
303.1003510955
 30
0.0
 11
464.6848306089
 21
304.3307090554
 31
0.0
  0
ARC
  5
128
330
1F
100
AcDbEntity
  8
0
  6
Continuous
 62
     7
370
    15
100
AcDbCircle
 10
463.6374946368
 20
302.8505751517
 30
0.0
 40
1.81320407324305
100
AcDbArc
 50
4.139831253
 51
54.7169499645
  0
LINE
  5
129
330
1F
100
AcDbEntity
  8
0
  6
Continuous
 62
     7
370
    15
100
AcDbLine
 10
450.2071045368
 20
303.1003510955
 30
0.0
 11
450.2071045368
 21
304.3307090554
 31
0.0
  0
ARC
  5
12A
330
1F
100
AcDbEntity
  8
0
  6
Continuous
 62
     7
370
    15
100
AcDbCircle
 10
451.254440509
 20
302.8505751517
 30
0.0
 40
1.813204073242949
100
AcDbArc
 50
125.2830500355
 51
175.860168747
  0
LINE
  5
12B
330
1F
100
AcDbEntity
  8
0
  6
Continuous
 62
     7
370
    15
100
AcDbLine
 10
448.8023601502
 20
294.9695228043
 30
0.0
 11
448.7456657022
 21
294.9426168951
 31
0.0
  0
LINE
  5
12C
330
1F
100
AcDbEntity
  8
0
  6
Continuous
 62
     7
370
    15
100
AcDbLine
 10
466.1462694436
 20
294.9426168951
 30
0.0
 11
465.9820146888
 21
295.0194167349
 31
0.0
  0
LINE
  5
12D
330
1F
100
AcDbEntity
  8
0
  6
Continuous
 62
     7
370
    15
100
AcDbLine
 10
444.4459676772
 20
581.5159133576
 30
0.0
 11
444.4459676772
 21
580.1759133987
 31
0.0
  0
LINE
  5
12E
330
1F
100
AcDbEntity
  8
0
  6
Continuous
 62
     7
370
    15
100
AcDbLine
 10
470.4459667235
 20
580.1759133987
 30
0.0
 11
470.4459667235
 21
581.5159133576
 31
0.0
  0
LINE
  5
12F
330
1F
100
AcDbEntity
  8
0
  6
Continuous
 62
     7
370
    15
100
AcDbLine
 10
449.4459673792
 20
560.9029627346
 30
0.0
 11
449.4459673792
 21
560.372095456
 31
0.0
  0
LINE
  5
130
330
1F
100
AcDbEntity
  8
0
  6
Continuous
 62
     7
370
    15
100
AcDbLine
 10
465.4459677666
 20
560.372095456
 30
0.0
 11
465.4459677666
 21
560.9029627346
 31
0.0
  0
LINE
  5
131
330
1F
100
AcDbEntity
  8
0
  6
Continuous
 62
     7
370
    15
100
AcDbLine
 10
457.8798903182
 20
560.0757307314
 30
0.0
 11
457.0120446413
 21
560.0757307314
 31
0.0
  0
LINE
  5
132
330
1F
100
AcDbEntity
  8
0
  6
Continuous
 62
     7
370
    15
100
AcDbLine
 10
470.5591917067
 20
561.9013420247
 30
0.0
 11
469.889190796
 21
562.9668629669
 31
0.0
  0
LINE
  5
133
330
1F
100
AcDbEntity
  8
0
  6
Continuous
 62
     7
370
    15
100
AcDbLine
 10
444.332743439
 20
541.9539055728
 30
0.0
 11
445.0027436047
 21
540.8883831404
 31
0.0
  0
LINE
  5
134
330
1F
100
AcDbEntity
  8
0
  6
Continuous
 62
     7
370
    15
100
AcDbLine
 10
456.7759674072
 20
534.6094301842
 30
0.0
 11
458.1159673661
 21
534.6094301842
 31
0.0
  0
LINE
  5
135
330
1F
100
AcDbEntity
  8
0
  6
Continuous
 62
     7
370
    15
100
AcDbLine
 10
445.0027436047
 20
562.9668629669
 30
0.0
 11
444.332743439
 21
561.9013420247
 31
0.0
  0
LINE
  5
136
330
1F
100
AcDbEntity
  8
0
  6
Continuous
 62
     7
370
    15
100
AcDbLine
 10
469.889190796
 20
540.8883831404
 30
0.0
 11
470.5591917067
 21
541.9539055728
 31
0.0
  0
LINE
  5
137
330
1F
100
AcDbEntity
  8
0
  6
Continuous
 62
     7
370
    15
100
AcDbLine
 10
465.4459677666
 20
559.8412296675
 30
0.0
 11
465.4459677666
 21
560.372095456
 31
0.0
  0
LINE
  5
138
330
1F
100
AcDbEntity
  8
0
  6
Continuous
 62
     7
370
    15
100
AcDbLine
 10
449.4459673792
 20
560.372095456
 30
0.0
 11
449.4459673792
 21
559.8412296675
 31
0.0
  0
ARC
  5
139
330
1F
100
AcDbEntity
  8
0
  6
Continuous
 62
     7
370
    15
100
AcDbCircle
 10
459.0566703868
 20
555.1728871143
 30
0.0
 40
10.3837792924348
100
AcDbArc
 50
0.5831575515
 51
31.6564057262
  0
ARC
  5
13A
330
1F
100
AcDbEntity
  8
0
  6
Continuous
 62
     7
370
    15
100
AcDbCircle
 10
458.5508843749
 20
555.1253420472
 30
0.0
 40
10.81703084494896
100
AcDbArc
 50
42.8419290663
 51
55.7245326762
  0
ARC
  5
13B
330
1F
100
AcDbEntity
  8
0
  6
Continuous
 62
     7
370
    15
100
AcDbCircle
 10
455.8526464962
 20
555.73668328
 30
0.0
 40
10.04138417372985
100
AcDbArc
 50
124.0387826045
 51
137.8125027612
  0
ARC
  5
13C
330
1F
100
AcDbEntity
  8
0
  6
Continuous
 62
     7
370
    15
100
AcDbCircle
 10
455.8312566585
 20
555.175082071
 30
0.0
 40
10.38013509848957
100
AcDbArc
 50
148.3440630391
 51
180.4836182586
  0
LINE
  5
13D
330
1F
100
AcDbEntity
  8
0
  6
Continuous
 62
     7
370
    15
100
AcDbLine
 10
469.4459676772
 20
550.6193301581
 30
0.0
 11
469.4459676772
 21
555.1468810938
 31
0.0
  0
LINE
  5
13E
330
1F
100
AcDbEntity
  8
0
  6
Continuous
 62
     7
370
    15
100
AcDbLine
 10
445.4459674686
 20
555.1468810938
 30
0.0
 11
445.4459674686
 21
550.6193301581
 31
0.0
  0
ARC
  5
13F
330
1F
100
AcDbEntity
  8
0
  6
Continuous
 62
     7
370
    15
100
AcDbCircle
 10
457.8377623251
 20
549.7354150686
 30
0.0
 40
12.63892587675602
100
AcDbArc
 50
283.1932371669
 51
325.0405518148
  0
ARC
  5
140
330
1F
100
AcDbEntity
  8
0
  6
Continuous
 62
     7
370
    15
100
AcDbCircle
 10
460.3781447194
 20
549.0062309407
 30
0.0
 40
9.761596160291539
100
AcDbArc
 50
6.1652324343
 51
21.7316313825
  0
ARC
  5
141
330
1F
100
AcDbEntity
  8
0
  6
Continuous
 62
     7
370
    15
100
AcDbCircle
 10
454.6129937738
 20
548.9947325202
 30
0.0
 40
9.860870313053086
100
AcDbArc
 50
158.3782438527
 51
173.8260106464
  0
ARC
  5
142
330
1F
100
AcDbEntity
  8
0
  6
Continuous
 62
     7
370
    15
100
AcDbCircle
 10
457.2219455768
 20
549.942275405
 30
0.0
 40
12.894412237707
100
AcDbArc
 50
215.2808604487
 51
268.0179194108
  0
ARC
  5
143
330
1F
100
AcDbEntity
  8
0
  6
Continuous
 62
     7
370
    15
100
AcDbCircle
 10
457.600842619
 20
549.9181188267
 30
0.0
 40
12.87226802501962
100
AcDbArc
 50
272.2934852845
 51
284.0343781063
  0
LINE
  5
144
330
1F
100
AcDbEntity
  8
0
  6
Continuous
 62
     7
370
    15
100
AcDbLine
 10
457.4459673866
 20
580.1759133987
 30
0.0
 11
444.4459676772
 21
580.1759133987
 31
0.0
  0
LINE
  5
145
330
1F
100
AcDbEntity
  8
0
  6
Continuous
 62
     7
370
    15
100
AcDbLine
 10
470.4459667235
 20
580.1759133987
 30
0.0
 11
457.4459673866
 21
580.1759133987
 31
0.0
  0
LINE
  5
146
330
1F
100
AcDbEntity
  8
0
  6
Continuous
 62
     7
370
    15
100
AcDbLine
 10
457.4459673866
 20
581.5159133576
 30
0.0
 11
444.4459676772
 21
581.5159133576
 31
0.0
  0
LINE
  5
147
330
1F
100
AcDbEntity
  8
0
  6
Continuous
 62
     7
370
    15
100
AcDbLine
 10
470.4459667235
 20
581.5159133576
 30
0.0
 11
457.4459673866
 21
581.5159133576
 31
0.0
  0
LINE
  5
148
330
1F
100
AcDbEntity
  8
0
  6
Continuous
 62
     7
370
    15
100
AcDbLine
 10
456.7759674072
 20
572.175913205
 30
0.0
 11
458.1159673661
 21
572.175913205
 31
0.0
  0
LINE
  5
149
330
1F
100
AcDbEntity
  8
0
  6
Continuous
 62
     7
370
    15
100
AcDbLine
 10
456.7759674072
 20
572.175913205
 30
0.0
 11
456.7759674072
 21
580.1759133987
 31
0.0
  0
LINE
  5
14A
330
1F
100
AcDbEntity
  8
0
  6
Continuous
 62
     7
370
    15
100
AcDbLine
 10
458.1159673661
 20
572.175913205
 30
0.0
 11
458.1159673661
 21
580.1759133987
 31
0.0
  0
LINE
  5
14B
330
1F
100
AcDbEntity
  8
0
  6
Continuous
 62
     7
370
    15
100
AcDbLine
 10
455.4359674483
 20
570.1759136222
 30
0.0
 11
455.4359674483
 21
580.1759133987
 31
0.0
  0
LINE
  5
14C
330
1F
100
AcDbEntity
  8
0
  6
Continuous
 62
     7
370
    15
100
AcDbLine
 10
456.7759674072
 20
570.7955158256
 30
0.0
 11
456.7759674072
 21
580.1759133987
 31
0.0
  0
LINE
  5
14D
330
1F
100
AcDbEntity
  8
0
  6
Continuous
 62
     7
370
    15
100
AcDbLine
 10
455.4359674483
 20
568.0127582453
 30
0.0
 11
455.4359674483
 21
570.1759136222
 31
0.0
  0
LINE
  5
14E
330
1F
100
AcDbEntity
  8
0
  6
Continuous
 62
     7
370
    15
100
AcDbLine
 10
459.4559673249
 20
580.1759133987
 30
0.0
 11
459.4559673249
 21
570.1759136222
 31
0.0
  0
LINE
  5
14F
330
1F
100
AcDbEntity
  8
0
  6
Continuous
 62
     7
370
    15
100
AcDbLine
 10
458.1159673661
 20
580.1759133987
 30
0.0
 11
458.1159673661
 21
570.7955158256
 31
0.0
  0
LINE
  5
150
330
1F
100
AcDbEntity
  8
0
  6
Continuous
 62
     7
370
    15
100
AcDbLine
 10
459.4559673249
 20
570.1759136222
 30
0.0
 11
459.4559673249
 21
568.0127582453
 31
0.0
  0
LWPOLYLINE
  5
151
330
1F
100
AcDbEntity
  8
0
  6
Continuous
 62
     7
370
    15
100
AcDbPolyline
 90
       82
 70
   128
 43
0.0
 10
465.3450027138
 20
559.7396469616
 10
465.2230680018
 20
559.1811141871
 10
465.0543607801
 20
558.6329377197
 10
464.8398965626
 20
558.098412206
 10
464.5809635549
 20
557.5807548069
 10
464.2791204184
 20
557.0830768846
 10
463.9361821144
 20
556.6083720826
 10
463.5542102187
 20
556.1594954632
 10
463.1355032354
 20
555.7391486071
 10
462.6825779706
 20
555.3498557709
 10
462.1981598466
 20
554.9939594172
 10
461.685160923
 20
554.6735993527
 10
461.1466672301
 20
554.3907067679
 10
460.5859171628
 20
554.1469774149
 10
460.0062832266
 20
553.9438805483
 10
459.4112508028
 20
553.7826350831
 10
458.8043991506
 20
553.6642125748
 10
458.1893779367
 20
553.5893252991
 10
457.5698856294
 20
553.558423271
 10
456.9496478915
 20
553.571691265
 10
456.3323952287
 20
553.6290517949
 10
455.7218396833
 20
553.7301561736
 10
455.1216532506
 20
553.8743994139
 10
454.5354454807
 20
554.0609142684
 10
453.9667420119
 20
554.2885771893
 10
453.4189630329
 20
554.5560202502
 10
452.895402725
 20
554.8616341256
 10
452.3992102623
 20
555.2035829924
 10
451.933369416
 20
555.5798075102
 10
451.5006821632
 20
555.9880456828
 10
451.1037506192
 20
556.4258417986
 10
450.7449615776
 20
556.8905658029
 10
450.4264734715
 20
557.3794207476
 10
450.1502014726
 20
557.8894651435
 10
449.9178066879
 20
558.4176338218
 10
449.7306875914
 20
558.9607498549
 10
449.5899688482
 20
559.5155454181
 10
449.4964968442
 20
560.0786871217
 10
449.4508340984
 20
560.6467849516
 10
449.4532551646
 20
561.2164235614
 10
449.5037451416
 20
561.7841756843
 10
449.6020007908
 20
562.3466304444
 10
449.7474305361
 20
562.9004008077
 10
449.939160797
 20
563.442159345
 10
450.1760374784
 20
563.9686471723
 10
450.456636402
 20
564.4766963028
 10
450.7792700111
 20
564.9632534884
 10
451.1419978022
 20
565.4253921412
 10
451.5426386177
 20
565.8603317045
 10
451.9787825673
 20
566.2654570244
 10
452.4478070467
 20
566.6383317612
 10
452.9468908935
 20
566.9767132901
 10
453.4730328276
 20
567.2785661124
 10
454.0230684012
 20
567.5420752667
 10
454.5936896495
 20
567.7656567596
 10
455.1814648585
 20
567.9479650162
 10
455.7828590303
 20
568.0879033111
 10
456.3942553505
 20
568.1846312188
 10
457.011976841
 20
568.2375661038
 10
457.63230827
 20
568.2463905715
 10
458.2515191316
 20
568.2110494875
 10
458.8658854395
 20
568.1317574285
 10
459.4717118918
 20
568.0089897417
 10
460.0653555274
 20
567.8434870146
 10
460.6432456553
 20
567.6362416648
 10
461.2019069522
 20
567.3885024093
 10
461.7379799515
 20
567.1017578744
 10
462.2482396692
 20
566.7777336143
 10
462.7296187013
 20
566.418377211
 10
463.1792210072
 20
566.0258508228
 10
463.5943420261
 20
565.6025147937
 10
463.9724873036
 20
565.1509142421
 10
464.3113806873
 20
564.6737671398
 10
464.6089844435
 20
564.1739419602
 10
464.8635089427
 20
563.6544442676
 10
465.0734238356
 20
563.1183988355
 10
465.2374662488
 20
562.5690302752
 10
465.3546497255
 20
562.009640684
 10
465.4242694407
 20
561.4435962342
 10
465.4459066718
 20
560.8742988609
 10
465.4194310337
 20
560.3051758312
 10
465.3450027138
 20
559.7396469616
  0
LWPOLYLINE
  5
152
330
1F
100
AcDbEntity
  8
0
  6
Continuous
 62
     7
370
    15
100
AcDbPolyline
 90
       40
 70
   128
 43
0.0
 10
465.3450027138
 20
559.208779683
 10
465.2230680018
 20
558.6502483986
 10
465.0543607801
 20
558.1020704411
 10
464.8398965626
 20
557.5675464176
 10
464.5809635549
 20
557.0498875283
 10
464.2791204184
 20
556.552209606
 10
463.9361821144
 20
556.0775062941
 10
463.5542102187
 20
555.6286296748
 10
463.1355032354
 20
555.2082798384
 10
462.6825779706
 20
554.8189870022
 10
462.1981598466
 20
554.4630906485
 10
461.685160923
 20
554.1427335642
 10
461.1466672301
 20
553.8598379992
 10
460.5859171628
 20
553.6161116265
 10
460.0062832266
 20
553.4130147599
 10
459.4112508028
 20
553.2517692946
 10
458.8043991506
 20
553.1333467864
 10
458.1893779367
 20
553.0584595107
 10
457.5698856294
 20
553.0275574826
 10
456.9496478915
 20
553.0408254765
 10
456.3323952287
 20
553.0981830262
 10
455.7218396833
 20
553.1992903851
 10
455.1216532506
 20
553.3435336255
 10
454.5354454807
 20
553.5300484799
 10
453.9667420119
 20
553.7577114009
 10
453.4189630329
 20
554.0251544617
 10
452.895402725
 20
554.3307683371
 10
452.3992102623
 20
554.672717204
 10
451.933369416
 20
555.0489417218
 10
451.5006821632
 20
555.4571798943
 10
451.1037506192
 20
555.8949760102
 10
450.7449615776
 20
556.3596985243
 10
450.4264734715
 20
556.848553469
 10
450.1502014726
 20
557.3585993551
 10
449.9178066879
 20
557.8867680334
 10
449.7306875914
 20
558.4298825763
 10
449.5899688482
 20
558.9846796297
 10
449.4964968442
 20
559.5478198432
 10
449.4508340984
 20
560.115917673
 10
449.4459673792
 20
560.372095456
  0
ARC
  5
153
330
1F
100
AcDbEntity
  8
0
  6
Continuous
 62
     7
370
    15
100
AcDbCircle
 10
458.6901646304
 20
560.3723973997
 30
0.0
 40
6.755803142901346
100
AcDbArc
 50
350.08193264
 51
359.9974392242
  0
LWPOLYLINE
  5
154
330
1F
100
AcDbEntity
  8
0
  6
Continuous
 62
     7
370
    15
100
AcDbPolyline
 90
       29
 70
   128
 43
0.0
 10
458.4333468258
 20
560.7575482629
 10
458.3733499079
 20
560.5594581865
 10
458.266850005
 20
560.3785938524
 10
458.1191878795
 20
560.2240226172
 10
457.9377675458
 20
560.1034975551
 10
457.7316861629
 20
560.0230595969
 10
457.5112778723
 20
559.9867454671
 10
457.2875944927
 20
559.9963731073
 10
457.071852687
 20
560.0514612101
 10
456.8748705118
 20
560.1492456101
 10
456.7065255746
 20
560.2848268055
 10
456.5752592898
 20
560.4514024161
 10
456.4876539662
 20
560.6406218313
 10
456.448102466
 20
560.8429959916
 10
456.4585880406
 20
561.0483772062
 10
456.5185850516
 20
561.2464657925
 10
456.6250847682
 20
561.4273301266
 10
456.77274708
 20
561.5819013618
 10
456.9541674137
 20
561.7024264239
 10
457.1602486103
 20
561.7828643821
 10
457.3806570872
 20
561.8191800021
 10
457.6043402805
 20
561.8095523618
 10
457.8200822725
 20
561.754464259
 10
458.0170644477
 20
561.6566783689
 10
458.1854093849
 20
561.5210986637
 10
458.3166755765
 20
561.3545215629
 10
458.4042809933
 20
561.1653021477
 10
458.4438324004
 20
560.9629294776
 10
458.4333468258
 20
560.7575482629
  0
ARC
  5
155
330
1F
100
AcDbEntity
  8
0
  6
Continuous
 62
     7
370
    15
100
AcDbCircle
 10
457.4459674797
 20
560.2745062301
 30
0.0
 40
1.023823125139307
100
AcDbArc
 50
20.7674014945
 51
159.2325985055
  0
LINE
  5
156
330
1F
100
AcDbEntity
  8
0
  6
Continuous
 62
     7
370
    15
100
AcDbLine
 10
458.1159673661
 20
570.7955158256
 30
0.0
 11
458.1159673661
 21
568.2225770258
 31
0.0
  0
LINE
  5
157
330
1F
100
AcDbEntity
  8
0
  6
Continuous
 62
     7
370
    15
100
AcDbLine
 10
456.7759674072
 20
570.7955158256
 30
0.0
 11
456.7759674072
 21
568.2225770258
 31
0.0
  0
LINE
  5
158
330
1F
100
AcDbEntity
  8
0
  6
Continuous
 62
     7
370
    15
100
AcDbLine
 10
469.8365762859
 20
562.0074651145
 30
0.0
 11
465.44639692
 21
561.0387540363
 31
0.0
  0
LWPOLYLINE
  5
159
330
1F
100
AcDbEntity
  8
0
  6
Continuous
 62
     7
370
    15
100
AcDbPolyline
 90
        9
 70
   128
 43
0.0
 10
470.5981433421
 20
561.7548993729
 10
470.5852687388
 20
561.8445030354
 10
470.5468356639
 20
561.9191250704
 10
470.4834148317
 20
561.9776553415
 10
470.3959494859
 20
562.0192221306
 10
470.2857419878
 20
562.04321151
 10
470.1544269949
 20
562.0492628716
 10
470.0039610296
 20
562.0372882985
 10
469.8365762859
 20
562.0074651145
  0
LINE
  5
15A
330
1F
100
AcDbEntity
  8
0
  6
Continuous
 62
     7
370
    15
100
AcDbLine
 10
470.5981433421
 20
554.6238562964
 30
0.0
 11
470.5981433421
 21
561.7548993729
 31
0.0
  0
LWPOLYLINE
  5
15B
330
1F
100
AcDbEntity
  8
0
  6
Continuous
 62
     7
370
    15
100
AcDbPolyline
 90
        9
 70
   128
 43
0.0
 10
469.4459676772
 20
553.2664618395
 10
469.6524277359
 20
553.4165433549
 10
469.8841661244
 20
553.6043546103
 10
470.0908377796
 20
553.7946603201
 10
470.2673509746
 20
553.9827755593
 10
470.4093605309
 20
554.1640660666
 10
470.5133706361
 20
554.3340704344
 10
470.5768182903
 20
554.4886014365
 10
470.5981433421
 20
554.6238562964
  0
LINE
  5
15C
330
1F
100
AcDbEntity
  8
0
  6
Continuous
 62
     7
370
    15
100
AcDbLine
 10
468.8660919696
 20
560.416111996
 30
0.0
 11
468.8660919696
 21
558.5566571854
 31
0.0
  0
LWPOLYLINE
  5
15D
330
1F
100
AcDbEntity
  8
0
  6
Continuous
 62
     7
370
    15
100
AcDbPolyline
 90
        9
 70
   128
 43
0.0
 10
468.1045264035
 20
560.6686777376
 10
468.2719096571
 20
560.6985009216
 10
468.4223771125
 20
560.7104754947
 10
468.5536906153
 20
560.7044241332
 10
468.6638996034
 20
560.6804362439
 10
468.7513634592
 20
560.6388679646
 10
468.8147842913
 20
560.5803376936
 10
468.8532173663
 20
560.5057156585
 10
468.8660919696
 20
560.416111996
  0
LINE
  5
15E
330
1F
100
AcDbEntity
  8
0
  6
Continuous
 62
     7
370
    15
100
AcDbLine
 10
465.4459677666
 20
560.0820562743
 30
0.0
 11
468.1045264035
 21
560.6686777376
 31
0.0
  0
LINE
  5
15F
330
1F
100
AcDbEntity
  8
0
  6
Continuous
 62
     7
370
    15
100
AcDbLine
 10
469.1665768653
 20
563.0729860567
 30
0.0
 11
465.3156727582
 21
562.2232682012
 31
0.0
  0
ARC
  5
160
330
1F
100
AcDbEntity
  8
0
  6
Continuous
 62
     7
370
    15
100
AcDbCircle
 10
469.4403000695
 20
562.4235486807
 30
0.0
 40
0.7047647109757776
100
AcDbArc
 50
50.436202756
 51
112.8543256091
  0
LINE
  5
161
330
1F
100
AcDbEntity
  8
0
  6
Continuous
 62
     7
370
    15
100
AcDbLine
 10
468.1960925489
 20
560.6868437432
 30
0.0
 11
468.1960925489
 21
560.0976160668
 31
0.0
  0
ARC
  5
162
330
1F
100
AcDbEntity
  8
0
  6
Continuous
 62
     7
370
    15
100
AcDbCircle
 10
449.941246741
 20
555.7907104678
 30
0.0
 40
3.05046685186102
100
AcDbArc
 50
308.6773783707
 51
326.0692483266
  0
LINE
  5
163
330
1F
100
AcDbEntity
  8
0
  6
Continuous
 62
     7
370
    15
100
AcDbLine
 10
451.8475886464
 20
553.4092805289
 30
0.0
 11
447.457408908
 21
549.7234336041
 31
0.0
  0
LWPOLYLINE
  5
164
330
1F
100
AcDbEntity
  8
0
  6
Continuous
 62
     7
370
    15
100
AcDbPolyline
 90
        9
 70
   128
 43
0.0
 10
447.457408908
 20
549.7234336041
 10
447.2900249093
 20
549.575792899
 10
447.139558199
 20
549.4282386206
 10
447.0082439512
 20
549.2829672001
 10
446.898035708
 20
549.1421333455
 10
446.8105711072
 20
549.0078321599
 10
446.7471502751
 20
548.8820633792
 10
446.7087172001
 20
548.7666926287
 10
446.6958425968
 20
548.6634395026
  0
LINE
  5
165
330
1F
100
AcDbEntity
  8
0
  6
Continuous
 62
     7
370
    15
100
AcDbLine
 10
446.6958425968
 20
548.6634395026
 30
0.0
 11
446.6958425968
 21
542.1510896586
 31
0.0
  0
LWPOLYLINE
  5
166
330
1F
100
AcDbEntity
  8
0
  6
Continuous
 62
     7
370
    15
100
AcDbPolyline
 90
        8
 70
   128
 43
0.0
 10
446.6958425968
 20
542.1510896586
 10
446.7041626602
 20
542.1168557309
 10
446.7288032203
 20
542.092757573
 10
446.7688180536
 20
542.0797250174
 10
446.8226686149
 20
542.0782527827
 10
446.8882858783
 20
542.0884034537
 10
446.963148567
 20
542.1097836398
 10
446.9638764888
 20
542.1100339793
  0
LINE
  5
167
330
1F
100
AcDbEntity
  8
0
  6
Continuous
 62
     7
370
    15
100
AcDbLine
 10
447.4173799186
 20
541.5431610249
 30
0.0
 11
446.6958425968
 21
541.1606660985
 31
0.0
  0
LWPOLYLINE
  5
168
330
1F
100
AcDbEntity
  8
0
  6
Continuous
 62
     7
370
    15
100
AcDbPolyline
 90
       11
 70
   128
 43
0.0
 10
446.6958425968
 20
541.1606660985
 10
446.4248895674
 20
541.0267881058
 10
446.160609278
 20
540.9157148503
 10
445.9095075756
 20
540.830182185
 10
445.677768442
 20
540.7722971343
 10
445.4710975319
 20
540.7434872292
 10
445.2945835918
 20
540.7444587849
 10
445.1525740355
 20
540.7751879595
 10
445.0485639303
 20
540.8349207543
 10
444.985115531
 20
540.9221819542
 10
444.9637912243
 20
541.0348257922
  0
LINE
  5
169
330
1F
100
AcDbEntity
  8
0
  6
Continuous
 62
     7
370
    15
100
AcDbLine
 10
444.9637912243
 20
541.0348257922
 30
0.0
 11
444.9637912243
 21
548.1658718489
 31
0.0
  0
LWPOLYLINE
  5
16A
330
1F
100
AcDbEntity
  8
0
  6
Continuous
 62
     7
370
    15
100
AcDbPolyline
 90
        9
 70
   128
 43
0.0
 10
444.9637912243
 20
548.1658718489
 10
444.9766665726
 20
548.2691249751
 10
445.0150996476
 20
548.3844957255
 10
445.0785204798
 20
548.5102645062
 10
445.1659850806
 20
548.6445627116
 10
445.2761933237
 20
548.7853965663
 10
445.4075075715
 20
548.930670967
 10
445.5579742819
 20
549.0782252453
 10
445.7253582805
 20
549.2258659504
  0
LINE
  5
16B
330
1F
100
AcDbEntity
  8
0
  6
Continuous
 62
     7
370
    15
100
AcDbLine
 10
445.7253582805
 20
549.2258659504
 30
0.0
 11
450.1155380189
 21
552.911709895
 31
0.0
  0
LWPOLYLINE
  5
16C
330
1F
100
AcDbEntity
  8
0
  6
Continuous
 62
     7
370
    15
100
AcDbPolyline
 90
        9
 70
   128
 43
0.0
 10
450.1155380189
 20
552.911709895
 10
450.2829212725
 20
553.0593506001
 10
450.4333887279
 20
553.2069048785
 10
450.5647026032
 20
553.3521792792
 10
450.6749112188
 20
553.4930131339
 10
450.7623758196
 20
553.6273113392
 10
450.8257962793
 20
553.7530831002
 10
450.8642293542
 20
553.8684508704
 10
450.87710433
 20
553.9717069768
  0
LINE
  5
16D
330
1F
100
AcDbEntity
  8
0
  6
Continuous
 62
     7
370
    15
100
AcDbLine
 10
450.87710433
 20
553.9717069768
 30
0.0
 11
450.87710433
 21
556.1795285843
 31
0.0
  0
LINE
  5
16E
330
1F
100
AcDbEntity
  8
0
  6
Continuous
 62
     7
370
    15
100
AcDbLine
 10
450.2071045368
 20
555.0372264289
 30
0.0
 11
450.2071045368
 21
557.2450495266
 31
0.0
  0
LWPOLYLINE
  5
16F
330
1F
100
AcDbEntity
  8
0
  6
Continuous
 62
     7
370
    15
100
AcDbPolyline
 90
        9
 70
   128
 43
0.0
 10
449.4455378532
 20
553.9772323273
 10
449.6129214793
 20
554.1248730324
 10
449.7633885622
 20
554.2724273108
 10
449.8947024375
 20
554.4176987313
 10
450.0049110531
 20
554.558532586
 10
450.0923756539
 20
554.6928337716
 10
450.1557961136
 20
554.8186025523
 10
450.194229561
 20
554.9339733027
 10
450.2071045368
 20
555.0372264289
  0
LINE
  5
170
330
1F
100
AcDbEntity
  8
0
  6
Continuous
 62
     7
370
    15
100
AcDbLine
 10
445.0553581148
 20
550.2913854025
 30
0.0
 11
449.4455378532
 21
553.9772323273
 31
0.0
  0
LWPOLYLINE
  5
171
330
1F
100
AcDbEntity
  8
0
  6
Continuous
 62
     7
370
    15
100
AcDbPolyline
 90
        9
 70
   128
 43
0.0
 10
444.2937918037
 20
549.231391301
 10
444.3066664069
 20
549.3346474074
 10
444.3450994819
 20
549.4500151776
 10
444.4085203141
 20
549.5757869385
 10
444.4959849149
 20
549.7100851439
 10
444.606193158
 20
549.8509189986
 10
444.7375074058
 20
549.9961933993
 10
444.8879741162
 20
550.1437446974
 10
445.0553581148
 20
550.2913854025
  0
LINE
  5
172
330
1F
100
AcDbEntity
  8
0
  6
Continuous
 62
     7
370
    15
100
AcDbLine
 10
444.2937918037
 20
542.1003482245
 30
0.0
 11
444.2937918037
 21
549.231391301
 31
0.0
  0
LWPOLYLINE
  5
173
330
1F
100
AcDbEntity
  8
0
  6
Continuous
 62
     7
370
    15
100
AcDbPolyline
 90
        3
 70
   128
 43
0.0
 10
444.332743439
 20
541.9539055728
 10
444.3151161104
 20
541.9877043866
 10
444.2937918037
 20
542.1003482245
  0
LINE
  5
174
330
1F
100
AcDbEntity
  8
0
  6
Continuous
 62
     7
370
    15
100
AcDbLine
 10
456.7759674072
 20
550.8446595572
 30
0.0
 11
456.7759674072
 21
553.0524811648
 31
0.0
  0
LINE
  5
175
330
1F
100
AcDbEntity
  8
0
  6
Continuous
 62
     7
370
    15
100
AcDbLine
 10
458.1159673661
 20
550.8446595572
 30
0.0
 11
458.1159673661
 21
553.0524811648
 31
0.0
  0
LINE
  5
176
330
1F
100
AcDbEntity
  8
0
  6
Continuous
 62
     7
370
    15
100
AcDbLine
 10
456.7759674072
 20
543.3678260945
 30
0.0
 11
456.7759674072
 21
549.3809512757
 31
0.0
  0
LINE
  5
177
330
1F
100
AcDbEntity
  8
0
  6
Continuous
 62
     7
370
    15
100
AcDbLine
 10
458.1159673661
 20
543.3678260945
 30
0.0
 11
458.1159673661
 21
549.3809512757
 31
0.0
  0
LINE
  5
178
330
1F
100
AcDbEntity
  8
0
  6
Continuous
 62
     7
370
    15
100
AcDbLine
 10
456.7759674072
 20
549.3809512757
 30
0.0
 11
456.7759674072
 21
550.8446595572
 31
0.0
  0
LINE
  5
179
330
1F
100
AcDbEntity
  8
0
  6
Continuous
 62
     7
370
    15
100
AcDbLine
 10
458.1159673661
 20
549.3809512757
 30
0.0
 11
458.1159673661
 21
550.8446595572
 31
0.0
  0
LINE
  5
17A
330
1F
100
AcDbEntity
  8
0
  6
Continuous
 62
     7
370
    15
100
AcDbLine
 10
456.7759674072
 20
541.904117813
 30
0.0
 11
456.7759674072
 21
543.3678260945
 31
0.0
  0
LINE
  5
17B
330
1F
100
AcDbEntity
  8
0
  6
Continuous
 62
     7
370
    15
100
AcDbLine
 10
458.1159673661
 20
541.904117813
 30
0.0
 11
458.1159673661
 21
543.3678260945
 31
0.0
  0
LINE
  5
17C
330
1F
100
AcDbEntity
  8
0
  6
Continuous
 62
     7
370
    15
100
AcDbLine
 10
456.7759674072
 20
534.7730747365
 30
0.0
 11
456.7759674072
 21
541.904117813
 31
0.0
  0
LINE
  5
17D
330
1F
100
AcDbEntity
  8
0
  6
Continuous
 62
     7
370
    15
100
AcDbLine
 10
458.1159673661
 20
534.7730747365
 30
0.0
 11
458.1159673661
 21
541.904117813
 31
0.0
  0
LINE
  5
17E
330
1F
100
AcDbEntity
  8
0
  6
Continuous
 62
     7
370
    15
100
AcDbLine
 10
456.7759674072
 20
534.6094301842
 30
0.0
 11
456.7759674072
 21
534.7730747365
 31
0.0
  0
LINE
  5
17F
330
1F
100
AcDbEntity
  8
0
  6
Continuous
 62
     7
370
    15
100
AcDbLine
 10
458.1159673661
 20
534.6094301842
 30
0.0
 11
458.1159673661
 21
534.7730747365
 31
0.0
  0
LINE
  5
180
330
1F
100
AcDbEntity
  8
0
  6
Continuous
 62
     7
370
    15
100
AcDbLine
 10
449.4459673792
 20
560.0820562743
 30
0.0
 11
446.7874087423
 21
560.6686777376
 31
0.0
  0
LWPOLYLINE
  5
181
330
1F
100
AcDbEntity
  8
0
  6
Continuous
 62
     7
370
    15
100
AcDbPolyline
 90
        9
 70
   128
 43
0.0
 10
446.7874087423
 20
560.6686777376
 10
446.6200254887
 20
560.6985009216
 10
446.4695580333
 20
560.7104754947
 10
446.3382437855
 20
560.7044241332
 10
446.2280355423
 20
560.6804362439
 10
446.1405709415
 20
560.6388679646
 10
446.0771508544
 20
560.5803376936
 10
446.0387170344
 20
560.5057156585
 10
446.0258424311
 20
560.416111996
  0
LINE
  5
182
330
1F
100
AcDbEntity
  8
0
  6
Continuous
 62
     7
370
    15
100
AcDbLine
 10
446.0258424311
 20
560.416111996
 30
0.0
 11
446.0258424311
 21
558.5623419784
 31
0.0
  0
LWPOLYLINE
  5
183
330
1F
100
AcDbEntity
  8
0
  6
Continuous
 62
     7
370
    15
100
AcDbPolyline
 90
        9
 70
   128
 43
0.0
 10
445.4459674686
 20
553.2664618395
 10
445.2395074099
 20
553.4165433549
 10
445.0077682763
 20
553.6043546103
 10
444.8010973662
 20
553.7946603201
 10
444.6245834261
 20
553.9827755593
 10
444.4825738698
 20
554.1640660666
 10
444.3785637646
 20
554.3340704344
 10
444.3151161104
 20
554.4886014365
 10
444.2937918037
 20
554.6238562964
  0
LINE
  5
184
330
1F
100
AcDbEntity
  8
0
  6
Continuous
 62
     7
370
    15
100
AcDbLine
 10
444.2937918037
 20
554.6238562964
 30
0.0
 11
444.2937918037
 21
561.7548993729
 31
0.0
  0
LWPOLYLINE
  5
185
330
1F
100
AcDbEntity
  8
0
  6
Continuous
 62
     7
370
    15
100
AcDbPolyline
 90
        9
 70
   128
 43
0.0
 10
444.2937918037
 20
561.7548993729
 10
444.3066664069
 20
561.8445030354
 10
444.3450994819
 20
561.9191250704
 10
444.4085203141
 20
561.9776553415
 10
444.4959849149
 20
562.0192221306
 10
444.606193158
 20
562.04321151
 10
444.7375074058
 20
562.0492628716
 10
444.8879741162
 20
562.0372882985
 10
445.0553581148
 20
562.0074651145
  0
LINE
  5
186
330
1F
100
AcDbEntity
  8
0
  6
Continuous
 62
     7
370
    15
100
AcDbLine
 10
445.0553581148
 20
562.0074651145
 30
0.0
 11
449.4455378532
 21
561.0387540363
 31
0.0
  0
LINE
  5
187
330
1F
100
AcDbEntity
  8
0
  6
Continuous
 62
     7
370
    15
100
AcDbLine
 10
445.7253582805
 20
563.0729860567
 30
0.0
 11
449.5762623876
 21
562.2232682012
 31
0.0
  0
ARC
  5
188
330
1F
100
AcDbEntity
  8
0
  6
Continuous
 62
     7
370
    15
100
AcDbCircle
 10
445.4516351772
 20
562.4235448416
 30
0.0
 40
0.7047682094465925
100
AcDbArc
 50
67.1458031741
 51
129.5636514756
  0
LINE
  5
189
330
1F
100
AcDbEntity
  8
0
  6
Continuous
 62
     7
370
    15
100
AcDbLine
 10
446.6958425968
 20
560.6868437432
 30
0.0
 11
446.6958425968
 21
560.0936925911
 31
0.0
  0
LINE
  5
18A
330
1F
100
AcDbEntity
  8
0
  6
Continuous
 62
     7
370
    15
100
AcDbLine
 10
464.0148304432
 20
553.9717069768
 30
0.0
 11
464.0148304432
 21
556.1795285843
 31
0.0
  0
LWPOLYLINE
  5
18B
330
1F
100
AcDbEntity
  8
0
  6
Continuous
 62
     7
370
    15
100
AcDbPolyline
 90
        9
 70
   128
 43
0.0
 10
464.7763967543
 20
552.911709895
 10
464.6090135008
 20
553.0593506001
 10
464.4585460454
 20
553.2069048785
 10
464.3272325426
 20
553.3521792792
 10
464.2170235544
 20
553.4930131339
 10
464.1295589536
 20
553.6273113392
 10
464.0661388665
 20
553.7530831002
 10
464.0277050465
 20
553.8684508704
 10
464.0148304432
 20
553.9717069768
  0
LINE
  5
18C
330
1F
100
AcDbEntity
  8
0
  6
Continuous
 62
     7
370
    15
100
AcDbLine
 10
469.1665768653
 20
549.2258659504
 30
0.0
 11
464.7763967543
 21
552.911709895
 31
0.0
  0
LWPOLYLINE
  5
18D
330
1F
100
AcDbEntity
  8
0
  6
Continuous
 62
     7
370
    15
100
AcDbPolyline
 90
        9
 70
   128
 43
0.0
 10
469.9281439214
 20
548.1658718489
 10
469.9152678281
 20
548.2691249751
 10
469.8768347531
 20
548.3844957255
 10
469.8134154111
 20
548.5102645062
 10
469.7259500652
 20
548.6445627116
 10
469.615741077
 20
548.7853965663
 10
469.4844275742
 20
548.930670967
 10
469.3339601188
 20
549.0782252453
 10
469.1665768653
 20
549.2258659504
  0
LINE
  5
18E
330
1F
100
AcDbEntity
  8
0
  6
Continuous
 62
     7
370
    15
100
AcDbLine
 10
469.9281439214
 20
541.0348257922
 30
0.0
 11
469.9281439214
 21
548.1658718489
 31
0.0
  0
LWPOLYLINE
  5
18F
330
1F
100
AcDbEntity
  8
0
  6
Continuous
 62
     7
370
    15
100
AcDbPolyline
 90
       11
 70
   128
 43
0.0
 10
468.1960925489
 20
541.1606660985
 10
468.4670448333
 20
541.0267881058
 10
468.7313258677
 20
540.9157148503
 10
468.9824268251
 20
540.830182185
 10
469.2141667038
 20
540.7722971343
 10
469.4208368688
 20
540.7434872292
 10
469.597351554
 20
540.7444587849
 10
469.7393611103
 20
540.7751879595
 10
469.8433712154
 20
540.8349207543
 10
469.9068188697
 20
540.9221819542
 10
469.9281439214
 20
541.0348257922
  0
LINE
  5
190
330
1F
100
AcDbEntity
  8
0
  6
Continuous
 62
     7
370
    15
100
AcDbLine
 10
467.4703232973
 20
541.5454051398
 30
0.0
 11
468.1960925489
 21
541.1606660985
 31
0.0
  0
LWPOLYLINE
  5
191
330
1F
100
AcDbEntity
  8
0
  6
Continuous
 62
     7
370
    15
100
AcDbPolyline
 90
        8
 70
   128
 43
0.0
 10
468.1960925489
 20
542.1510896586
 10
468.1877717405
 20
542.1168557309
 10
468.1631311804
 20
542.092757573
 10
468.1231170922
 20
542.0797250174
 10
468.0692657858
 20
542.0782527827
 10
468.0036485225
 20
542.0884034537
 10
467.9287865787
 20
542.1097836398
 10
467.9221212893
 20
542.1120843791
  0
LINE
  5
192
330
1F
100
AcDbEntity
  8
0
  6
Continuous
 62
     7
370
    15
100
AcDbLine
 10
468.1960925489
 20
548.6634395026
 30
0.0
 11
468.1960925489
 21
542.1510896586
 31
0.0
  0
LWPOLYLINE
  5
193
330
1F
100
AcDbEntity
  8
0
  6
Continuous
 62
     7
370
    15
100
AcDbPolyline
 90
        9
 70
   128
 43
0.0
 10
467.4345262378
 20
549.7234336041
 10
467.6019094914
 20
549.575792899
 10
467.7523769468
 20
549.4282386206
 10
467.8836911946
 20
549.2829672001
 10
467.9938986927
 20
549.1421333455
 10
468.0813640385
 20
549.0078321599
 10
468.1447848707
 20
548.8820633792
 10
468.1832179456
 20
548.7666926287
 10
468.1960925489
 20
548.6634395026
  0
LINE
  5
194
330
1F
100
AcDbEntity
  8
0
  6
Continuous
 62
     7
370
    15
100
AcDbLine
 10
463.0443461269
 20
553.4092805289
 30
0.0
 11
467.4345262378
 21
549.7234336041
 31
0.0
  0
ARC
  5
195
330
1F
100
AcDbEntity
  8
0
  6
Continuous
 62
     7
370
    15
100
AcDbCircle
 10
464.9506895902
 20
555.7907112071
 30
0.0
 40
3.050468402619877
100
AcDbArc
 50
213.9307488138
 51
231.3226074629
  0
LINE
  5
196
330
1F
100
AcDbEntity
  8
0
  6
Continuous
 62
     7
370
    15
100
AcDbLine
 10
464.6848306089
 20
555.0372264289
 30
0.0
 11
464.6848306089
 21
557.2450495266
 31
0.0
  0
LWPOLYLINE
  5
197
330
1F
100
AcDbEntity
  8
0
  6
Continuous
 62
     7
370
    15
100
AcDbPolyline
 90
        9
 70
   128
 43
0.0
 10
465.44639692
 20
553.9772323273
 10
465.2790136665
 20
554.1248730324
 10
465.1285462111
 20
554.2724273108
 10
464.9972319632
 20
554.4176987313
 10
464.8870237201
 20
554.558532586
 10
464.7995591193
 20
554.6928337716
 10
464.7361390322
 20
554.8186025523
 10
464.6977052122
 20
554.9339733027
 10
464.6848306089
 20
555.0372264289
  0
LINE
  5
198
330
1F
100
AcDbEntity
  8
0
  6
Continuous
 62
     7
370
    15
100
AcDbLine
 10
469.8365762859
 20
550.2913854025
 30
0.0
 11
465.44639692
 21
553.9772323273
 31
0.0
  0
LWPOLYLINE
  5
199
330
1F
100
AcDbEntity
  8
0
  6
Continuous
 62
     7
370
    15
100
AcDbPolyline
 90
        9
 70
   128
 43
0.0
 10
470.5981433421
 20
549.231391301
 10
470.5852687388
 20
549.3346474074
 10
470.5468356639
 20
549.4500151776
 10
470.4834148317
 20
549.5757869385
 10
470.3959494859
 20
549.7100851439
 10
470.2857419878
 20
549.8509189986
 10
470.1544269949
 20
549.9961933993
 10
470.0039610296
 20
550.1437446974
 10
469.8365762859
 20
550.2913854025
  0
LINE
  5
19A
330
1F
100
AcDbEntity
  8
0
  6
Continuous
 62
     7
370
    15
100
AcDbLine
 10
470.5981433421
 20
542.1003482245
 30
0.0
 11
470.5981433421
 21
549.231391301
 31
0.0
  0
LWPOLYLINE
  5
19B
330
1F
100
AcDbEntity
  8
0
  6
Continuous
 62
     7
370
    15
100
AcDbPolyline
 90
        3
 70
   128
 43
0.0
 10
470.5591917067
 20
541.9539055728
 10
470.5768182903
 20
541.9877043866
 10
470.5981433421
 20
542.1003482245
  0
ARC
  5
19C
330
1F
100
AcDbEntity
  8
0
  6
Continuous
 62
     7
370
    15
100
AcDbCircle
 10
457.5655133515
 20
561.2181899054
 30
0.0
 40
8.184240884665039
100
AcDbArc
 50
273.8564992114
 51
322.0005374528
  0
ARC
  5
19D
330
1F
100
AcDbEntity
  8
0
  6
Continuous
 62
     7
370
    15
100
AcDbCircle
 10
457.3051065079
 20
561.1779814461
 30
0.0
 40
8.142711035619318
100
AcDbArc
 50
217.8688496198
 51
266.2741137161
  0
ARC
  5
19E
330
1F
100
AcDbEntity
  8
0
  6
Continuous
 62
     7
370
    15
100
AcDbCircle
 10
456.2932869497
 20
560.3826090038
 30
0.0
 40
6.847327641872099
100
AcDbArc
 50
180.087973321
 51
207.272090397
  0
ARC
  5
19F
330
1F
100
AcDbEntity
  8
0
  6
Continuous
 62
     7
370
    15
100
AcDbCircle
 10
458.5986481961
 20
560.3826090038
 30
0.0
 40
6.847327641872138
100
AcDbArc
 50
332.727909603
 51
359.912026679
  0
ARC
  5
1A0
330
1F
100
AcDbEntity
  8
0
  6
Continuous
 62
     7
370
    15
100
AcDbCircle
 10
457.4723443354
 20
560.3006045212
 30
0.0
 40
0.990020635746235
100
AcDbArc
 50
19.8963717782
 51
91.5267022106
  0
ARC
  5
1A1
330
1F
100
AcDbEntity
  8
0
  6
Continuous
 62
     7
370
    15
100
AcDbCircle
 10
457.4195903521
 20
560.3006049126
 30
0.0
 40
0.9900202467485879
100
AcDbArc
 50
88.4732922243
 51
160.1036441648
  0
LINE
  5
1A2
330
1F
100
AcDbEntity
  8
0
  6
Continuous
 62
     7
370
    15
100
AcDbLine
 10
464.0148304432
 20
555.6486598157
 30
0.0
 11
464.0148304432
 21
556.1795285843
 31
0.0
  0
ARC
  5
1A3
330
1F
100
AcDbEntity
  8
0
  6
Continuous
 62
     7
370
    15
100
AcDbCircle
 10
457.5655149234
 20
560.6873259537
 30
0.0
 40
8.18424261159624
100
AcDbArc
 50
273.8564873667
 51
322.0005041035
  0
LINE
  5
1A4
330
1F
100
AcDbEntity
  8
0
  6
Continuous
 62
     7
370
    15
100
AcDbLine
 10
458.1159673661
 20
552.5216153763
 30
0.0
 11
458.1159673661
 21
553.0524811648
 31
0.0
  0
ARC
  5
1A5
330
1F
100
AcDbEntity
  8
0
  6
Continuous
 62
     7
370
    15
100
AcDbCircle
 10
457.3051009765
 20
560.6471099872
 30
0.0
 40
8.14270501768259
100
AcDbArc
 50
217.868858568
 51
266.2741499617
  0
LINE
  5
1A6
330
1F
100
AcDbEntity
  8
0
  6
Continuous
 62
     7
370
    15
100
AcDbLine
 10
450.87710433
 20
555.6486598157
 30
0.0
 11
450.87710433
 21
556.1795285843
 31
0.0
  0
LINE
  5
1A7
330
1F
100
AcDbEntity
  8
0
  6
Continuous
 62
     7
370
    15
100
AcDbLine
 10
456.7759674072
 20
552.5216153763
 30
0.0
 11
456.7759674072
 21
553.0524811648
 31
0.0
  0
LINE
  5
1A8
330
1F
100
AcDbEntity
  8
0
  6
Continuous
 62
     7
370
    15
100
AcDbLine
 10
464.6848306089
 20
556.714182248
 30
0.0
 11
464.6848306089
 21
557.2450495266
 31
0.0
  0
ARC
  5
1A9
330
1F
100
AcDbEntity
  8
0
  6
Continuous
 62
     7
370
    15
100
AcDbCircle
 10
458.5986349372
 20
559.8517449475
 30
0.0
 40
6.847340903412123
100
AcDbArc
 50
332.7279364744
 51
359.9120123554
  0
LINE
  5
1AA
330
1F
100
AcDbEntity
  8
0
  6
Continuous
 62
     7
370
    15
100
AcDbLine
 10
450.2071045368
 20
556.714182248
 30
0.0
 11
450.2071045368
 21
557.2450495266
 31
0.0
  0
ARC
  5
1AB
330
1F
100
AcDbEntity
  8
0
  6
Continuous
 62
     7
370
    15
100
AcDbCircle
 10
456.2933002086
 20
559.8517449475
 30
0.0
 40
6.847340903412179
100
AcDbArc
 50
180.0879876446
 51
207.2720635256
  0
ARC
  5
1AC
330
1F
100
AcDbEntity
  8
0
  6
Continuous
 62
     7
370
    15
100
AcDbCircle
 10
457.4615639784
 20
559.7392008928
 30
0.0
 40
1.020324755900487
100
AcDbArc
 50
38.3371230602
 51
90.8758522062
  0
ARC
  5
1AD
330
1F
100
AcDbEntity
  8
0
  6
Continuous
 62
     7
370
    15
100
AcDbCircle
 10
457.4326877196
 20
559.7343204203
 30
0.0
 40
1.025172030798595
100
AcDbArc
 50
89.257792713
 51
141.529242155
  0
ARC
  5
1AE
330
1F
100
AcDbEntity
  8
0
  6
Continuous
 62
     7
370
    15
100
AcDbCircle
 10
457.4148583669
 20
559.7579542287
 30
0.0
 40
0.9965375830065656
100
AcDbArc
 50
103.1745923855
 51
141.9553753495
  0
ARC
  5
1AF
330
1F
100
AcDbEntity
  8
0
  6
Continuous
 62
     7
370
    15
100
AcDbCircle
 10
457.4497812316
 20
559.7207464564
 30
0.0
 40
1.041038564949815
100
AcDbArc
 50
38.7315499552
 51
104.5794643527
  0
ARC
  5
1B0
330
1F
100
AcDbEntity
  8
0
  6
Continuous
 62
     7
370
    15
100
AcDbCircle
 10
457.4459674797
 20
559.6659641536
 30
0.0
 40
1.049154395093172
100
AcDbArc
 50
40.5711164017
 51
139.4288835983
  0
LINE
  5
1B1
330
1F
100
AcDbEntity
  8
0
  6
Continuous
 62
     7
370
    15
100
AcDbLine
 10
445.4461336165
 20
555.0888619326
 30
0.0
 11
445.4459674686
 21
555.1468810938
 31
0.0
  0
LINE
  5
1B2
330
1F
100
AcDbEntity
  8
0
  6
Continuous
 62
     7
370
    15
100
AcDbLine
 10
469.4451510936
 20
555.2754423522
 30
0.0
 11
469.4459676772
 21
555.1468810938
 31
0.0
  0
ARC
  5
1B3
330
1F
100
AcDbEntity
  8
0
  6
Continuous
 62
     7
370
    15
100
AcDbCircle
 10
457.4518200357
 20
550.9071385074
 30
0.0
 40
13.16660802147613
100
AcDbArc
 50
272.8913289
 51
283.7715847738
  0
LWPOLYLINE
  5
1B4
330
1F
100
AcDbEntity
  8
0
  6
Continuous
 62
     7
370
    15
100
AcDbPolyline
 90
       19
 70
   128
 43
0.0
 10
456.7759674072
 20
537.7572915457
 10
456.7637417495
 20
537.7579173945
 10
455.9950951516
 20
537.8200880192
 10
455.232290717
 20
537.9268965624
 10
454.4784000173
 20
538.0779138707
 10
453.7364585354
 20
538.2725260161
 10
453.0094541639
 20
538.5099551581
 10
452.3003138631
 20
538.7892416619
 10
451.6118932545
 20
539.1092619799
 10
450.946964699
 20
539.4687286519
 10
450.3082051903
 20
539.8661962651
 10
449.6981866687
 20
540.3000584744
 10
449.1193659633
 20
540.7685688637
 10
448.5740736156
 20
541.2698469065
 10
448.0645053118
 20
541.8018690251
 10
447.5927129417
 20
542.3624954127
 10
447.1605956584
 20
542.9494670533
 10
446.7698939174
 20
543.5604206227
 10
446.6958425968
 20
543.6870506905
  0
LINE
  5
1B5
330
1F
100
AcDbEntity
  8
0
  6
Continuous
 62
     7
370
    15
100
AcDbLine
 10
445.4274885386
 20
550.6038150691
 30
0.0
 11
445.4459674686
 21
550.7106116913
 31
0.0
  0
LINE
  5
1B6
330
1F
100
AcDbEntity
  8
0
  6
Continuous
 62
     7
370
    15
100
AcDbLine
 10
469.4459676772
 20
550.7106116913
 30
0.0
 11
469.4644466072
 21
550.6038150691
 31
0.0
  0
ARC
  5
1B7
330
1F
100
AcDbEntity
  8
0
  6
Continuous
 62
     7
370
    15
100
AcDbCircle
 10
457.8548152889
 20
549.8363754464
 30
0.0
 40
12.03146750488238
100
AcDbArc
 50
283.1214737605
 51
329.2626408822
  0
LINE
  5
1B8
330
1F
100
AcDbEntity
  8
0
  6
Continuous
 62
     7
370
    15
100
AcDbLine
 10
712.6283374724
 20
579.9029622109
 30
0.0
 11
711.6808144147
 21
579.3559687928
 31
0.0
  0
LINE
  5
1B9
330
1F
100
AcDbEntity
  8
0
  6
Continuous
 62
     7
370
    15
100
AcDbLine
 10
724.6797580765
 20
556.8386981228
 30
0.0
 11
725.6272811342
 21
557.3856915409
 31
0.0
  0
LINE
  5
1BA
330
1F
100
AcDbEntity
  8
0
  6
Continuous
 62
     7
370
    15
100
AcDbLine
 10
710.8654775717
 20
560.6919943092
 30
0.0
 11
711.0306255194
 21
560.5966564283
 31
0.0
  0
LINE
  5
1BB
330
1F
100
AcDbEntity
  8
0
  6
Continuous
 62
     7
370
    15
100
AcDbLine
 10
696.9052865212
 20
569.7069290165
 30
0.0
 11
696.5299056149
 21
568.4855890487
 31
0.0
  0
LINE
  5
1BC
330
1F
100
AcDbEntity
  8
0
  6
Continuous
 62
     7
370
    15
100
AcDbLine
 10
711.8238394817
 20
563.7849906005
 30
0.0
 11
712.1992182806
 21
565.0063296559
 31
0.0
  0
LINE
  5
1BD
330
1F
100
AcDbEntity
  8
0
  6
Continuous
 62
     7
370
    15
100
AcDbLine
 10
712.461558705
 20
566.6986110366
 30
0.0
 11
712.1353349853
 21
566.8869359814
 31
0.0
  0
LINE
  5
1BE
330
1F
100
AcDbEntity
  8
0
  6
Continuous
 62
     7
370
    15
100
AcDbLine
 10
709.0698516572
 20
532.8552159348
 30
0.0
 11
709.3495265535
 21
533.1882632259
 31
0.0
  0
LINE
  5
1BF
330
1F
100
AcDbEntity
  8
0
  6
Continuous
 62
     7
370
    15
100
AcDbLine
 10
696.2404103712
 20
561.2491460994
 30
0.0
 11
696.5200848724
 21
561.582192478
 31
0.0
  0
LINE
  5
1C0
330
1F
100
AcDbEntity
  8
0
  6
Continuous
 62
     7
370
    15
100
AcDbLine
 10
687.3416070947
 20
560.5597762848
 30
0.0
 11
687.0619321983
 21
560.2267300583
 31
0.0
  0
LINE
  5
1C1
330
1F
100
AcDbEntity
  8
0
  6
Continuous
 62
     7
370
    15
100
AcDbLine
 10
685.9004485568
 20
536.3890291547
 30
0.0
 11
686.8479716145
 21
535.8420357366
 31
0.0
  0
LINE
  5
1C2
330
1F
100
AcDbEntity
  8
0
  6
Continuous
 62
     7
370
    15
100
AcDbLine
 10
698.4106017821
 20
531.7877484627
 30
0.0
 11
699.6377989459
 21
531.5738015751
 31
0.0
  0
LINE
  5
1C3
330
1F
100
AcDbEntity
  8
0
  6
Continuous
 62
     7
370
    15
100
AcDbLine
 10
696.5299056149
 20
568.4855890487
 30
0.0
 11
696.154526816
 21
567.264249689
 31
0.0
  0
LINE
  5
1C4
330
1F
100
AcDbEntity
  8
0
  6
Continuous
 62
     7
370
    15
100
AcDbLine
 10
711.4484596291
 20
562.5636509368
 30
0.0
 11
711.8238394817
 21
563.7849906005
 31
0.0
  0
LINE
  5
1C5
330
1F
100
AcDbEntity
  8
0
  6
Continuous
 62
     7
370
    15
100
AcDbLine
 10
707.696682308
 20
557.2821421476
 30
0.0
 11
707.2141954596
 21
557.7956195468
 31
0.0
  0
LINE
  5
1C6
330
1F
100
AcDbEntity
  8
0
  6
Continuous
 62
     7
370
    15
100
AcDbLine
 10
696.9720674124
 20
560.9393738609
 30
0.0
 11
692.4064328661
 21
559.9177782861
 31
0.0
  0
ARC
  5
1C7
330
1F
100
AcDbEntity
  8
0
  6
Continuous
 62
     7
370
    15
100
AcDbCircle
 10
691.8930872141
 20
556.6481679543
 30
0.0
 40
3.039800185142581
100
AcDbArc
 50
104.4198639857
 51
160.9846792898
  0
LWPOLYLINE
  5
1C8
330
1F
100
AcDbEntity
  8
0
  6
Continuous
 62
     7
370
    15
100
AcDbPolyline
 90
        3
 70
   128
 43
0.0
 10
711.9461185528
 20
550.594177986
 10
712.0123865695
 20
550.8220321649
 10
712.0523449429
 20
551.1363622491
  0
LINE
  5
1C9
330
1F
100
AcDbEntity
  8
0
  6
Continuous
 62
     7
370
    15
100
AcDbLine
 10
707.4281950292
 20
535.8679785916
 30
0.0
 11
711.9525380447
 21
550.5884407886
 31
0.0
  0
LINE
  5
1CA
330
1F
100
AcDbEntity
  8
0
  6
Continuous
 62
     7
370
    15
100
AcDbLine
 10
689.0116385616
 20
557.639338765
 30
0.0
 11
684.4872965998
 21
542.9188762637
 31
0.0
  0
ARC
  5
1CB
330
1F
100
AcDbEntity
  8
0
  6
Continuous
 62
     7
370
    15
100
AcDbCircle
 10
706.3618896401
 20
573.247275568
 30
0.0
 40
39.54475125524014
100
AcDbArc
 50
246.0627379667
 51
259.2005238477
  0
LWPOLYLINE
  5
1CC
330
1F
100
AcDbEntity
  8
0
  6
Continuous
 62
     7
370
    15
100
AcDbPolyline
 90
       15
 70
   128
 43
0.0
 10
700.9576570098
 20
534.0900081445
 10
701.4510353942
 20
534.0316649454
 10
702.1983179844
 20
533.9658079731
 10
702.9153012051
 20
533.9261142963
 10
703.5987840034
 20
533.9130002049
 10
704.2458287438
 20
533.9268601002
 10
704.8537875505
 20
533.9681145514
 10
705.4203212735
 20
534.0372954624
 10
705.9433878979
 20
534.1351817348
 10
706.4211255868
 20
534.262961711
 10
706.8515123451
 20
534.4223919985
 10
707.2312385914
 20
534.6154752325
 10
707.5541224369
 20
534.8426427009
 10
707.7893608571
 20
535.0729548991
 10
707.8518540968
 20
535.1617180106
  0
ARC
  5
1CD
330
1F
100
AcDbEntity
  8
0
  6
Continuous
 62
     7
370
    15
100
AcDbCircle
 10
706.1438097698
 20
536.1248762763
 30
0.0
 40
2.037374868241684
100
AcDbArc
 50
2.8222762089
 51
33.1504179711
  0
LWPOLYLINE
  5
1CE
330
1F
100
AcDbEntity
  8
0
  6
Continuous
 62
     7
370
    15
100
AcDbPolyline
 90
       17
 70
   128
 43
0.0
 10
684.9084547787
 20
544.2891614688
 10
684.8526001946
 20
544.2646184756
 10
684.5026538577
 20
544.0530536837
 10
684.2134996083
 20
543.8085179915
 10
684.0117942744
 20
543.566236712
 10
683.8528690454
 20
543.2781213563
 10
683.7603661959
 20
542.9767026255
 10
683.730225404
 20
542.6652008817
 10
683.7594257944
 20
542.3457566669
 10
683.8475116541
 20
542.0148018114
 10
683.9971039903
 20
541.6693708084
 10
684.210746102
 20
541.3098476741
 10
684.4879222171
 20
540.9400815279
 10
684.8252385922
 20
540.5646279918
 10
685.218070928
 20
540.1871657565
 10
685.6631875488
 20
539.8091051422
 10
686.0592773091
 20
539.5067253209
  0
ARC
  5
1CF
330
1F
100
AcDbEntity
  8
0
  6
Continuous
 62
     7
370
    15
100
AcDbCircle
 10
701.6671249058
 20
562.6410402622
 30
0.0
 40
27.94592256482003
100
AcDbArc
 50
240.842257867
 51
246.0373908374
  0
LINE
  5
1D0
330
1F
100
AcDbEntity
  8
0
  6
Continuous
 62
     7
370
    15
100
AcDbLine
 10
707.2170970067
 20
558.3271336652
 30
0.0
 11
708.2338560095
 21
561.6352746329
 31
0.0
  0
LWPOLYLINE
  5
1D1
330
1F
100
AcDbEntity
  8
0
  6
Continuous
 62
     7
370
    15
100
AcDbPolyline
 90
        7
 70
   128
 43
0.0
 10
707.2279363858
 20
557.7611054656
 10
707.2298693457
 20
557.7581333275
 10
707.2128867999
 20
557.7987495555
 10
707.1860171303
 20
557.904456215
 10
707.1746261542
 20
558.0703585519
 10
707.2042061296
 20
558.2812569984
 10
707.2212163343
 20
558.3250259594
  0
LWPOLYLINE
  5
1D2
330
1F
100
AcDbEntity
  8
0
  6
Continuous
 62
     7
370
    15
100
AcDbPolyline
 90
       12
 70
   128
 43
0.0
 10
719.127809435
 20
579.2593574213
 10
718.4489283482
 20
579.622279502
 10
717.7737550934
 20
579.9252434075
 10
717.1059771699
 20
580.1665949184
 10
716.4492418154
 20
580.3450157605
 10
715.8071358954
 20
580.4595321722
 10
715.1831661595
 20
580.5095171765
 10
714.5807409706
 20
580.4946993039
 10
714.0031502853
 20
580.4151583314
 10
713.4535485318
 20
580.271329692
 10
712.9349378829
 20
580.0639977044
 10
712.6283374724
 20
579.9029622109
  0
LWPOLYLINE
  5
1D3
330
1F
100
AcDbEntity
  8
0
  6
Continuous
 62
     7
370
    15
100
AcDbPolyline
 90
       33
 70
   128
 43
0.0
 10
725.6272811342
 20
557.3856915409
 10
726.0343438265
 20
557.6521503062
 10
726.4634935747
 20
558.0125410868
 10
726.8525785288
 20
558.4309994878
 10
727.1994734338
 20
558.9052396627
 10
727.502283789
 20
559.4326709927
 10
727.7593553305
 20
560.0104132976
 10
727.9692845682
 20
560.635310829
 10
728.1309240543
 20
561.3039514342
 10
728.2433929195
 20
562.0126817668
 10
728.3060747663
 20
562.7576325339
 10
728.3186282051
 20
563.5347341622
 10
728.2809847474
 20
564.3397425021
 10
728.1933498589
 20
565.1682611085
 10
728.0562019065
 20
566.0157648492
 10
727.8702900504
 20
566.8776249853
 10
727.6366300296
 20
567.7491340662
 10
727.35649784
 20
568.6255322892
 10
727.0314234121
 20
569.5020333683
 10
726.663182182
 20
570.3738497478
 10
726.2537850811
 20
571.2362200541
 10
725.8054690535
 20
572.0844341899
 10
725.3206812505
 20
572.9138602533
 10
724.8020706016
 20
573.7199673507
 10
724.2524688482
 20
574.4983526678
 10
723.6748778995
 20
575.2447658028
 10
723.0724524471
 20
575.9551291455
 10
722.4484831063
 20
576.6255640356
 10
721.8063771863
 20
577.2524073389
 10
721.1496418318
 20
577.8322369973
 10
720.4818637396
 20
578.361885563
 10
719.8066905877
 20
578.8384600453
 10
719.127809435
 20
579.2593574213
  0
LWPOLYLINE
  5
1D4
330
1F
100
AcDbEntity
  8
0
  6
Continuous
 62
     7
370
    15
100
AcDbPolyline
 90
       30
 70
   128
 43
0.0
 10
718.1802863773
 20
578.7123640032
 10
717.5014052905
 20
579.0752860839
 10
716.8262320357
 20
579.3782499893
 10
716.1584541122
 20
579.6196015003
 10
715.5017187577
 20
579.7980223424
 10
714.8596128377
 20
579.912538754
 10
714.2356431018
 20
579.9625237584
 10
713.6332179128
 20
579.9477058858
 10
713.0556272276
 20
579.8681649133
 10
712.5060254741
 20
579.7243362738
 10
711.9874148252
 20
579.5170042863
 10
711.5026270222
 20
579.2473023062
 10
711.0543104678
 20
578.9167031422
 10
710.6449138938
 20
578.5270123632
 10
710.2766726637
 20
578.0803582582
 10
709.9515982358
 20
577.5791801245
 10
709.6714655193
 20
577.0262159474
 10
709.4378060253
 20
576.4244846799
 10
709.2518941692
 20
575.777273804
 10
709.1147462168
 20
575.0881177186
 10
709.0271113284
 20
574.3607802006
 10
708.9894678706
 20
573.599234072
 10
709.0020213095
 20
572.8076385517
 10
709.0647036831
 20
571.9903165607
 10
709.1771714946
 20
571.1517330485
 10
709.3388120344
 20
570.2964668568
 10
709.5487407453
 20
569.4291904909
 10
709.8058128136
 20
568.5546393978
 10
710.1086226419
 20
567.6775909776
 10
710.1546016926
 20
567.554806695
  0
LWPOLYLINE
  5
1D5
330
1F
100
AcDbEntity
  8
0
  6
Continuous
 62
     7
370
    15
100
AcDbPolyline
 90
       52
 70
   128
 43
0.0
 10
713.6969755579
 20
561.4185705543
 10
713.9315288285
 20
561.1369586296
 10
714.5451453228
 20
560.4460885218
 10
715.1786158804
 20
559.7970051272
 10
715.8284803107
 20
559.1932560989
 10
716.4911895365
 20
558.6381386515
 10
717.163124016
 20
558.1346840592
 10
717.8406139275
 20
557.6856411366
 10
718.519958893
 20
557.2934636357
 10
719.1974488045
 20
556.9602933564
 10
719.8693833663
 20
556.6879488645
 10
720.5320925097
 20
556.477918574
 10
721.1819568743
 20
556.33135014
 10
721.8154271684
 20
556.2490441489
 10
722.4290436627
 20
556.2314477325
 10
723.0194551559
 20
556.2786594366
 10
723.5834363604
 20
556.3904216177
 10
724.117907922
 20
556.566121054
 10
724.6199501179
 20
556.8048011132
 10
725.0868207688
 20
557.1051568881
 10
725.515970517
 20
557.4655476687
 10
725.9050554711
 20
557.8840060697
 10
726.2519503761
 20
558.3582462445
 10
726.5547607313
 20
558.8856775745
 10
726.8118322727
 20
559.4634198795
 10
727.0217615105
 20
560.0883174108
 10
727.1834009966
 20
560.756958016
 10
727.2958698618
 20
561.4656883487
 10
727.3585517086
 20
562.2106391158
 10
727.3711051474
 20
562.9877407441
 10
727.3334616897
 20
563.7927490839
 10
727.2458268012
 20
564.6212676904
 10
727.1086788488
 20
565.4687714311
 10
726.9227669927
 20
566.3306315672
 10
726.6891069719
 20
567.2021406481
 10
726.4089747823
 20
568.0785388711
 10
726.0839003544
 20
568.9550399502
 10
725.7156591243
 20
569.8268563297
 10
725.3062620234
 20
570.6892266359
 10
724.8579459958
 20
571.5374407718
 10
724.3731581928
 20
572.3668668351
 10
723.8545475439
 20
573.1729739326
 10
723.3049457905
 20
573.9513592497
 10
722.7273548418
 20
574.6977723847
 10
722.1249293894
 20
575.4081357274
 10
721.5009600486
 20
576.0785706175
 10
720.8588541286
 20
576.7054139208
 10
720.2021187741
 20
577.2852435791
 10
719.5343406819
 20
577.8148921449
 10
718.85916753
 20
578.2914666271
 10
718.1802863773
 20
578.7123640032
 10
718.1802863773
 20
578.7123640032
  0
LWPOLYLINE
  5
1D6
330
1F
100
AcDbEntity
  8
0
  6
Continuous
 62
     7
370
    15
100
AcDbPolyline
 90
       20
 70
   128
 43
0.0
 10
718.1802863773
 20
572.7516160119
 10
718.0195683267
 20
572.8134268685
 10
717.876266671
 20
572.8065999787
 10
717.7659101531
 20
572.7318755134
 10
717.7004577438
 20
572.5973507488
 10
717.6870022965
 20
572.4176036255
 10
717.7270017631
 20
572.2121125108
 10
717.8161216694
 20
572.0031455946
 10
717.9447044602
 20
571.8133475672
 10
718.0988162557
 20
571.6632861213
 10
718.2617566306
 20
571.569222645
 10
718.4158684261
 20
571.5413503993
 10
718.5444512169
 20
571.5826898965
 10
718.6335711232
 20
571.688761159
 10
718.6735705898
 20
571.8480698727
 10
718.6601150767
 20
572.0433523627
 10
718.5946627332
 20
572.2534468326
 10
718.4843062153
 20
572.4555862214
 10
718.3410044279
 20
572.6278657571
 10
718.1802863773
 20
572.7516160119
  0
ARC
  5
1D7
330
1F
100
AcDbEntity
  8
0
  6
Continuous
 62
     7
370
    15
100
AcDbCircle
 10
711.9198842195
 20
569.7766324285
 30
0.0
 40
3.05865838483953
100
AcDbArc
 50
10.0866511776
 51
57.0369943883
  0
LWPOLYLINE
  5
1D8
330
1F
100
AcDbEntity
  8
0
  6
Continuous
 62
     7
370
    15
100
AcDbPolyline
 90
       17
 70
   128
 43
0.0
 10
713.2899897836
 20
569.3648278249
 10
713.1956229898
 20
569.4471612837
 10
712.9522628718
 20
569.7001547946
 10
712.7317387066
 20
569.991116254
 10
712.5420207267
 20
570.3095296642
 10
712.3899662242
 20
570.6438868232
 10
712.281070358
 20
570.9821028183
 10
712.2192688536
 20
571.3119541863
 10
712.2067960206
 20
571.6215184473
 10
712.2441017767
 20
571.8996080179
 10
712.3298390033
 20
572.1361711252
 10
712.4609075362
 20
572.3226586586
 10
712.6325711234
 20
572.452330039
 10
712.8386252218
 20
572.5204984839
 10
713.0716224834
 20
572.5247003071
 10
713.3231417044
 20
572.4647837665
 10
713.5840923365
 20
572.3429142639
  0
LWPOLYLINE
  5
1D9
330
1F
100
AcDbEntity
  8
0
  6
Continuous
 62
     7
370
    15
100
AcDbPolyline
 90
       34
 70
   128
 43
0.0
 10
722.7764806816
 20
567.0362614275
 10
722.5155300495
 20
567.1581309302
 10
722.2640108285
 20
567.2180474707
 10
722.0310135669
 20
567.2138456475
 10
721.824959205
 20
567.1456773548
 10
721.6532956179
 20
567.0160059743
 10
721.5222268215
 20
566.829518593
 10
721.4364901218
 20
566.5929551816
 10
721.3991838388
 20
566.3148659151
 10
721.4116571986
 20
566.0053013499
 10
721.4734581763
 20
565.6754502861
 10
721.5823540425
 20
565.337234291
 10
721.7344088083
 20
565.0028769799
 10
721.9241270517
 20
564.6844634177
 10
722.1446509535
 20
564.3935021104
 10
722.3880110715
 20
564.1405085994
 10
722.6454118852
 20
563.9346264737
 10
722.9075494779
 20
563.7832976625
 10
723.1649497648
 20
563.6919914387
 10
723.4083098828
 20
563.6640073382
 10
723.6288343114
 20
563.700356864
 10
723.818552028
 20
563.799726709
 10
723.9706067938
 20
563.9585253243
 10
724.07950266
 20
564.1710128285
 10
724.1413041645
 20
564.4295096982
 10
724.1537769975
 20
564.7246731329
 10
724.1164707145
 20
565.0458353168
 10
724.0307340148
 20
565.3813882146
 10
723.8996652184
 20
565.7192044071
 10
723.7280016313
 20
566.0470743465
 10
723.5219477962
 20
566.3531476374
 10
723.2889505346
 20
566.6263623727
 10
723.0374313136
 20
566.8568437435
 10
722.7764806816
 20
567.0362614275
  0
LWPOLYLINE
  5
1DA
330
1F
100
AcDbEntity
  8
0
  6
Continuous
 62
     7
370
    15
100
AcDbPolyline
 90
       11
 70
   128
 43
0.0
 10
723.7240037393
 20
564.3987456897
 10
723.4630531072
 20
564.5781633737
 10
723.2115338862
 20
564.8086445924
 10
722.9785366246
 20
565.0818594798
 10
722.7724822627
 20
565.3879331509
 10
722.6008186756
 20
565.7158027861
 10
722.4697498792
 20
566.0536191306
 10
722.3840131795
 20
566.3891720285
 10
722.3467068965
 20
566.7103342124
 10
722.3591802564
 20
567.005497495
 10
722.3981307932
 20
567.1935634708
  0
LWPOLYLINE
  5
1DB
330
1F
100
AcDbEntity
  8
0
  6
Continuous
 62
     7
370
    15
100
AcDbPolyline
 90
        3
 70
   128
 43
0.0
 10
724.1023533642
 20
564.2414438527
 10
723.9849543713
 20
564.276876187
 10
723.7240037393
 20
564.3987456897
  0
LWPOLYLINE
  5
1DC
330
1F
100
AcDbEntity
  8
0
  6
Continuous
 62
     7
370
    15
100
AcDbPolyline
 90
       10
 70
   128
 43
0.0
 10
713.2057424482
 20
572.5002163071
 10
713.1667919113
 20
572.3121503314
 10
713.1543190783
 20
572.0169867446
 10
713.1916248344
 20
571.6958248649
 10
713.277362061
 20
571.3602716628
 10
713.4084305939
 20
571.0224554703
 10
713.5800941811
 20
570.6945858351
 10
713.7861482795
 20
570.3885123161
 10
714.0191455411
 20
570.1152974287
 10
714.2375128414
 20
569.911821243
  0
LINE
  5
1DD
330
1F
100
AcDbEntity
  8
0
  6
Continuous
 62
     7
370
    15
100
AcDbLine
 10
712.9971935197
 20
567.0078265272
 30
0.0
 11
718.6540479062
 21
570.2734590536
 31
0.0
  0
LINE
  5
1DE
330
1F
100
AcDbEntity
  8
0
  6
Continuous
 62
     7
370
    15
100
AcDbLine
 10
712.049670462
 20
567.2282036051
 30
0.0
 11
712.7143049262
 21
566.8445182959
 31
0.0
  0
LINE
  5
1DF
330
1F
100
AcDbEntity
  8
0
  6
Continuous
 62
     7
370
    15
100
AcDbLine
 10
712.049670462
 20
567.2282036051
 30
0.0
 11
712.049670462
 21
567.5548199454
 31
0.0
  0
LINE
  5
1E0
330
1F
100
AcDbEntity
  8
0
  6
Continuous
 62
     7
370
    15
100
AcDbLine
 10
712.049670462
 20
567.5548199454
 30
0.0
 11
712.9971935197
 21
567.0078265272
 31
0.0
  0
LINE
  5
1E1
330
1F
100
AcDbEntity
  8
0
  6
Continuous
 62
     7
370
    15
100
AcDbLine
 10
712.049670462
 20
567.5548199454
 30
0.0
 11
717.7065248485
 21
570.8204524717
 31
0.0
  0
LINE
  5
1E2
330
1F
100
AcDbEntity
  8
0
  6
Continuous
 62
     7
370
    15
100
AcDbLine
 10
717.7065248485
 20
570.8204524717
 30
0.0
 11
718.6540479062
 21
570.2734590536
 31
0.0
  0
LINE
  5
1E3
330
1F
100
AcDbEntity
  8
0
  6
Continuous
 62
     7
370
    15
100
AcDbLine
 10
711.0735821143
 20
566.9913361363
 30
0.0
 11
717.7065248485
 21
570.8204524717
 31
0.0
  0
LINE
  5
1E4
330
1F
100
AcDbEntity
  8
0
  6
Continuous
 62
     7
370
    15
100
AcDbLine
 10
716.7590017907
 20
571.3674458899
 30
0.0
 11
717.7065248485
 21
570.8204524717
 31
0.0
  0
LINE
  5
1E5
330
1F
100
AcDbEntity
  8
0
  6
Continuous
 62
     7
370
    15
100
AcDbLine
 10
710.1271901726
 20
567.5389825338
 30
0.0
 11
716.7590017907
 21
571.3674458899
 31
0.0
  0
LWPOLYLINE
  5
1E6
330
1F
100
AcDbEntity
  8
0
  6
Continuous
 62
     7
370
    15
100
AcDbPolyline
 90
       19
 70
   128
 43
0.0
 10
712.5305033101
 20
563.684727202
 10
712.3853964522
 20
563.5714126834
 10
712.2577915999
 20
563.4126736177
 10
712.1630797288
 20
563.2276557997
 10
712.112684742
 20
563.038675766
 10
712.112684742
 20
562.8685267569
 10
712.1630797288
 20
562.7377313844
 10
712.2577915999
 20
562.6620655651
 10
712.3853964522
 20
562.6506557738
 10
712.5305033101
 20
562.7048783713
 10
712.675610168
 20
562.8181925858
 10
712.8032150202
 20
562.9769318035
 10
712.8979263645
 20
563.1619493174
 10
712.9483218781
 20
563.3509298073
 10
712.9483218781
 20
563.5210788165
 10
712.8979263645
 20
563.6518737328
 10
712.8032150202
 20
563.7275398561
 10
712.675610168
 20
563.7389494954
 10
712.5305033101
 20
563.684727202
  0
LINE
  5
1E7
330
1F
100
AcDbEntity
  8
0
  6
Continuous
 62
     7
370
    15
100
AcDbLine
 10
712.5305033101
 20
560.7451804058
 30
0.0
 11
719.6015709639
 21
564.8272208737
 31
0.0
  0
LINE
  5
1E8
330
1F
100
AcDbEntity
  8
0
  6
Continuous
 62
     7
370
    15
100
AcDbLine
 10
712.5305033101
 20
565.6444251676
 30
0.0
 11
712.2087295073
 21
565.4303240082
 31
0.0
  0
LWPOLYLINE
  5
1E9
330
1F
100
AcDbEntity
  8
0
  6
Continuous
 62
     7
370
    15
100
AcDbPolyline
 90
        7
 70
   128
 43
0.0
 10
710.8712292994
 20
560.7107091833
 10
711.0305032936
 20
560.5967264023
 10
711.2836225143
 20
560.4932076063
 10
711.5674436069
 20
560.4562106147
 10
711.8749791506
 20
560.4866474221
 10
712.1986553568
 20
560.5837674016
 10
712.5305033101
 20
560.7451804058
  0
LINE
  5
1EA
330
1F
100
AcDbEntity
  8
0
  6
Continuous
 62
     7
370
    15
100
AcDbLine
 10
719.6015709639
 20
569.7264656355
 30
0.0
 11
712.5305033101
 21
565.6444251676
 31
0.0
  0
LINE
  5
1EB
330
1F
100
AcDbEntity
  8
0
  6
Continuous
 62
     7
370
    15
100
AcDbLine
 10
719.6015709639
 20
564.8272208737
 30
0.0
 11
719.6015709639
 21
569.7264656355
 31
0.0
  0
LINE
  5
1EC
330
1F
100
AcDbEntity
  8
0
  6
Continuous
 62
     7
370
    15
100
AcDbLine
 10
719.6015709639
 20
569.7264656355
 30
0.0
 11
718.6540479062
 21
570.2734590536
 31
0.0
  0
LINE
  5
1ED
330
1F
100
AcDbEntity
  8
0
  6
Continuous
 62
     7
370
    15
100
AcDbLine
 10
718.6540479062
 20
570.2734590536
 30
0.0
 11
711.7209363706
 21
566.2710589576
 31
0.0
  0
LWPOLYLINE
  5
1EE
330
1F
100
AcDbEntity
  8
0
  6
Continuous
 62
     7
370
    15
100
AcDbPolyline
 90
       68
 70
   128
 43
0.0
 10
709.3151252421
 20
564.06719515
 10
708.7300690329
 20
564.092122386
 10
708.108298177
 20
564.1457381244
 10
707.4552764867
 20
564.227571536
 10
706.7767427821
 20
564.3369024116
 10
706.0786603156
 20
564.4727708968
 10
705.3671651413
 20
564.633984186
 10
704.6485065833
 20
564.8191229112
 10
703.929002981
 20
565.0265618262
 10
703.2149763616
 20
565.2544771078
 10
702.5127000202
 20
565.5008656705
 10
701.8283505774
 20
565.7635643285
 10
701.1679363298
 20
566.0402613547
 10
700.5372640596
 20
566.3285265913
 10
699.9418768675
 20
566.6258284827
 10
699.3870053092
 20
566.9295519434
 10
698.8775246555
 20
567.2370272899
 10
698.4179161372
 20
567.5455556557
 10
698.0122156936
 20
567.8524227614
 10
697.6639879439
 20
568.1549327987
 10
697.3762948072
 20
568.4504271513
 10
697.1516651438
 20
568.7363092203
 10
696.9920718872
 20
569.0100673563
 10
696.8989176056
 20
569.2692941416
 10
696.873022055
 20
569.511713039
 10
696.9146099309
 20
569.7351921518
 10
697.0233190339
 20
569.9377693124
 10
697.1981928938
 20
570.1176630293
 10
697.4376934141
 20
570.2732925577
 10
697.7397177306
 20
570.4032900615
 10
698.1016100648
 20
570.5065132328
 10
698.5201917542
 20
570.5820559335
 10
698.9917828521
 20
570.6292530586
 10
699.5122395329
 20
570.6476902653
 10
700.0769883369
 20
570.637205491
 10
700.6810662091
 20
570.5978910787
 10
701.3191639638
 20
570.5300921018
 10
701.9856736993
 20
570.4344045359
 10
702.6747385842
 20
570.3116693257
 10
703.3803034335
 20
570.1629653867
 10
704.0961671286
 20
569.9895991101
 10
704.8160403061
 20
569.7930947801
 10
705.5335940899
 20
569.5751779962
 10
706.2425237064
 20
569.3377646461
 10
706.9365996541
 20
569.0829412492
 10
707.6097208143
 20
568.8129463075
 10
708.2559739677
 20
568.5301538904
 10
708.8696790197
 20
568.23704859
 10
709.4454410586
 20
567.9362055043
 10
709.9782021168
 20
567.6302693271
 10
710.4632798111
 20
567.321928392
 10
710.8964115145
 20
567.0138928216
 10
711.273789918
 20
566.7088686766
 10
711.5921000401
 20
566.4095375033
 10
711.8485422765
 20
566.1185288859
 10
712.0408662487
 20
565.8384012111
 10
712.1673789708
 20
565.5716155138
 10
712.2269693462
 20
565.3205170789
 10
712.219115281
 20
565.0873117196
 10
712.1438831564
 20
564.874049053
 10
712.0019362585
 20
564.6826034935
 10
711.7945216071
 20
564.5146575276
 10
711.5234604729
 20
564.3716865099
 10
711.1911362602
 20
564.2549474127
 10
710.8004702725
 20
564.1654660554
 10
710.3548937901
 20
564.1040288957
 10
709.8583243624
 20
564.0711751247
 10
709.3151252421
 20
564.06719515
  0
LWPOLYLINE
  5
1EF
330
1F
100
AcDbEntity
  8
0
  6
Continuous
 62
     7
370
    15
100
AcDbPolyline
 90
       24
 70
   128
 43
0.0
 10
705.1476114073
 20
566.94545012
 10
704.9223656097
 20
566.9644697894
 10
704.6696693062
 20
567.0125733891
 10
704.4082658589
 20
567.0861948695
 10
704.1575412377
 20
567.1798733748
 10
703.936090237
 20
567.2866606854
 10
703.7603370884
 20
567.3986371425
 10
703.6433162977
 20
567.5074980743
 10
703.5937078106
 20
567.6051700818
 10
703.615189269
 20
567.6844084854
 10
703.7061694319
 20
567.7393374231
 10
703.8598992057
 20
567.7658826496
 10
704.0649775388
 20
567.7620752185
 10
704.3061950822
 20
567.728197884
 10
704.5656606305
 20
567.6667624788
 10
704.8241332913
 20
567.5823265628
 10
705.0624409241
 20
567.4811517047
 10
705.2629100383
 20
567.3707414178
 10
705.4106730696
 20
567.2592841489
 10
705.4947710472
 20
567.155046828
 10
705.5089663692
 20
567.0657599995
 10
705.4522068132
 20
566.9980455527
 10
705.3287015322
 20
566.9569255219
 10
705.1476114073
 20
566.94545012
  0
LWPOLYLINE
  5
1F0
330
1F
100
AcDbEntity
  8
0
  6
Continuous
 62
     7
370
    15
100
AcDbPolyline
 90
       26
 70
   128
 43
0.0
 10
708.9397453895
 20
562.8458554862
 10
708.3546891803
 20
562.8707827223
 10
707.7329183244
 20
562.9243984606
 10
707.0798966341
 20
563.0062318722
 10
706.4013629296
 20
563.1155627478
 10
705.703280463
 20
563.2514315373
 10
704.991784235
 20
563.4126436098
 10
704.273125677
 20
563.5977829433
 10
703.5536220747
 20
563.80522125
 10
702.8395954553
 20
564.03313714
 10
702.1373212213
 20
564.2795263109
 10
701.4529696711
 20
564.5422237523
 10
700.7925575309
 20
564.8189219951
 10
700.1618852607
 20
565.1071878401
 10
699.5664980686
 20
565.4044891231
 10
699.0116265103
 20
565.7082125837
 10
698.5021458566
 20
566.0156885387
 10
698.0425373383
 20
566.324216296
 10
697.6368347873
 20
566.6310827936
 10
697.288609145
 20
566.9335934391
 10
697.0009160083
 20
567.2290877917
 10
696.7762863449
 20
567.5149704691
 10
696.6166930883
 20
567.7887279967
 10
696.5235388066
 20
568.0479553903
 10
696.4976411487
 20
568.2903730712
 10
696.5299056149
 20
568.4855890487
  0
LWPOLYLINE
  5
1F1
330
1F
100
AcDbEntity
  8
0
  6
Continuous
 62
     7
370
    15
100
AcDbPolyline
 90
       10
 70
   128
 43
0.0
 10
711.8238394817
 20
563.7849906005
 10
711.7685033038
 20
563.6527095414
 10
711.6265564059
 20
563.4612639819
 10
711.4191417545
 20
563.2933178639
 10
711.1480806203
 20
563.1503468461
 10
710.8157574613
 20
563.0336083572
 10
710.4250914736
 20
562.944127
 10
709.9795149911
 20
562.8826898403
 10
709.4829455635
 20
562.8498360693
 10
708.9397453895
 20
562.8458554862
  0
LINE
  5
1F2
330
1F
100
AcDbEntity
  8
0
  6
Continuous
 62
     7
370
    15
100
AcDbLine
 10
712.021105172
 20
566.4443427182
 30
0.0
 11
711.5912884499
 21
566.4103707951
 31
0.0
  0
LINE
  5
1F3
330
1F
100
AcDbEntity
  8
0
  6
Continuous
 62
     7
370
    15
100
AcDbLine
 10
711.4758585051
 20
567.0231313091
 30
0.0
 11
710.9399002133
 21
566.9807701422
 31
0.0
  0
LINE
  5
1F4
330
1F
100
AcDbEntity
  8
0
  6
Continuous
 62
     7
370
    15
100
AcDbLine
 10
708.5957443925
 20
560.837771842
 30
0.0
 11
708.6589762556
 21
560.8427700587
 31
0.0
  0
ARC
  5
1F5
330
1F
100
AcDbEntity
  8
0
  6
Continuous
 62
     7
370
    15
100
AcDbCircle
 10
708.746289746
 20
560.223036212
 30
0.0
 40
0.6329010967506412
100
AcDbArc
 50
103.7605962656
 51
201.5850104164
  0
LINE
  5
1F6
330
1F
100
AcDbEntity
  8
0
  6
Continuous
 62
     7
370
    15
100
AcDbLine
 10
710.7027117111
 20
556.8612432634
 30
0.0
 11
710.253060682
 21
557.4140805321
 31
0.0
  0
LINE
  5
1F7
330
1F
100
AcDbEntity
  8
0
  6
Continuous
 62
     7
370
    15
100
AcDbLine
 10
708.3313477287
 20
559.7767951751
 30
0.0
 11
708.1577722552
 21
559.9902037374
 31
0.0
  0
ARC
  5
1F8
330
1F
100
AcDbEntity
  8
0
  6
Continuous
 62
     7
370
    15
100
AcDbCircle
 10
709.8795326464
 20
556.2356681466
 30
0.0
 40
1.033909086526406
100
AcDbArc
 50
10.0259211358
 51
37.2330262577
  0
LINE
  5
1F9
330
1F
100
AcDbEntity
  8
0
  6
Continuous
 62
     7
370
    15
100
AcDbLine
 10
707.1861282926
 20
558.1523665209
 30
0.0
 11
707.6954392394
 21
557.5261779209
 31
0.0
  0
ARC
  5
1FA
330
1F
100
AcDbEntity
  8
0
  6
Continuous
 62
     7
370
    15
100
AcDbCircle
 10
711.5917670595
 20
565.9196409425
 30
0.0
 40
1.109561076303649
100
AcDbArc
 50
60.6663490189
 51
95.9962532847
  0
LINE
  5
1FB
330
1F
100
AcDbEntity
  8
0
  6
Continuous
 62
     7
370
    15
100
AcDbLine
 10
709.9455114406
 20
558.2756918387
 30
0.0
 11
711.5066781246
 21
563.3551226312
 31
0.0
  0
ARC
  5
1FC
330
1F
100
AcDbEntity
  8
0
  6
Continuous
 62
     7
370
    15
100
AcDbCircle
 10
711.8391635197
 20
557.7196059519
 30
0.0
 40
1.973613363897032
100
AcDbArc
 50
163.6347071572
 51
219.002367846
  0
LINE
  5
1FD
330
1F
100
AcDbEntity
  8
0
  6
Continuous
 62
     7
370
    15
100
AcDbLine
 10
714.0947369676
 20
551.6898953696
 30
0.0
 11
710.305429195
 21
556.4775074327
 31
0.0
  0
ARC
  5
1FE
330
1F
100
AcDbEntity
  8
0
  6
Continuous
 62
     7
370
    15
100
AcDbCircle
 10
712.5610037383
 20
550.4477964208
 30
0.0
 40
1.973612783025825
100
AcDbArc
 50
343.6347060017
 51
39.0023975517
  0
LINE
  5
1FF
330
1F
100
AcDbEntity
  8
0
  6
Continuous
 62
     7
370
    15
100
AcDbLine
 10
709.4122463325
 20
533.4856605048
 30
0.0
 11
714.4546552488
 21
549.8917106594
 31
0.0
  0
ARC
  5
200
330
1F
100
AcDbEntity
  8
0
  6
Continuous
 62
     7
370
    15
100
AcDbCircle
 10
707.6407199332
 20
534.0583103114
 30
0.0
 40
1.861782367595676
100
AcDbArc
 50
249.1471667499
 51
342.0864594779
  0
LINE
  5
201
330
1F
100
AcDbEntity
  8
0
  6
Continuous
 62
     7
370
    15
100
AcDbLine
 10
705.8535861347
 20
532.711908308
 30
0.0
 11
706.9779834471
 21
532.3184787292
 31
0.0
  0
ARC
  5
202
330
1F
100
AcDbEntity
  8
0
  6
Continuous
 62
     7
370
    15
100
AcDbCircle
 10
706.5467301266
 20
534.692253655
 30
0.0
 40
2.098145916534091
100
AcDbArc
 50
200.8540639
 51
250.7093578565
  0
LINE
  5
203
330
1F
100
AcDbEntity
  8
0
  6
Continuous
 62
     7
370
    15
100
AcDbLine
 10
706.8823533015
 20
534.3708728744
 30
0.0
 11
706.812085022
 21
534.4014455126
 31
0.0
  0
LINE
  5
204
330
1F
100
AcDbEntity
  8
0
  6
Continuous
 62
     7
370
    15
100
AcDbLine
 10
707.0697529414
 20
534.3053020384
 30
0.0
 11
706.8823533015
 21
534.3708728744
 31
0.0
  0
ARC
  5
205
330
1F
100
AcDbEntity
  8
0
  6
Continuous
 62
     7
370
    15
100
AcDbCircle
 10
707.2354373762
 20
534.7402557835
 30
0.0
 40
0.4654418248254938
100
AcDbArc
 50
249.1469488289
 51
342.0869252375
  0
LINE
  5
206
330
1F
100
AcDbEntity
  8
0
  6
Continuous
 62
     7
370
    15
100
AcDbLine
 10
712.2832443452
 20
549.5797493805
 30
0.0
 11
707.6783165554
 21
534.5970980907
 31
0.0
  0
ARC
  5
207
330
1F
100
AcDbEntity
  8
0
  6
Continuous
 62
     7
370
    15
100
AcDbCircle
 10
710.3895990829
 20
550.135836871
 30
0.0
 40
1.973607275178433
100
AcDbArc
 50
343.6346067272
 51
39.0024397259
  0
LINE
  5
208
330
1F
100
AcDbEntity
  8
0
  6
Continuous
 62
     7
370
    15
100
AcDbLine
 10
708.1340188182
 20
556.1655461537
 30
0.0
 11
711.9233271176
 21
551.3779334824
 31
0.0
  0
ARC
  5
209
330
1F
100
AcDbEntity
  8
0
  6
Continuous
 62
     7
370
    15
100
AcDbCircle
 10
709.6677507296
 20
557.4076432684
 30
0.0
 40
1.973610604598784
100
AcDbArc
 50
163.634622733
 51
219.0023802504
  0
LINE
  5
20A
330
1F
100
AcDbEntity
  8
0
  6
Continuous
 62
     7
370
    15
100
AcDbLine
 10
708.8989266936
 20
561.6234751884
 30
0.0
 11
707.7741021175
 21
557.9637311681
 31
0.0
  0
LINE
  5
20B
330
1F
100
AcDbEntity
  8
0
  6
Continuous
 62
     7
370
    15
100
AcDbLine
 10
710.2251879174
 20
558.6087395859
 30
0.0
 11
711.7863535478
 21
563.6881697701
 31
0.0
  0
LINE
  5
20C
330
1F
100
AcDbEntity
  8
0
  6
Continuous
 62
     7
370
    15
100
AcDbLine
 10
714.3744129176
 20
552.0229420523
 30
0.0
 11
710.5851046181
 21
556.8105544194
 31
0.0
  0
ARC
  5
20D
330
1F
100
AcDbEntity
  8
0
  6
Continuous
 62
     7
370
    15
100
AcDbCircle
 10
712.1188349084
 20
558.0526512567
 30
0.0
 40
1.973609170094528
100
AcDbArc
 50
163.6345975066
 51
219.0024036116
  0
ARC
  5
20E
330
1F
100
AcDbEntity
  8
0
  6
Continuous
 62
     7
370
    15
100
AcDbCircle
 10
712.8406788738
 20
550.7808429405
 30
0.0
 40
1.973613518569304
100
AcDbArc
 50
343.6347172048
 51
39.0023863486
  0
LINE
  5
20F
330
1F
100
AcDbEntity
  8
0
  6
Continuous
 62
     7
370
    15
100
AcDbLine
 10
709.6919212288
 20
533.8187053625
 30
0.0
 11
714.7343311988
 21
550.2247573421
 31
0.0
  0
LWPOLYLINE
  5
210
330
1F
100
AcDbEntity
  8
0
  6
Continuous
 62
     7
370
    15
100
AcDbPolyline
 90
        3
 70
   128
 43
0.0
 10
709.3495265535
 20
533.1882632259
 10
709.5466104855
 20
533.4756770712
 10
709.6919212288
 20
533.8187053625
  0
ARC
  5
211
330
1F
100
AcDbEntity
  8
0
  6
Continuous
 62
     7
370
    15
100
AcDbCircle
 10
707.5145790261
 20
535.099643446
 30
0.0
 40
0.4899667237257145
100
AcDbArc
 50
250.3019034327
 51
291.287309944
  0
LINE
  5
212
330
1F
100
AcDbEntity
  8
0
  6
Continuous
 62
     7
370
    15
100
AcDbLine
 10
707.3494288914
 20
534.6383487209
 30
0.0
 11
707.292206642
 21
534.6583694518
 31
0.0
  0
LINE
  5
213
330
1F
100
AcDbEntity
  8
0
  6
Continuous
 62
     7
370
    15
100
AcDbLine
 10
697.5904350419
 20
565.1580288322
 30
0.0
 11
696.5828050465
 21
561.8795895953
 31
0.0
  0
ARC
  5
214
330
1F
100
AcDbEntity
  8
0
  6
Continuous
 62
     7
370
    15
100
AcDbCircle
 10
694.855893977
 20
562.41063101
 30
0.0
 40
1.806717140494621
100
AcDbArc
 50
284.058471082
 51
342.9068441533
  0
LINE
  5
215
330
1F
100
AcDbEntity
  8
0
  6
Continuous
 62
     7
370
    15
100
AcDbLine
 10
695.2947671946
 20
560.658028053
 30
0.0
 11
689.5841539761
 21
559.1944577106
 31
0.0
  0
ARC
  5
216
330
1F
100
AcDbEntity
  8
0
  6
Continuous
 62
     7
370
    15
100
AcDbCircle
 10
690.023027232
 20
557.4418550688
 30
0.0
 40
1.80671684411461
100
AcDbArc
 50
104.0584746906
 51
162.9068646493
  0
LINE
  5
217
330
1F
100
AcDbEntity
  8
0
  6
Continuous
 62
     7
370
    15
100
AcDbLine
 10
688.2961162559
 20
557.9728957786
 30
0.0
 11
683.6911895198
 21
542.9902444888
 31
0.0
  0
ARC
  5
218
330
1F
100
AcDbEntity
  8
0
  6
Continuous
 62
     7
370
    15
100
AcDbCircle
 10
684.1612494623
 20
542.8515352239
 30
0.0
 40
0.4900985713717738
100
AcDbArc
 50
163.55927823
 51
209.5069805133
  0
ARC
  5
219
330
1F
100
AcDbEntity
  8
0
  6
Continuous
 62
     7
370
    15
100
AcDbCircle
 10
684.7796002629
 20
542.1937691022
 30
0.0
 40
1.989756445981358
100
AcDbArc
 50
250.4952865543
 51
280.6637058776
  0
LINE
  5
21A
330
1F
100
AcDbEntity
  8
0
  6
Continuous
 62
     7
370
    15
100
AcDbLine
 10
684.1152516166
 20
540.3181967654
 30
0.0
 11
682.9908543042
 21
540.7116251275
 31
0.0
  0
ARC
  5
21B
330
1F
100
AcDbEntity
  8
0
  6
Continuous
 62
     7
370
    15
100
AcDbCircle
 10
683.6391353907
 20
542.6426908151
 30
0.0
 40
2.036978904384894
100
AcDbArc
 50
164.4070158483
 51
251.4425023609
  0
LINE
  5
21C
330
1F
100
AcDbEntity
  8
0
  6
Continuous
 62
     7
370
    15
100
AcDbLine
 10
681.6771264994
 20
543.1902345734
 30
0.0
 11
686.7195375231
 21
559.596286553
 31
0.0
  0
ARC
  5
21D
330
1F
100
AcDbEntity
  8
0
  6
Continuous
 62
     7
370
    15
100
AcDbCircle
 10
688.4464489254
 20
559.0652445499
 30
0.0
 40
1.806717631611306
100
AcDbArc
 50
104.0584651471
 51
162.9068294216
  0
LINE
  5
21E
330
1F
100
AcDbEntity
  8
0
  6
Continuous
 62
     7
370
    15
100
AcDbLine
 10
688.00757577
 20
560.8178480287
 30
0.0
 11
693.7181868812
 21
562.2814172116
 31
0.0
  0
ARC
  5
21F
330
1F
100
AcDbEntity
  8
0
  6
Continuous
 62
     7
370
    15
100
AcDbCircle
 10
693.2793132921
 20
564.034022779
 30
0.0
 40
1.806719762998935
100
AcDbArc
 50
284.0584624038
 51
342.9068269501
  0
LINE
  5
220
330
1F
100
AcDbEntity
  8
0
  6
Continuous
 62
     7
370
    15
100
AcDbLine
 10
695.0062267087
 20
563.502980075
 30
0.0
 11
696.1311619203
 21
567.1630888029
 31
0.0
  0
LINE
  5
221
330
1F
100
AcDbEntity
  8
0
  6
Continuous
 62
     7
370
    15
100
AcDbLine
 10
697.7359087091
 20
565.054434802
 30
0.0
 11
696.8624795477
 21
562.2126359833
 31
0.0
  0
ARC
  5
222
330
1F
100
AcDbEntity
  8
0
  6
Continuous
 62
     7
370
    15
100
AcDbCircle
 10
693.5479454038
 20
564.3883560631
 30
0.0
 40
1.830059057199612
100
AcDbArc
 50
284.2320049432
 51
312.8919784331
  0
ARC
  5
223
330
1F
100
AcDbEntity
  8
0
  6
Continuous
 62
     7
370
    15
100
AcDbCircle
 10
695.1404023836
 20
562.7396990508
 30
0.0
 40
1.800928992502399
100
AcDbArc
 50
320.0044963872
 51
342.9826202734
  0
LINE
  5
224
330
1F
100
AcDbEntity
  8
0
  6
Continuous
 62
     7
370
    15
100
AcDbLine
 10
688.2872501395
 20
561.1508944072
 30
0.0
 11
693.9978633581
 21
562.6144648637
 31
0.0
  0
ARC
  5
225
330
1F
100
AcDbEntity
  8
0
  6
Continuous
 62
     7
370
    15
100
AcDbCircle
 10
688.7338864613
 20
559.3844298156
 30
0.0
 40
1.822054103885054
100
AcDbArc
 50
104.1893931755
 51
139.8293217145
  0
ARC
  5
226
330
1F
100
AcDbEntity
  8
0
  6
Continuous
 62
     7
370
    15
100
AcDbCircle
 10
690.3034353957
 20
557.7763547232
 30
0.0
 40
1.806991871771723
100
AcDbArc
 50
146.9688385414
 51
162.9577389831
  0
LINE
  5
227
330
1F
100
AcDbEntity
  8
0
  6
Continuous
 62
     7
370
    15
100
AcDbLine
 10
688.5757906254
 20
558.3059424613
 30
0.0
 11
684.065279152
 21
543.630481031
 31
0.0
  0
LINE
  5
228
330
1F
100
AcDbEntity
  8
0
  6
Continuous
 62
     7
370
    15
100
AcDbLine
 10
700.2011490013
 20
563.6935096996
 30
0.0
 11
698.9148018967
 21
559.5082354637
 31
0.0
  0
ARC
  5
229
330
1F
100
AcDbEntity
  8
0
  6
Continuous
 62
     7
370
    15
100
AcDbCircle
 10
695.7904048332
 20
560.4658715498
 30
0.0
 40
3.267862280431884
100
AcDbArc
 50
309.7454487403
 51
342.959557291
  0
LINE
  5
22A
330
1F
100
AcDbEntity
  8
0
  6
Continuous
 62
     7
370
    15
100
AcDbLine
 10
697.8798038451
 20
557.953236349
 30
0.0
 11
693.6278822534
 21
554.5675086681
 31
0.0
  0
ARC
  5
22B
330
1F
100
AcDbEntity
  8
0
  6
Continuous
 62
     7
370
    15
100
AcDbCircle
 10
695.7172996568
 20
552.0548612494
 30
0.0
 40
3.267883433684486
100
AcDbArc
 50
129.7455597107
 51
162.959447613
  0
LINE
  5
22C
330
1F
100
AcDbEntity
  8
0
  6
Continuous
 62
     7
370
    15
100
AcDbLine
 10
692.5928842018
 20
553.0125095153
 30
0.0
 11
687.9879574657
 21
538.0298571608
 31
0.0
  0
LWPOLYLINE
  5
22D
330
1F
100
AcDbEntity
  8
0
  6
Continuous
 62
     7
370
    15
100
AcDbPolyline
 90
        9
 70
   128
 43
0.0
 10
687.9879574657
 20
538.0298571608
 10
687.96686929
 20
537.9414434653
 10
687.9590679084
 20
537.8574136562
 10
687.964850456
 20
537.7809957186
 10
687.9839956619
 20
537.7151268851
 10
688.015770171
 20
537.6623404785
 10
688.0589496173
 20
537.6246637036
 10
688.1118755223
 20
537.6035422038
 10
688.172516408
 20
537.5997926028
  0
LINE
  5
22E
330
1F
100
AcDbEntity
  8
0
  6
Continuous
 62
     7
370
    15
100
AcDbLine
 10
688.172516408
 20
537.5997926028
 30
0.0
 11
688.3023666336
 21
537.6100557931
 31
0.0
  0
ARC
  5
22F
330
1F
100
AcDbEntity
  8
0
  6
Continuous
 62
     7
370
    15
100
AcDbCircle
 10
688.1814640159
 20
538.1572440575
 30
0.0
 40
0.5603859737701551
100
AcDbArc
 50
282.4594631605
 51
332.2766416608
  0
LWPOLYLINE
  5
230
330
1F
100
AcDbEntity
  8
0
  6
Continuous
 62
     7
370
    15
100
AcDbPolyline
 90
        8
 70
   128
 43
0.0
 10
689.7808485765
 20
537.3575857413
 10
689.6122422164
 20
537.0329398777
 10
689.3953861441
 20
536.7083021917
 10
689.1489998824
 20
536.4193031761
 10
688.8825517208
 20
536.1770495676
 10
688.6062854508
 20
535.9908533377
 10
688.330813649
 20
535.8678679256
 10
688.0667236035
 20
535.812819375
  0
LINE
  5
231
330
1F
100
AcDbEntity
  8
0
  6
Continuous
 62
     7
370
    15
100
AcDbLine
 10
688.0667236035
 20
535.812819375
 30
0.0
 11
687.2876243574
 21
535.7512402328
 31
0.0
  0
LWPOLYLINE
  5
232
330
1F
100
AcDbEntity
  8
0
  6
Continuous
 62
     7
370
    15
100
AcDbPolyline
 90
        9
 70
   128
 43
0.0
 10
687.2876243574
 20
535.7512402328
 10
687.0450650296
 20
535.7662447202
 10
686.8333571948
 20
535.850724636
 10
686.6606373023
 20
536.0014341693
 10
686.5335434806
 20
536.2125810121
 10
686.4569605495
 20
536.4760539128
 10
686.4338282517
 20
536.7817232299
 10
686.4650401003
 20
537.1178461159
 10
686.549392803
 20
537.4715033316
  0
LINE
  5
233
330
1F
100
AcDbEntity
  8
0
  6
Continuous
 62
     7
370
    15
100
AcDbLine
 10
686.549392803
 20
537.4715033316
 30
0.0
 11
691.5918017193
 21
553.8775546269
 31
0.0
  0
ARC
  5
234
330
1F
100
AcDbEntity
  8
0
  6
Continuous
 62
     7
370
    15
100
AcDbCircle
 10
694.7161989486
 20
552.9199184304
 30
0.0
 40
3.26786247125018
100
AcDbArc
 50
129.7454497381
 51
162.9595562932
  0
LINE
  5
235
330
1F
100
AcDbEntity
  8
0
  6
Continuous
 62
     7
370
    15
100
AcDbLine
 10
692.6267997708
 20
555.4325537416
 30
0.0
 11
696.8787213626
 21
558.8182813845
 31
0.0
  0
ARC
  5
236
330
1F
100
AcDbEntity
  8
0
  6
Continuous
 62
     7
370
    15
100
AcDbCircle
 10
694.7893035074
 20
561.3309291039
 30
0.0
 40
3.267883953793126
100
AcDbArc
 50
309.7455624305
 51
342.9594448933
  0
LINE
  5
237
330
1F
100
AcDbEntity
  8
0
  6
Continuous
 62
     7
370
    15
100
AcDbLine
 10
697.9137194141
 20
560.3732805372
 30
0.0
 11
699.4748850445
 21
565.4527107214
 31
0.0
  0
LINE
  5
238
330
1F
100
AcDbEntity
  8
0
  6
Continuous
 62
     7
370
    15
100
AcDbLine
 10
691.6792767131
 20
555.9795471598
 30
0.0
 11
695.9311983049
 21
559.3652748026
 31
0.0
  0
ARC
  5
239
330
1F
100
AcDbEntity
  8
0
  6
Continuous
 62
     7
370
    15
100
AcDbCircle
 10
693.7686758909
 20
553.4669118486
 30
0.0
 40
3.267862471252929
100
AcDbArc
 50
129.7454497382
 51
162.9595562931
  0
LINE
  5
23A
330
1F
100
AcDbEntity
  8
0
  6
Continuous
 62
     7
370
    15
100
AcDbLine
 10
685.6018697452
 20
538.0184967497
 30
0.0
 11
690.6442786616
 21
554.424548045
 31
0.0
  0
LINE
  5
23B
330
1F
100
AcDbEntity
  8
0
  6
Continuous
 62
     7
370
    15
100
AcDbLine
 10
696.9661963564
 20
560.9202739554
 30
0.0
 11
698.5273619868
 21
565.9997041396
 31
0.0
  0
ARC
  5
23C
330
1F
100
AcDbEntity
  8
0
  6
Continuous
 62
     7
370
    15
100
AcDbCircle
 10
693.8417804497
 20
561.877922522
 30
0.0
 40
3.267883953792034
100
AcDbArc
 50
309.7455624305
 51
342.9594448933
  0
LWPOLYLINE
  5
23D
330
1F
100
AcDbEntity
  8
0
  6
Continuous
 62
     7
370
    15
100
AcDbPolyline
 90
        8
 70
   128
 43
0.0
 10
685.9004485568
 20
536.3890291547
 10
685.8858341371
 20
536.3977180541
 10
685.7131142445
 20
536.5484275875
 10
685.5860204229
 20
536.7595744302
 10
685.5094374918
 20
537.0230473309
 10
685.486305194
 20
537.328716648
 10
685.5175170426
 20
537.664839534
 10
685.6018697452
 20
538.0184967497
  0
LWPOLYLINE
  5
23E
330
1F
100
AcDbEntity
  8
0
  6
Continuous
 62
     7
370
    15
100
AcDbPolyline
 90
        3
 70
   128
 43
0.0
 10
695.8750573856
 20
560.6939094761
 10
695.9271329779
 20
560.8454664056
 10
695.9883591779
 20
561.0028950341
  0
LINE
  5
23F
330
1F
100
AcDbEntity
  8
0
  6
Continuous
 62
     7
370
    15
100
AcDbLine
 10
696.723480295
 20
561.8811536112
 30
0.0
 11
697.3586253995
 21
562.197088184
 31
0.0
  0
LINE
  5
240
330
1F
100
AcDbEntity
  8
0
  6
Continuous
 62
     7
370
    15
100
AcDbLine
 10
708.2652172161
 20
561.1914451733
 30
0.0
 11
708.3996224623
 21
561.6287470895
 31
0.0
  0
ARC
  5
241
330
1F
100
AcDbEntity
  8
0
  6
Continuous
 62
     7
370
    15
100
AcDbCircle
 10
709.8204000591
 20
560.558136879
 30
0.0
 40
1.679188217824493
100
AcDbArc
 50
157.8426510024
 51
207.6041633957
  0
LINE
  5
242
330
1F
100
AcDbEntity
  8
0
  6
Continuous
 62
     7
370
    15
100
AcDbLine
 10
704.2960019327
 20
558.1401069901
 30
0.0
 11
705.8571675631
 21
563.2195374025
 31
0.0
  0
ARC
  5
243
330
1F
100
AcDbEntity
  8
0
  6
Continuous
 62
     7
370
    15
100
AcDbCircle
 10
709.0140211383
 20
556.6662531055
 30
0.0
 40
4.942868650583086
100
AcDbArc
 50
162.6518073638
 51
184.2866076689
  0
LINE
  5
244
330
1F
100
AcDbEntity
  8
0
  6
Continuous
 62
     7
370
    15
100
AcDbLine
 10
704.5830203906
 20
551.2490475269
 30
0.0
 11
704.0849795111
 21
556.2967952127
 31
0.0
  0
ARC
  5
245
330
1F
100
AcDbEntity
  8
0
  6
Continuous
 62
     7
370
    15
100
AcDbCircle
 10
699.6539479599
 20
550.8795870413
 30
0.0
 40
4.942899561736974
100
AcDbArc
 50
342.6519602458
 51
4.2866109507
  0
LINE
  5
246
330
1F
100
AcDbEntity
  8
0
  6
Continuous
 62
     7
370
    15
100
AcDbLine
 10
699.3295895794
 20
532.9996845493
 30
0.0
 11
704.3720006031
 21
549.4057365288
 31
0.0
  0
LWPOLYLINE
  5
247
330
1F
100
AcDbEntity
  8
0
  6
Continuous
 62
     7
370
    15
100
AcDbPolyline
 90
        9
 70
   128
 43
0.0
 10
698.1938268425
 20
531.9351358939
 10
698.3168650837
 20
531.8222161149
 10
698.4567072734
 20
531.7836894248
 10
698.6079765274
 20
531.821034836
 10
698.7648618489
 20
531.9328186548
 10
698.9213330777
 20
532.1147431891
 10
699.071376912
 20
532.3598183377
 10
699.2092297705
 20
532.65862747
 10
699.3295895794
 20
532.9996845493
  0
LINE
  5
248
330
1F
100
AcDbEntity
  8
0
  6
Continuous
 62
     7
370
    15
100
AcDbLine
 10
697.8485308835
 20
532.390143398
 30
0.0
 11
698.1938268425
 21
531.9351358939
 31
0.0
  0
LWPOLYLINE
  5
249
330
1F
100
AcDbEntity
  8
0
  6
Continuous
 62
     7
370
    15
100
AcDbPolyline
 90
        9
 70
   128
 43
0.0
 10
697.748192935
 20
534.6578826316
 10
697.7350573428
 20
534.6011840584
 10
697.6627049016
 20
534.2160671914
 10
697.619023381
 20
533.8308338163
 10
697.6056928596
 20
533.4602891717
 10
697.6232238413
 20
533.1186713225
 10
697.6709451373
 20
532.8191094498
 10
697.7470207257
 20
532.5731153026
 10
697.8485308835
 20
532.390143398
  0
ARC
  5
24A
330
1F
100
AcDbEntity
  8
0
  6
Continuous
 62
     7
370
    15
100
AcDbCircle
 10
699.2672299946
 20
534.3277384278
 30
0.0
 40
0.7766491560803013
100
AcDbArc
 50
167.8723528754
 51
203.0661354876
  0
LINE
  5
24B
330
1F
100
AcDbEntity
  8
0
  6
Continuous
 62
     7
370
    15
100
AcDbLine
 10
698.610220847
 20
533.9476171789
 30
0.0
 11
698.5526714327
 21
534.023452422
 31
0.0
  0
LWPOLYLINE
  5
24C
330
1F
100
AcDbEntity
  8
0
  6
Continuous
 62
     7
370
    15
100
AcDbPolyline
 90
        9
 70
   128
 43
0.0
 10
698.8941620581
 20
534.2137552552
 10
698.8640713156
 20
534.128490225
 10
698.8296078376
 20
534.0537871815
 10
698.7920981961
 20
533.9925194589
 10
698.752978545
 20
533.9470372608
 10
698.7137577414
 20
533.9190916103
 10
698.6759404279
 20
533.9097558659
 10
698.6409811976
 20
533.9193876904
 10
698.610220847
 20
533.9476171789
  0
LINE
  5
24D
330
1F
100
AcDbEntity
  8
0
  6
Continuous
 62
     7
370
    15
100
AcDbLine
 10
703.4990887942
 20
549.1964065451
 30
0.0
 11
698.8941620581
 21
534.2137552552
 31
0.0
  0
ARC
  5
24E
330
1F
100
AcDbEntity
  8
0
  6
Continuous
 62
     7
370
    15
100
AcDbCircle
 10
698.7810984103
 20
550.6702513085
 30
0.0
 40
4.942838420380482
100
AcDbArc
 50
342.6518086659
 51
4.2867291348
  0
LINE
  5
24F
330
1F
100
AcDbEntity
  8
0
  6
Continuous
 62
     7
370
    15
100
AcDbLine
 10
703.2120703364
 20
556.0874662364
 30
0.0
 11
703.7101091085
 21
551.0397173912
 31
0.0
  0
ARC
  5
250
330
1F
100
AcDbEntity
  8
0
  6
Continuous
 62
     7
370
    15
100
AcDbCircle
 10
708.1410333619
 20
556.4569375258
 30
0.0
 40
4.942791270185177
100
AcDbArc
 50
162.6517049696
 51
184.2868306276
  0
LINE
  5
251
330
1F
100
AcDbEntity
  8
0
  6
Continuous
 62
     7
370
    15
100
AcDbLine
 10
704.7245916547
 20
562.1653584244
 30
0.0
 11
703.4230906507
 21
557.9307767688
 31
0.0
  0
LINE
  5
252
330
1F
100
AcDbEntity
  8
0
  6
Continuous
 62
     7
370
    15
100
AcDbLine
 10
705.8102175544
 20
551.0351006394
 30
0.0
 11
705.3121793091
 21
556.0828492946
 31
0.0
  0
ARC
  5
253
330
1F
100
AcDbEntity
  8
0
  6
Continuous
 62
     7
370
    15
100
AcDbCircle
 10
700.8812632426
 20
550.6656266316
 30
0.0
 40
4.942782783981231
100
AcDbArc
 50
342.651701596
 51
4.2868696005
  0
LINE
  5
254
330
1F
100
AcDbEntity
  8
0
  6
Continuous
 62
     7
370
    15
100
AcDbLine
 10
700.5567888506
 20
532.7857388783
 30
0.0
 11
705.5991977669
 21
549.1917896412
 31
0.0
  0
LINE
  5
255
330
1F
100
AcDbEntity
  8
0
  6
Continuous
 62
     7
370
    15
100
AcDbLine
 10
705.5231996234
 20
557.9261598745
 30
0.0
 11
707.0843663074
 21
563.0055908191
 31
0.0
  0
ARC
  5
256
330
1F
100
AcDbEntity
  8
0
  6
Continuous
 62
     7
370
    15
100
AcDbCircle
 10
710.241193291
 20
556.4523147885
 30
0.0
 40
4.942841650800618
100
AcDbArc
 50
162.6518164465
 51
184.2867194846
  0
LWPOLYLINE
  5
257
330
1F
100
AcDbEntity
  8
0
  6
Continuous
 62
     7
370
    15
100
AcDbPolyline
 90
        8
 70
   128
 43
0.0
 10
699.6377989459
 20
531.5738015751
 10
699.6839065445
 20
531.5697437538
 10
699.8351768522
 20
531.6070885567
 10
699.9920621737
 20
531.7188723755
 10
700.1485323488
 20
531.9007975181
 10
700.2985772369
 20
532.1458732752
 10
700.4364279879
 20
532.4446799742
 10
700.5567888506
 20
532.7857388783
  0
ARC
  5
258
330
1F
100
AcDbEntity
  8
0
  6
Continuous
 62
     7
370
    15
100
AcDbCircle
 10
710.6989622128
 20
587.2937986809
 30
0.0
 40
24.5563236566962
100
AcDbArc
 50
242.8014886591
 51
258.6284252196
  0
LWPOLYLINE
  5
259
330
1F
100
AcDbEntity
  8
0
  6
Continuous
 62
     7
370
    15
100
AcDbPolyline
 90
       10
 70
   128
 43
0.0
 10
698.5273619868
 20
565.9997041396
 10
698.0467754344
 20
566.3212040726
 10
697.6246808381
 20
566.6409290571
 10
697.265109511
 20
566.9558305453
 10
696.9714892103
 20
567.2629012743
 10
696.746623788
 20
567.55921256
 10
696.5926585845
 20
567.841937315
 10
696.5110609687
 20
568.1083758784
 10
696.5026123695
 20
568.3559879869
 10
696.5299056149
 20
568.4855890487
  0
LINE
  5
25A
330
1F
100
AcDbEntity
  8
0
  6
Continuous
 62
     7
370
    15
100
AcDbLine
 10
711.8238394817
 20
563.7849906005
 30
0.0
 11
711.7863535478
 21
563.6881697701
 31
0.0
  0
LWPOLYLINE
  5
25B
330
1F
100
AcDbEntity
  8
0
  6
Continuous
 62
     7
370
    15
100
AcDbPolyline
 90
       10
 70
   128
 43
0.0
 10
711.5066781246
 20
563.3551226312
 10
711.2481198531
 20
563.1965039582
 10
710.9220876381
 20
563.0659273364
 10
710.5316924439
 20
562.9646393472
 10
710.080659525
 20
562.8936055408
 10
709.573291548
 20
562.85350375
 10
709.0144311856
 20
562.844717706
 10
708.409410541
 20
562.8673300477
 10
707.7640021521
 20
562.9211253668
 10
707.0843663074
 20
563.0055908191
  0
LINE
  5
25C
330
1F
100
AcDbEntity
  8
0
  6
Continuous
 62
     7
370
    15
100
AcDbLine
 10
705.4817866568
 20
561.9981971305
 30
0.0
 11
705.8571675631
 21
563.2195374025
 31
0.0
  0
LINE
  5
25D
330
1F
100
AcDbEntity
  8
0
  6
Continuous
 62
     7
370
    15
100
AcDbLine
 10
699.0995062456
 20
564.2313719702
 30
0.0
 11
699.4748850445
 21
565.4527107214
 31
0.0
  0
ARC
  5
25E
330
1F
100
AcDbEntity
  8
0
  6
Continuous
 62
     7
370
    15
100
AcDbCircle
 10
710.3236235607
 20
586.0725537041
 30
0.0
 40
24.55642541247439
100
AcDbArc
 50
242.8015053514
 51
258.6283724063
  0
LINE
  5
25F
330
1F
100
AcDbEntity
  8
0
  6
Continuous
 62
     7
370
    15
100
AcDbLine
 10
711.131298272
 20
562.1337831196
 30
0.0
 11
711.5066781246
 21
563.3551226312
 31
0.0
  0
LINE
  5
260
330
1F
100
AcDbEntity
  8
0
  6
Continuous
 62
     7
370
    15
100
AcDbLine
 10
706.7089864548
 20
561.7842511553
 30
0.0
 11
707.0843663074
 21
563.0055908191
 31
0.0
  0
LWPOLYLINE
  5
261
330
1F
100
AcDbEntity
  8
0
  6
Continuous
 62
     7
370
    15
100
AcDbPolyline
 90
       10
 70
   128
 43
0.0
 10
711.131298272
 20
562.1337831196
 10
710.8727410542
 20
561.9751650548
 10
710.5467088391
 20
561.8445884331
 10
710.1563136449
 20
561.7433001396
 10
709.7052796724
 20
561.6722658771
 10
709.197912749
 20
561.6321646945
 10
708.6390523867
 20
561.6233786505
 10
708.0340306884
 20
561.645990384
 10
707.3886233531
 20
561.6997863113
 10
706.7089864548
 20
561.7842511553
  0
LINE
  5
262
330
1F
100
AcDbEntity
  8
0
  6
Continuous
 62
     7
370
    15
100
AcDbLine
 10
698.1519831879
 20
564.7783653883
 30
0.0
 11
698.5273619868
 21
565.9997041396
 31
0.0
  0
LWPOLYLINE
  5
263
330
1F
100
AcDbEntity
  8
0
  6
Continuous
 62
     7
370
    15
100
AcDbPolyline
 90
       10
 70
   128
 43
0.0
 10
698.1519831879
 20
564.7783653883
 10
697.6713945281
 20
565.0998641048
 10
697.2493020391
 20
565.4195903058
 10
696.8897286048
 20
565.7344902733
 10
696.5961104114
 20
566.0415622188
 10
696.3712449891
 20
566.3378735046
 10
696.2172797856
 20
566.6205979554
 10
696.1356821698
 20
566.887036823
 10
696.1272335706
 20
567.1346489314
 10
696.154526816
 20
567.264249689
  0
LINE
  5
264
330
1F
100
AcDbEntity
  8
0
  6
Continuous
 62
     7
370
    15
100
AcDbLine
 10
711.4109736952
 20
562.4668301824
 30
0.0
 11
711.7863535478
 21
563.6881697701
 31
0.0
  0
LINE
  5
265
330
1F
100
AcDbEntity
  8
0
  6
Continuous
 62
     7
370
    15
100
AcDbLine
 10
711.4484596291
 20
562.5636509368
 30
0.0
 11
711.4109736952
 21
562.4668301824
 31
0.0
  0
ARC
  5
266
330
1F
100
AcDbEntity
  8
0
  6
Continuous
 62
     7
370
    15
100
AcDbCircle
 10
701.7496981553
 20
562.8496777723
 30
0.0
 40
27.33014869754142
100
AcDbArc
 50
240.5281533377
 51
246.0654027387
  0
LWPOLYLINE
  5
267
330
1F
100
AcDbEntity
  8
0
  6
Continuous
 62
     7
370
    15
100
AcDbPolyline
 90
       13
 70
   128
 43
0.0
 10
686.3202509243
 20
540.3558358747
 10
686.1345267534
 20
540.5025277526
 10
685.6944435858
 20
540.8789879667
 10
685.3152390384
 20
541.2488487917
 10
684.9991416258
 20
541.609939416
 10
684.7480035704
 20
541.9601408273
 10
684.5633005386
 20
542.2973969124
 10
684.4461133336
 20
542.6197286753
 10
684.3971350078
 20
542.9252471613
 10
684.4166474181
 20
543.2121560413
 10
684.504540456
 20
543.4787745732
 10
684.6602957152
 20
543.7235348628
 10
684.7722677745
 20
543.8460611319
  0
LWPOLYLINE
  5
268
330
1F
100
AcDbEntity
  8
0
  6
Continuous
 62
     7
370
    15
100
AcDbPolyline
 90
       17
 70
   128
 43
0.0
 10
707.7131662039
 20
536.795162243
 10
707.7402113097
 20
536.5834352874
 10
707.720696792
 20
536.2965264076
 10
707.6328058615
 20
536.0299078755
 10
707.477051656
 20
535.7851469776
 10
707.2543466548
 20
535.563678992
 10
706.9660000444
 20
535.3668026286
 10
706.6137040207
 20
535.1956745572
 10
706.1995269404
 20
535.051299979
 10
705.7258954082
 20
534.9345222888
 10
705.1955942772
 20
534.8460303758
 10
704.6117297701
 20
534.7863409849
 10
703.977733694
 20
534.7558084513
 10
703.2973223474
 20
534.7546070616
 10
702.5744912514
 20
534.7827474796
 10
701.8134814326
 20
534.8400621487
 10
701.2076763299
 20
534.903476315
  0
ARC
  5
269
330
1F
100
AcDbEntity
  8
0
  6
Continuous
 62
     7
370
    15
100
AcDbCircle
 10
706.3781354698
 20
573.2848779979
 30
0.0
 40
38.74574456976858
100
AcDbArc
 50
246.0699271708
 51
259.3240072805
  0
LINE
  5
26A
330
1F
100
AcDbEntity
  8
0
  6
Continuous
 62
     7
370
    15
100
AcDbLine
 10
684.6049152831
 20
543.6502500516
 30
0.0
 11
684.7612779837
 21
543.8103052639
 31
0.0
  0
LINE
  5
26B
330
1F
100
AcDbEntity
  8
0
  6
Continuous
 62
     7
370
    15
100
AcDbLine
 10
707.7021764131
 20
536.7594075918
 30
0.0
 11
707.741652732
 21
536.5391601352
 31
0.0
  0
LINE
  5
26C
330
1F
100
AcDbEntity
  8
0
  6
Continuous
 62
     7
370
    15
100
AcDbLine
 10
688.7694598789
 20
282.4840451035
 30
0.0
 11
690.1094598378
 21
282.4840451035
 31
0.0
  0
LINE
  5
26D
330
1F
100
AcDbEntity
  8
0
  6
Continuous
 62
     7
370
    15
100
AcDbLine
 10
690.1094598378
 20
308.4840448949
 30
0.0
 11
688.7694598789
 21
308.4840448949
 31
0.0
  0
LINE
  5
26E
330
1F
100
AcDbEntity
  8
0
  6
Continuous
 62
     7
370
    15
100
AcDbLine
 10
702.0369903798
 20
301.0424772653
 30
0.0
 11
702.5678576584
 21
299.8121192123
 31
0.0
  0
LINE
  5
26F
330
1F
100
AcDbEntity
  8
0
  6
Continuous
 62
     7
370
    15
100
AcDbLine
 10
717.2586979027
 20
306.1508248004
 30
0.0
 11
716.7278321142
 21
307.3811823878
 31
0.0
  0
ARC
  5
270
330
1F
100
AcDbEntity
  8
0
  6
Continuous
 62
     7
370
    15
100
AcDbCircle
 10
732.8304626711
 20
280.9150216814
 30
0.0
 40
0.4199999999999837
100
AcDbArc
 50
293.3389069151
 51
113.3389069151
  0
ARC
  5
271
330
1F
100
AcDbEntity
  8
0
  6
Continuous
 62
     7
370
    15
100
AcDbCircle
 10
710.2432943766
 20
271.1692621708
 30
0.0
 40
0.4200000000000288
100
AcDbArc
 50
113.3389069151
 51
293.3389069151
  0
LWPOLYLINE
  5
272
330
1F
100
AcDbEntity
  8
0
  6
Continuous
 62
     7
370
    15
100
AcDbPolyline
 90
       15
 70
   128
 43
0.0
 10
732.6640726681
 20
281.3006559762
 10
732.6417864914
 20
281.2910402569
 10
732.5750173683
 20
281.262231842
 10
732.4640305395
 20
281.2143439802
 10
732.3092640991
 20
281.1475659165
 10
732.1113230343
 20
281.0621599111
 10
731.8709971065
 20
280.9584657106
 10
731.5892280693
 20
280.8368901166
 10
731.2671305294
 20
280.6979129466
 10
730.905977046
 20
280.5420855436
 10
730.5071891899
 20
280.370018855
 10
730.0723435039
 20
280.1823953542
 10
729.6031566019
 20
279.9799526486
 10
729.101479208
 20
279.7634924206
 10
728.6977620477
 20
279.5892993364
  0
LWPOLYLINE
  5
273
330
1F
100
AcDbEntity
  8
0
  6
Continuous
 62
     7
370
    15
100
AcDbPolyline
 90
       17
 70
   128
 43
0.0
 10
726.7140628452
 20
278.7333870682
 10
726.1790604944
 20
278.5025472197
 10
725.5279333944
 20
278.2216037068
 10
724.8603971357
 20
277.9335791621
 10
724.1790862436
 20
277.6396120343
 10
723.486694848
 20
277.3408631238
 10
722.7859498615
 20
277.0385096225
 10
722.0796169395
 20
276.7337466034
 10
721.3704885597
 20
276.4277765903
 10
720.6613571996
 20
276.1218065771
 10
719.9550272579
 20
275.8170420679
 10
719.2542822714
 20
275.5146900567
 10
718.5618878956
 20
275.2159411463
 10
717.8805770035
 20
274.9219740185
 10
717.2130407448
 20
274.6339494738
 10
716.5619136448
 20
274.3530059609
 10
716.026911294
 20
274.1221661124
  0
LWPOLYLINE
  5
274
330
1F
100
AcDbEntity
  8
0
  6
Continuous
 62
     7
370
    15
100
AcDbPolyline
 90
       15
 70
   128
 43
0.0
 10
714.0432120914
 20
273.2662523541
 10
713.6394964213
 20
273.09206076
 10
713.1378190274
 20
272.875600532
 10
712.6686306352
 20
272.6731593165
 10
712.2337864394
 20
272.4855328354
 10
711.8349985833
 20
272.3134691271
 10
711.4738436098
 20
272.1576387438
 10
711.15174756
 20
272.0186645541
 10
710.8699785228
 20
271.8970889601
 10
710.6296511049
 20
271.7933917794
 10
710.4317115302
 20
271.7079872641
 10
710.2769435997
 20
271.6412092003
 10
710.1659567709
 20
271.5933198485
 10
710.0991891379
 20
271.5645129237
 10
710.0769029612
 20
271.5548957142
  0
LWPOLYLINE
  5
275
330
1F
100
AcDbEntity
  8
0
  6
Continuous
 62
     7
370
    15
100
AcDbPolyline
 90
       15
 70
   128
 43
0.0
 10
710.4096861238
 20
270.783626512
 10
710.4319708104
 20
270.7932437214
 10
710.4987384434
 20
270.8220506462
 10
710.6097252722
 20
270.8699399981
 10
710.7644946928
 20
270.9367180619
 10
710.9624327774
 20
271.0221225771
 10
711.2027601952
 20
271.1258197579
 10
711.4845292325
 20
271.2473953518
 10
711.8066267724
 20
271.3863695416
 10
712.1677817459
 20
271.5421999249
 10
712.5665681119
 20
271.7142636332
 10
713.0014137978
 20
271.9018901142
 10
713.4706006999
 20
272.1043313298
 10
713.9722795839
 20
272.3207915577
 10
714.3759937639
 20
272.4949831518
  0
LWPOLYLINE
  5
276
330
1F
100
AcDbEntity
  8
0
  6
Continuous
 62
     7
370
    15
100
AcDbPolyline
 90
       17
 70
   128
 43
0.0
 10
716.3596929664
 20
273.3508969101
 10
716.8946953172
 20
273.5817367586
 10
717.5458253975
 20
273.8626802716
 10
718.2133586759
 20
274.1507048163
 10
718.894669568
 20
274.4446719441
 10
719.5870639438
 20
274.7434208545
 10
720.2878089304
 20
275.0457728657
 10
720.9941388721
 20
275.3505373749
 10
721.7032702322
 20
275.6565073881
 10
722.412398612
 20
275.9624774012
 10
723.118731534
 20
276.2672404203
 10
723.8194765205
 20
276.5695939216
 10
724.5118708963
 20
276.868342832
 10
725.1931788082
 20
277.1623099598
 10
725.8607150669
 20
277.4503345045
 10
726.5118451471
 20
277.7312780175
 10
727.0468445177
 20
277.962117866
  0
LWPOLYLINE
  5
277
330
1F
100
AcDbEntity
  8
0
  6
Continuous
 62
     7
370
    15
100
AcDbPolyline
 90
       15
 70
   128
 43
0.0
 10
729.0305437202
 20
278.8180301341
 10
729.4342608805
 20
278.9922232184
 10
729.9359382744
 20
279.2086834463
 10
730.4051251764
 20
279.411126152
 10
730.8399708624
 20
279.5987496528
 10
731.2387587185
 20
279.7708163413
 10
731.5999122019
 20
279.9266437444
 10
731.9220097418
 20
280.0656209144
 10
732.203778779
 20
280.1871965083
 10
732.444107687
 20
280.2908907089
 10
732.6420457716
 20
280.3762967142
 10
732.796812212
 20
280.443074778
 10
732.9077990408
 20
280.4909626397
 10
732.9745681639
 20
280.5197710547
 10
732.9968543405
 20
280.529386774
  0
LINE
  5
278
330
1F
100
AcDbEntity
  8
0
  6
Continuous
 62
     7
370
    15
100
AcDbLine
 10
732.3886187429
 20
281.1818058047
 30
0.0
 11
726.1566223259
 21
295.6253327805
 31
0.0
  0
LINE
  5
279
330
1F
100
AcDbEntity
  8
0
  6
Continuous
 62
     7
370
    15
100
AcDbLine
 10
704.1203604693
 20
286.117274538
 30
0.0
 11
710.3523568864
 21
271.6737473759
 31
0.0
  0
ARC
  5
27A
330
1F
100
AcDbEntity
  8
0
  6
Continuous
 62
     7
370
    15
100
AcDbCircle
 10
724.6875382302
 20
294.9914622714
 30
0.0
 40
1.599999999999984
100
AcDbArc
 50
23.3389069151
 51
79.261711635
  0
ARC
  5
27B
330
1F
100
AcDbEntity
  8
0
  6
Continuous
 62
     7
370
    15
100
AcDbCircle
 10
705.5894447129
 20
286.7511452868
 30
0.0
 40
1.5999999999999
100
AcDbArc
 50
147.4161021952
 51
203.3389069151
  0
LINE
  5
27C
330
1F
100
AcDbEntity
  8
0
  6
Continuous
 62
     7
370
    15
100
AcDbLine
 10
724.9856562967
 20
296.5634439516
 30
0.0
 11
718.5886295194
 21
297.7766025721
 31
0.0
  0
LINE
  5
27D
330
1F
100
AcDbEntity
  8
0
  6
Continuous
 62
     7
370
    15
100
AcDbLine
 10
707.7476979847
 20
293.0990303311
 30
0.0
 11
704.2412789221
 21
287.6127997789
 31
0.0
  0
ARC
  5
27E
330
1F
100
AcDbEntity
  8
0
  6
Continuous
 62
     7
370
    15
100
AcDbCircle
 10
718.8867463604
 20
299.3485841722
 30
0.0
 40
1.6
100
AcDbArc
 50
203.3389069151
 51
259.2617116349
  0
ARC
  5
27F
330
1F
100
AcDbEntity
  8
0
  6
Continuous
 62
     7
370
    15
100
AcDbCircle
 10
706.3995313683
 20
293.9606846054
 30
0.0
 40
1.6
100
AcDbArc
 50
327.4161021952
 51
23.3389069151
  0
LINE
  5
280
330
1F
100
AcDbEntity
  8
0
  6
Continuous
 62
     7
370
    15
100
AcDbLine
 10
717.4176634903
 20
298.7147136268
 30
0.0
 11
715.2979017849
 21
303.6275575313
 31
0.0
  0
LINE
  5
281
330
1F
100
AcDbEntity
  8
0
  6
Continuous
 62
     7
370
    15
100
AcDbLine
 10
705.748854732
 20
299.5073992203
 30
0.0
 11
707.8686149473
 21
294.5945551994
 31
0.0
  0
ARC
  5
282
330
1F
100
AcDbEntity
  8
0
  6
Continuous
 62
     7
370
    15
100
AcDbCircle
 10
715.1142658034
 20
303.548323883
 30
0.0
 40
0.2000000000000662
100
AcDbArc
 50
23.3389069151
 51
113.3389069151
  0
ARC
  5
283
330
1F
100
AcDbEntity
  8
0
  6
Continuous
 62
     7
370
    15
100
AcDbCircle
 10
705.932490074
 20
299.586633025
 30
0.0
 40
0.2000000000000662
100
AcDbArc
 50
113.3389069151
 51
203.3389069151
  0
LINE
  5
284
330
1F
100
AcDbEntity
  8
0
  6
Continuous
 62
     7
370
    15
100
AcDbLine
 10
690.1094598378
 20
308.4840448949
 30
0.0
 11
690.1094598378
 21
282.4840451035
 31
0.0
  0
LINE
  5
285
330
1F
100
AcDbEntity
  8
0
  6
Continuous
 62
     7
370
    15
100
AcDbLine
 10
688.7694598789
 20
308.4840448949
 30
0.0
 11
688.7694598789
 21
282.4840451035
 31
0.0
  0
CIRCLE
  5
286
330
1F
100
AcDbEntity
  8
0
  6
Continuous
 62
     7
370
    15
100
AcDbCircle
 10
700.1094598789
 20
295.4840447459
 30
0.0
 40
0.6000000000000227
  0
LINE
  5
287
330
1F
100
AcDbEntity
  8
0
  6
Continuous
 62
     7
370
    15
100
AcDbLine
 10
700.1094596143
 20
298.4840447459
 30
0.0
 11
690.1094598378
 21
298.4840447459
 31
0.0
  0
LINE
  5
288
330
1F
100
AcDbEntity
  8
0
  6
Continuous
 62
     7
370
    15
100
AcDbLine
 10
690.1094598378
 20
292.48404488
 30
0.0
 11
700.1094596143
 21
292.48404488
 31
0.0
  0
ARC
  5
289
330
1F
100
AcDbEntity
  8
0
  6
Continuous
 62
     7
370
    15
100
AcDbCircle
 10
700.1094598789
 20
295.4840447459
 30
0.0
 40
3.0
100
AcDbArc
 50
270.0
 51
90.0
  0
LWPOLYLINE
  5
28A
330
1F
100
AcDbEntity
  8
0
  6
Continuous
 62
     7
370
    15
100
AcDbPolyline
 90
       41
 70
   128
 43
0.0
 10
717.2586979027
 20
306.1508248004
 10
717.24454776
 20
306.1447190496
 10
717.1871902103
 20
306.1199704561
 10
717.0860828514
 20
306.0763458165
 10
716.941839611
 20
306.0141081366
 10
716.7553247566
 20
305.9336321804
 10
716.5276618357
 20
305.8354014906
 10
716.2602187748
 20
305.7200076434
 10
715.9546048994
 20
305.5881427976
 10
715.6126560325
 20
305.4406019303
 10
715.2364315147
 20
305.2782709154
 10
714.8281933422
 20
305.1021272692
 10
714.3903972263
 20
304.913228974
 10
713.9256747122
 20
304.7127137336
 10
713.4368197675
 20
304.5017863068
 10
712.9267738814
 20
304.2817151549
 10
712.3986052031
 20
304.0538246188
 10
711.8554906602
 20
303.81948486
 10
711.3006936068
 20
303.5801047835
 10
710.7375533933
 20
303.3371249589
 10
710.1694555635
 20
303.0920057002
 10
709.5998169536
 20
302.8462218496
 10
709.0320633406
 20
302.6012516025
 10
708.4696100707
 20
302.3585679385
 10
707.9158382172
 20
302.1196304265
 10
707.3740811701
 20
301.8858762833
 10
706.8475933428
 20
301.6587110612
 10
706.3395427222
 20
301.4395010102
 10
705.8529855366
 20
301.2295646968
 10
705.3908483739
 20
301.0301644358
 10
704.9559088106
 20
300.8424995843
 10
704.5507834906
 20
300.6676989052
 10
704.1779087539
 20
300.5068134892
 10
703.839527225
 20
300.3608107942
 10
703.5376744027
 20
300.2305692437
 10
703.2741637583
 20
300.1168718937
 10
703.0505822654
 20
300.0204025212
 10
702.8682740087
 20
299.9417414333
 10
702.7283357138
 20
299.8813616487
 10
702.6316078062
 20
299.8396261971
 10
702.5936634893
 20
299.8232538256
  0
LWPOLYLINE
  5
28B
330
1F
100
AcDbEntity
  8
0
  6
Continuous
 62
     7
370
    15
100
AcDbPolyline
 90
       42
 70
   128
 43
0.0
 10
716.7278321142
 20
307.3811823878
 10
716.7136819715
 20
307.375077382
 10
716.6563214416
 20
307.3503280434
 10
716.5552170629
 20
307.3067034039
 10
716.4109738226
 20
307.244466469
 10
716.2244589681
 20
307.1639905128
 10
715.9967960472
 20
307.065759823
 10
715.7293529863
 20
306.9503652307
 10
715.4237391109
 20
306.81850113
 10
715.0817902441
 20
306.6709595177
 10
714.7055657263
 20
306.5086292478
 10
714.2973275537
 20
306.3324848565
 10
713.8595314379
 20
306.1435873064
 10
713.3948074336
 20
305.9430713209
 10
712.9059524889
 20
305.7321438941
 10
712.395908093
 20
305.5120731148
 10
711.8677394147
 20
305.2841829511
 10
711.3246233816
 20
305.0498428199
 10
710.7698278184
 20
304.8104631159
 10
710.2066861148
 20
304.5674829188
 10
709.6385882849
 20
304.32236366
 10
709.0689496751
 20
304.0765798095
 10
708.5011975522
 20
303.8316095623
 10
707.9387427921
 20
303.5889258984
 10
707.3849724288
 20
303.3499883863
 10
706.8432138915
 20
303.1162342432
 10
706.3167260642
 20
302.889069021
 10
705.8086769337
 20
302.6698591563
 10
705.3221197481
 20
302.4599226567
 10
704.8599810953
 20
302.2605223957
 10
704.425041532
 20
302.0728575441
 10
704.0199162121
 20
301.898056865
 10
703.6470414753
 20
301.7371712628
 10
703.3086599464
 20
301.5911687541
 10
703.0068071241
 20
301.4609272036
 10
702.7432979698
 20
301.3472298536
 10
702.5197164769
 20
301.2507604811
 10
702.3374082203
 20
301.1720993
 10
702.1974699254
 20
301.1117196086
 10
702.1007420177
 20
301.0699842501
 10
702.0478071327
 20
301.0471441227
 10
702.0369903798
 20
301.0424772653
  0
ARC
  5
28C
330
1F
100
AcDbEntity
  8
0
  6
Continuous
 62
     7
370
    15
100
AcDbCircle
 10
705.2220940962
 20
293.7314948829
 30
0.0
 40
1.999999999999923
100
AcDbArc
 50
327.4161021952
 51
23.3389069151
  0
LINE
  5
28D
330
1F
100
AcDbEntity
  8
0
  6
Continuous
 62
     7
370
    15
100
AcDbLine
 10
706.9073022957
 20
292.6544269922
 30
0.0
 11
703.611311471
 21
287.4974387142
 31
0.0
  0
ARC
  5
28E
330
1F
100
AcDbEntity
  8
0
  6
Continuous
 62
     7
370
    15
100
AcDbCircle
 10
705.2965194665
 20
286.4203708451
 30
0.0
 40
1.999999999999907
100
AcDbArc
 50
147.4161021952
 51
203.3389069151
  0
LINE
  5
28F
330
1F
100
AcDbEntity
  8
0
  6
Continuous
 62
     7
370
    15
100
AcDbLine
 10
703.4601645226
 20
285.6280321631
 30
0.0
 11
709.9725143666
 21
270.5347473177
 31
0.0
  0
ARC
  5
290
330
1F
100
AcDbEntity
  8
0
  6
Continuous
 62
     7
370
    15
100
AcDbCircle
 10
710.4316028507
 20
270.7328307987
 30
0.0
 40
0.5000000000000162
100
AcDbArc
 50
203.3389069151
 51
293.3389069151
  0
LINE
  5
291
330
1F
100
AcDbEntity
  8
0
  6
Continuous
 62
     7
370
    15
100
AcDbLine
 10
710.6296868677
 20
270.2737415585
 30
0.0
 11
710.8133228178
 21
270.352976993
 31
0.0
  0
ARC
  5
292
330
1F
100
AcDbEntity
  8
0
  6
Continuous
 62
     7
370
    15
100
AcDbCircle
 10
710.6152383653
 20
270.8120646159
 30
0.0
 40
0.4999999999999414
100
AcDbArc
 50
293.3389069151
 51
23.3389069151
  0
LINE
  5
293
330
1F
100
AcDbEntity
  8
0
  6
Continuous
 62
     7
370
    15
100
AcDbLine
 10
711.0743270869
 20
271.010148004
 30
0.0
 11
711.0524089689
 21
271.0609460625
 31
0.0
  0
LINE
  5
294
330
1F
100
AcDbEntity
  8
0
  6
Continuous
 62
     7
370
    15
100
AcDbLine
 10
712.8887654896
 20
271.8532855067
 30
0.0
 11
713.1087662334
 21
271.3433975729
 31
0.0
  0
ARC
  5
295
330
1F
100
AcDbEntity
  8
0
  6
Continuous
 62
     7
370
    15
100
AcDbCircle
 10
711.2724116947
 20
270.5510603723
 30
0.0
 40
2.000000000000005
100
AcDbArc
 50
293.3389069151
 51
23.3389069151
  0
LINE
  5
296
330
1F
100
AcDbEntity
  8
0
  6
Continuous
 62
     7
370
    15
100
AcDbLine
 10
712.0647491569
 20
268.7147045883
 30
0.0
 11
710.9629364366
 21
268.2393009219
 31
0.0
  0
ARC
  5
297
330
1F
100
AcDbEntity
  8
0
  6
Continuous
 62
     7
370
    15
100
AcDbCircle
 10
710.1705986071
 20
270.0756574693
 30
0.0
 40
2.000000000000058
100
AcDbArc
 50
203.3389069151
 51
293.3389069151
  0
LINE
  5
298
330
1F
100
AcDbEntity
  8
0
  6
Continuous
 62
     7
370
    15
100
AcDbLine
 10
708.3342434521
 20
269.2833179983
 30
0.0
 11
701.2031996305
 21
285.8105162534
 31
0.0
  0
ARC
  5
299
330
1F
100
AcDbEntity
  8
0
  6
Continuous
 62
     7
370
    15
100
AcDbCircle
 10
703.0395550628
 20
286.6028537823
 30
0.0
 40
2.000000000000129
100
AcDbArc
 50
147.4161021952
 51
203.3389069151
  0
LINE
  5
29A
330
1F
100
AcDbEntity
  8
0
  6
Continuous
 62
     7
370
    15
100
AcDbLine
 10
701.3543473239
 20
287.6799220595
 30
0.0
 11
704.9534352178
 21
293.3111442628
 31
0.0
  0
ARC
  5
29B
330
1F
100
AcDbEntity
  8
0
  6
Continuous
 62
     7
370
    15
100
AcDbCircle
 10
704.5321332021
 20
293.5804112829
 30
0.0
 40
0.499999999999992
100
AcDbArc
 50
327.4161021952
 51
113.3389069151
  0
LINE
  5
29C
330
1F
100
AcDbEntity
  8
0
  6
Continuous
 62
     7
370
    15
100
AcDbLine
 10
704.3340490813
 20
294.0394999835
 30
0.0
 11
701.2979672904
 21
292.7295120808
 31
0.0
  0
LINE
  5
29D
330
1F
100
AcDbEntity
  8
0
  6
Continuous
 62
     7
370
    15
100
AcDbLine
 10
699.4898574109
 20
298.4840447459
 30
0.0
 11
702.5936634893
 21
299.8232538256
 31
0.0
  0
LINE
  5
29E
330
1F
100
AcDbEntity
  8
0
  6
Continuous
 62
     7
370
    15
100
AcDbLine
 10
704.9608843083
 20
299.385234006
 30
0.0
 11
707.058449244
 21
294.5238331708
 31
0.0
  0
LINE
  5
29F
330
1F
100
AcDbEntity
  8
0
  6
Continuous
 62
     7
370
    15
100
AcDbLine
 10
715.2481468077
 20
299.2137711871
 30
0.0
 11
713.0403237099
 21
304.3307090554
 31
0.0
  0
ARC
  5
2A0
330
1F
100
AcDbEntity
  8
0
  6
Continuous
 62
     7
370
    15
100
AcDbCircle
 10
717.9554859556
 20
300.2539860546
 30
0.0
 40
2.900298645472315
100
AcDbArc
 50
201.017792667
 51
235.3897129925
  0
LINE
  5
2A1
330
1F
100
AcDbEntity
  8
0
  6
Continuous
 62
     7
370
    15
100
AcDbLine
 10
719.993987834
 20
295.7224280018
 30
0.0
 11
716.3081409092
 21
297.8669404893
 31
0.0
  0
ARC
  5
2A2
330
1F
100
AcDbEntity
  8
0
  6
Continuous
 62
     7
370
    15
100
AcDbCircle
 10
718.346629272
 20
293.3353719073
 30
0.0
 40
2.900314988031721
100
AcDbArc
 50
21.0178884951
 51
55.389611388
  0
LINE
  5
2A3
330
1F
100
AcDbEntity
  8
0
  6
Continuous
 62
     7
370
    15
100
AcDbLine
 10
728.185025012
 20
277.8484011444
 30
0.0
 11
721.0539819355
 21
294.3755971643
 31
0.0
  0
LWPOLYLINE
  5
2A4
330
1F
100
AcDbEntity
  8
0
  6
Continuous
 62
     7
370
    15
100
AcDbPolyline
 90
       11
 70
   128
 43
0.0
 10
728.0591847057
 20
275.6158763918
 10
728.1930656786
 20
275.7004598531
 10
728.3041389341
 20
275.8281777057
 10
728.3896686191
 20
275.9958843145
 10
728.4475536699
 20
276.1994520578
 10
728.476363575
 20
276.4338666949
 10
728.4753920193
 20
276.693357006
 10
728.4446628446
 20
276.9715333733
 10
728.3849330301
 20
277.2615457329
 10
728.2976688499
 20
277.5562549385
 10
728.185025012
 20
277.8484011444
  0
LINE
  5
2A5
330
1F
100
AcDbEntity
  8
0
  6
Continuous
 62
     7
370
    15
100
AcDbLine
 10
727.5082798357
 20
275.3781760487
 30
0.0
 11
728.0591847057
 21
275.6158763918
 31
0.0
  0
LWPOLYLINE
  5
2A6
330
1F
100
AcDbEntity
  8
0
  6
Continuous
 62
     7
370
    15
100
AcDbPolyline
 90
       11
 70
   128
 43
0.0
 10
725.7977636213
 20
276.8183613571
 10
725.933015501
 20
276.5359694514
 10
726.0875494833
 20
276.2702862176
 10
726.2575538511
 20
276.0278532657
 10
726.4388443584
 20
275.8146400008
 10
726.6269595976
 20
275.635897592
 10
726.8172653074
 20
275.4960263523
 10
727.0050765629
 20
275.39846845
 10
727.1857680435
 20
275.3456304225
 10
727.3548902626
 20
275.3388101611
 10
727.5082798357
 20
275.3781760487
  0
LINE
  5
2A7
330
1F
100
AcDbEntity
  8
0
  6
Continuous
 62
     7
370
    15
100
AcDbLine
 10
725.5777598972
 20
277.3282463106
 30
0.0
 11
725.7977636213
 21
276.8183613571
 31
0.0
  0
LINE
  5
2A8
330
1F
100
AcDbEntity
  8
0
  6
Continuous
 62
     7
370
    15
100
AcDbLine
 10
726.5178562755
 20
277.6736194643
 30
0.0
 11
726.4959396477
 21
277.7244160327
 31
0.0
  0
LWPOLYLINE
  5
2A9
330
1F
100
AcDbEntity
  8
0
  6
Continuous
 62
     7
370
    15
100
AcDbPolyline
 90
        9
 70
   128
 43
0.0
 10
726.945483839
 20
277.3135731372
 10
726.8968971128
 20
277.3030722889
 10
726.8425644989
 20
277.3106167468
 10
726.78457514
 20
277.3359189185
 10
726.7251552696
 20
277.378002778
 10
726.6665907259
 20
277.4352545294
 10
726.6111315841
 20
277.5054732713
 10
726.5609116907
 20
277.5859589133
 10
726.5178562755
 20
277.6736194643
  0
LINE
  5
2AA
330
1F
100
AcDbEntity
  8
0
  6
Continuous
 62
     7
370
    15
100
AcDbLine
 10
727.0373018141
 20
277.3531893644
 30
0.0
 11
726.945483839
 21
277.3135731372
 31
0.0
  0
LWPOLYLINE
  5
2AB
330
1F
100
AcDbEntity
  8
0
  6
Continuous
 62
     7
370
    15
100
AcDbPolyline
 90
        9
 70
   128
 43
0.0
 10
727.0687641258
 20
277.9113212976
 10
727.1029980535
 20
277.8198534998
 10
727.1270932312
 20
277.7280966195
 10
727.140128767
 20
277.6395732912
 10
727.1415980215
 20
277.5576869401
 10
727.1314473505
 20
277.4855846915
 10
727.1100671644
 20
277.4260381612
 10
727.0782800073
 20
277.3813331875
 10
727.0373018141
 20
277.3531893644
  0
LINE
  5
2AC
330
1F
100
AcDbEntity
  8
0
  6
Continuous
 62
     7
370
    15
100
AcDbLine
 10
720.5564142818
 20
293.0046072605
 30
0.0
 11
727.0687641258
 21
277.9113212976
 31
0.0
  0
ARC
  5
2AD
330
1F
100
AcDbEntity
  8
0
  6
Continuous
 62
     7
370
    15
100
AcDbCircle
 10
717.849081866
 20
291.9643939636
 30
0.0
 40
2.900291797923474
100
AcDbArc
 50
21.0178114022
 51
55.389852761
  0
LINE
  5
2AE
330
1F
100
AcDbEntity
  8
0
  6
Continuous
 62
     7
370
    15
100
AcDbLine
 10
715.8105732555
 20
296.4959502596
 30
0.0
 11
719.4964172001
 21
294.3514379117
 31
0.0
  0
ARC
  5
2AF
330
1F
100
AcDbEntity
  8
0
  6
Continuous
 62
     7
370
    15
100
AcDbCircle
 10
717.4579049571
 20
298.8829852861
 30
0.0
 40
2.90028239187532
100
AcDbArc
 50
201.017692017
 51
235.3898117171
  0
LINE
  5
2B0
330
1F
100
AcDbEntity
  8
0
  6
Continuous
 62
     7
370
    15
100
AcDbLine
 10
712.6530127282
 20
302.7041821185
 30
0.0
 11
714.750579154
 21
297.8427810039
 31
0.0
  0
ARC
  5
2B1
330
1F
100
AcDbEntity
  8
0
  6
Continuous
 62
     7
370
    15
100
AcDbCircle
 10
719.4121754906
 20
293.7951370095
 30
0.0
 40
2.900282446845084
100
AcDbArc
 50
21.0176896707
 51
55.3898102124
  0
LINE
  5
2B2
330
1F
100
AcDbEntity
  8
0
  6
Continuous
 62
     7
370
    15
100
AcDbLine
 10
729.2505474443
 20
278.3081451806
 30
0.0
 11
722.1195013876
 21
294.8353412005
 31
0.0
  0
LINE
  5
2B3
330
1F
100
AcDbEntity
  8
0
  6
Continuous
 62
     7
370
    15
100
AcDbLine
 10
728.0591847057
 20
275.6158763918
 30
0.0
 11
729.124707138
 21
276.075620428
 31
0.0
  0
LWPOLYLINE
  5
2B4
330
1F
100
AcDbEntity
  8
0
  6
Continuous
 62
     7
370
    15
100
AcDbPolyline
 90
       11
 70
   128
 43
0.0
 10
729.124707138
 20
276.075620428
 10
729.2585851307
 20
276.1602038893
 10
729.3696583862
 20
276.2879217419
 10
729.4551910515
 20
276.4556283507
 10
729.5130761022
 20
276.659196094
 10
729.5418860073
 20
276.8936107311
 10
729.5409144516
 20
277.1531010422
 10
729.510185277
 20
277.4312774095
 10
729.4504524822
 20
277.7212897691
 10
729.3631912823
 20
278.0159989747
 10
729.2505474443
 20
278.3081451806
  0
LINE
  5
2B5
330
1F
100
AcDbEntity
  8
0
  6
Continuous
 62
     7
370
    15
100
AcDbLine
 10
721.0595072861
 20
296.182172038
 30
0.0
 11
717.3736633415
 21
298.3266844557
 31
0.0
  0
ARC
  5
2B6
330
1F
100
AcDbEntity
  8
0
  6
Continuous
 62
     7
370
    15
100
AcDbCircle
 10
719.0209984579
 20
300.7137282144
 30
0.0
 40
2.900291518442502
100
AcDbArc
 50
201.0178090241
 51
235.3898541765
  0
LINE
  5
2B7
330
1F
100
AcDbEntity
  8
0
  6
Continuous
 62
     7
370
    15
100
AcDbLine
 10
716.3136662597
 20
299.6735151301
 30
0.0
 11
714.1058446522
 21
304.7904530916
 31
0.0
  0
LINE
  5
2B8
330
1F
100
AcDbEntity
  8
0
  6
Continuous
 62
     7
370
    15
100
AcDbLine
 10
719.4407136793
 20
301.0227522257
 30
0.0
 11
717.2328920717
 21
306.1396899077
 31
0.0
  0
ARC
  5
2B9
330
1F
100
AcDbEntity
  8
0
  6
Continuous
 62
     7
370
    15
100
AcDbCircle
 10
721.2770692508
 20
301.8150903802
 30
0.0
 40
2.000000000000033
100
AcDbArc
 50
203.3389069151
 51
259.2617116349
  0
LINE
  5
2BA
330
1F
100
AcDbEntity
  8
0
  6
Continuous
 62
     7
370
    15
100
AcDbLine
 10
726.917547142
 20
298.7097593866
 30
0.0
 11
720.9044219608
 21
299.8501133549
 31
0.0
  0
ARC
  5
2BB
330
1F
100
AcDbEntity
  8
0
  6
Continuous
 62
     7
370
    15
100
AcDbCircle
 10
726.5449009302
 20
296.7447823787
 30
0.0
 40
1.999999999999991
100
AcDbArc
 50
23.3389069151
 51
79.261711635
  0
LINE
  5
2BC
330
1F
100
AcDbEntity
  8
0
  6
Continuous
 62
     7
370
    15
100
AcDbLine
 10
735.5122985
 20
281.0099238905
 30
0.0
 11
728.3812554235
 21
297.5371205623
 31
0.0
  0
ARC
  5
2BD
330
1F
100
AcDbEntity
  8
0
  6
Continuous
 62
     7
370
    15
100
AcDbCircle
 10
733.6759444745
 20
280.2175860657
 30
0.0
 40
2.000000000000028
100
AcDbArc
 50
293.3389069151
 51
23.3389069151
  0
LINE
  5
2BE
330
1F
100
AcDbEntity
  8
0
  6
Continuous
 62
     7
370
    15
100
AcDbLine
 10
733.3664687033
 20
277.9058287296
 30
0.0
 11
734.4682814235
 21
278.3812309059
 31
0.0
  0
ARC
  5
2BF
330
1F
100
AcDbEntity
  8
0
  6
Continuous
 62
     7
370
    15
100
AcDbCircle
 10
732.574131387
 20
279.7421831628
 30
0.0
 40
2.000000000000028
100
AcDbArc
 50
203.3389069151
 51
293.3389069151
  0
LINE
  5
2C0
330
1F
100
AcDbEntity
  8
0
  6
Continuous
 62
     7
370
    15
100
AcDbLine
 10
730.5177749748
 20
279.4597307596
 30
0.0
 11
730.7377757187
 21
278.9498443159
 31
0.0
  0
LINE
  5
2C1
330
1F
100
AcDbEntity
  8
0
  6
Continuous
 62
     7
370
    15
100
AcDbLine
 10
732.3760481233
 20
280.2012721452
 30
0.0
 11
732.3541285152
 21
280.2520687136
 31
0.0
  0
ARC
  5
2C2
330
1F
100
AcDbEntity
  8
0
  6
Continuous
 62
     7
370
    15
100
AcDbCircle
 10
732.8351356306
 20
280.3993564922
 30
0.0
 40
0.5000000000000386
100
AcDbArc
 50
203.3389069151
 51
293.3389069151
  0
LINE
  5
2C3
330
1F
100
AcDbEntity
  8
0
  6
Continuous
 62
     7
370
    15
100
AcDbLine
 10
733.2168550844
 20
280.0195018205
 30
0.0
 11
733.0332191343
 21
279.9402678761
 31
0.0
  0
ARC
  5
2C4
330
1F
100
AcDbEntity
  8
0
  6
Continuous
 62
     7
370
    15
100
AcDbCircle
 10
733.0187711451
 20
280.4785903093
 30
0.0
 40
0.4999999999999414
100
AcDbArc
 50
293.3389069151
 51
23.3389069151
  0
LINE
  5
2C5
330
1F
100
AcDbEntity
  8
0
  6
Continuous
 62
     7
370
    15
100
AcDbLine
 10
726.9655109997
 20
295.7699612158
 30
0.0
 11
733.4778608436
 21
280.6766743216
 31
0.0
  0
ARC
  5
2C6
330
1F
100
AcDbEntity
  8
0
  6
Continuous
 62
     7
370
    15
100
AcDbCircle
 10
725.1291550421
 20
294.9776230983
 30
0.0
 40
2.000000000000033
100
AcDbArc
 50
23.3389069151
 51
79.2617116349
  0
LINE
  5
2C7
330
1F
100
AcDbEntity
  8
0
  6
Continuous
 62
     7
370
    15
100
AcDbLine
 10
719.4886775369
 20
298.0829541016
 30
0.0
 11
725.5018027181
 21
296.9426000866
 31
0.0
  0
ARC
  5
2C8
330
1F
100
AcDbEntity
  8
0
  6
Continuous
 62
     7
370
    15
100
AcDbCircle
 10
719.8613233628
 20
300.0479310998
 30
0.0
 40
2.000000000000005
100
AcDbArc
 50
203.3389069151
 51
259.261711635
  0
LINE
  5
2C9
330
1F
100
AcDbEntity
  8
0
  6
Continuous
 62
     7
370
    15
100
AcDbLine
 10
715.9274043197
 20
304.1169939938
 30
0.0
 11
718.0249692554
 21
299.2555929258
 31
0.0
  0
LINE
  5
2CA
330
1F
100
AcDbEntity
  8
0
  6
Continuous
 62
     7
370
    15
100
AcDbLine
 10
708.2352744098
 20
300.7980458814
 30
0.0
 11
710.3328393454
 21
295.9366450462
 31
0.0
  0
ARC
  5
2CB
330
1F
100
AcDbEntity
  8
0
  6
Continuous
 62
     7
370
    15
100
AcDbCircle
 10
707.7185596253
 20
294.6807258283
 30
0.0
 40
2.900308869186753
100
AcDbArc
 50
351.2881707732
 51
25.6599722431
  0
LINE
  5
2CC
330
1F
100
AcDbEntity
  8
0
  6
Continuous
 62
     7
370
    15
100
AcDbLine
 10
710.5854065771
 20
294.2414308342
 30
0.0
 11
709.6166954989
 21
290.0886008891
 31
0.0
  0
ARC
  5
2CD
330
1F
100
AcDbEntity
  8
0
  6
Continuous
 62
     7
370
    15
100
AcDbCircle
 10
712.4835332513
 20
289.6493022265
 30
0.0
 40
2.900300331644918
100
AcDbArc
 50
171.2880716099
 51
205.6599728662
  0
LINE
  5
2CE
330
1F
100
AcDbEntity
  8
0
  6
Continuous
 62
     7
370
    15
100
AcDbLine
 10
709.8692612405
 20
288.3933866772
 30
0.0
 11
716.3816125746
 21
273.3001018318
 31
0.0
  0
LWPOLYLINE
  5
2CF
330
1F
100
AcDbEntity
  8
0
  6
Continuous
 62
     7
370
    15
100
AcDbPolyline
 90
        9
 70
   128
 43
0.0
 10
716.3816125746
 20
273.3001018318
 10
716.4246650095
 20
273.2124383005
 10
716.4748878832
 20
273.1319541487
 10
716.5303470249
 20
273.0617368969
 10
716.5889085884
 20
273.0044836554
 10
716.6483284588
 20
272.9623997959
 10
716.7063178177
 20
272.9370976242
 10
716.7606534118
 20
272.9295516762
 10
716.809240138
 20
272.9400540146
  0
LINE
  5
2D0
330
1F
100
AcDbEntity
  8
0
  6
Continuous
 62
     7
370
    15
100
AcDbLine
 10
716.809240138
 20
272.9400540146
 30
0.0
 11
716.9010581131
 21
272.9796702418
 31
0.0
  0
LWPOLYLINE
  5
2D1
330
1F
100
AcDbEntity
  8
0
  6
Continuous
 62
     7
370
    15
100
AcDbPolyline
 90
        9
 70
   128
 43
0.0
 10
716.9010581131
 20
272.9796702418
 10
716.9420333261
 20
273.007815555
 10
716.9738234634
 20
273.0525190386
 10
716.9952036495
 20
273.112067059
 10
717.0053513403
 20
273.1841678175
 10
717.0038820858
 20
273.2660526785
 10
716.9908495302
 20
273.3545774969
 10
716.9667513723
 20
273.4463358673
 10
716.9325174446
 20
273.537802175
  0
LINE
  5
2D2
330
1F
100
AcDbEntity
  8
0
  6
Continuous
 62
     7
370
    15
100
AcDbLine
 10
716.9325174446
 20
273.537802175
 30
0.0
 11
716.9106008167
 21
273.5885987434
 31
0.0
  0
LINE
  5
2D3
330
1F
100
AcDbEntity
  8
0
  6
Continuous
 62
     7
370
    15
100
AcDbLine
 10
717.8287775869
 20
273.9847669753
 30
0.0
 11
718.0487783308
 21
273.474883512
 31
0.0
  0
LWPOLYLINE
  5
2D4
330
1F
100
AcDbEntity
  8
0
  6
Continuous
 62
     7
370
    15
100
AcDbPolyline
 90
       11
 70
   128
 43
0.0
 10
718.0487783308
 20
273.474883512
 10
718.1614251489
 20
273.1827343258
 10
718.2486863489
 20
272.8880281004
 10
718.3084191437
 20
272.5980157408
 10
718.3391483183
 20
272.3198378834
 10
718.340119874
 20
272.0603490624
 10
718.3113099689
 20
271.8259329352
 10
718.2534249182
 20
271.6223651919
 10
718.1678922529
 20
271.4546585831
 10
718.0568189974
 20
271.3269407305
 10
717.9229410047
 20
271.2423587593
  0
LINE
  5
2D5
330
1F
100
AcDbEntity
  8
0
  6
Continuous
 62
     7
370
    15
100
AcDbLine
 10
717.9229410047
 20
271.2423587593
 30
0.0
 11
717.3720331545
 21
271.004655436
 31
0.0
  0
LWPOLYLINE
  5
2D6
330
1F
100
AcDbEntity
  8
0
  6
Continuous
 62
     7
370
    15
100
AcDbPolyline
 90
       11
 70
   128
 43
0.0
 10
717.3720331545
 20
271.004655436
 10
717.2186435814
 20
270.9652895483
 10
717.0495213623
 20
270.9721112999
 10
716.8688298816
 20
271.0249508175
 10
716.6810186262
 20
271.1225057396
 10
716.4907129164
 20
271.2623799595
 10
716.3025976772
 20
271.4411223683
 10
716.1213071699
 20
271.6543341431
 10
715.9513028021
 20
271.896767095
 10
715.7967718
 20
272.1624518189
 10
715.6615169401
 20
272.4448437247
  0
LINE
  5
2D7
330
1F
100
AcDbEntity
  8
0
  6
Continuous
 62
     7
370
    15
100
AcDbLine
 10
715.6615169401
 20
272.4448437247
 30
0.0
 11
708.5304738636
 21
288.9720389995
 31
0.0
  0
ARC
  5
2D8
330
1F
100
AcDbEntity
  8
0
  6
Continuous
 62
     7
370
    15
100
AcDbCircle
 10
711.144757003
 20
290.2279562068
 30
0.0
 40
2.900311080677394
100
AcDbArc
 50
171.2881372854
 51
205.6599071907
  0
LINE
  5
2D9
330
1F
100
AcDbEntity
  8
0
  6
Continuous
 62
     7
370
    15
100
AcDbLine
 10
708.277908122
 20
290.6672532114
 30
0.0
 11
709.2466192002
 21
294.820082784
 31
0.0
  0
ARC
  5
2DA
330
1F
100
AcDbEntity
  8
0
  6
Continuous
 62
     7
370
    15
100
AcDbCircle
 10
706.3797703192
 20
295.2593797887
 30
0.0
 40
2.900311080676833
100
AcDbArc
 50
351.2881372854
 51
25.6599071907
  0
LINE
  5
2DB
330
1F
100
AcDbEntity
  8
0
  6
Continuous
 62
     7
370
    15
100
AcDbLine
 10
708.9940534587
 20
296.5152969959
 30
0.0
 11
706.786230361
 21
301.632234678
 31
0.0
  0
ARC
  5
2DC
330
1F
100
AcDbEntity
  8
0
  6
Continuous
 62
     7
370
    15
100
AcDbCircle
 10
710.0792249323
 20
289.7682105126
 30
0.0
 40
2.900300331645583
100
AcDbArc
 50
171.2880716099
 51
205.6599728662
  0
LINE
  5
2DD
330
1F
100
AcDbEntity
  8
0
  6
Continuous
 62
     7
370
    15
100
AcDbLine
 10
716.3065137024
 20
270.5449128899
 30
0.0
 11
717.3720331545
 21
271.004655436
 31
0.0
  0
LWPOLYLINE
  5
2DE
330
1F
100
AcDbEntity
  8
0
  6
Continuous
 62
     7
370
    15
100
AcDbPolyline
 90
       11
 70
   128
 43
0.0
 10
716.3065137024
 20
270.5449128899
 10
716.1531241293
 20
270.5055470023
 10
715.98399893
 20
270.5123657736
 10
715.8033104296
 20
270.5652052912
 10
715.6154991741
 20
270.6627631935
 10
715.4251934643
 20
270.8026344332
 10
715.2370782251
 20
270.981376842
 10
715.0557877178
 20
271.194591597
 10
714.8857803697
 20
271.4370245489
 10
714.7312493677
 20
271.7027062926
 10
714.595997488
 20
271.9850981984
  0
LINE
  5
2DF
330
1F
100
AcDbEntity
  8
0
  6
Continuous
 62
     7
370
    15
100
AcDbLine
 10
714.595997488
 20
271.9850981984
 30
0.0
 11
707.4649529214
 21
288.5122949633
 31
0.0
  0
LINE
  5
2E0
330
1F
100
AcDbEntity
  8
0
  6
Continuous
 62
     7
370
    15
100
AcDbLine
 10
707.2123871798
 20
290.2075091752
 30
0.0
 11
708.181098258
 21
294.3603387478
 31
0.0
  0
ARC
  5
2E1
330
1F
100
AcDbEntity
  8
0
  6
Continuous
 62
     7
370
    15
100
AcDbCircle
 10
705.3142664659
 20
294.7996361385
 30
0.0
 40
2.900294247442288
100
AcDbArc
 50
351.2880786131
 51
25.6600625679
  0
LINE
  5
2E2
330
1F
100
AcDbEntity
  8
0
  6
Continuous
 62
     7
370
    15
100
AcDbLine
 10
707.9285310263
 20
296.055553146
 30
0.0
 11
705.7207094188
 21
301.172490828
 31
0.0
  0
LINE
  5
2E3
330
1F
100
AcDbEntity
  8
0
  6
Continuous
 62
     7
370
    15
100
AcDbLine
 10
701.3543473239
 20
287.6799220595
 30
0.0
 11
704.6503366585
 21
292.836909965
 31
0.0
  0
ARC
  5
2E4
330
1F
100
AcDbEntity
  8
0
  6
Continuous
 62
     7
370
    15
100
AcDbCircle
 10
702.9651296925
 20
293.9139778201
 30
0.0
 40
1.999999999999907
100
AcDbArc
 50
327.4161021952
 51
23.3389069151
  0
LINE
  5
2E5
330
1F
100
AcDbEntity
  8
0
  6
Continuous
 62
     7
370
    15
100
AcDbLine
 10
704.8014850969
 20
294.7063161436
 30
0.0
 11
702.5936634893
 21
299.8232538256
 31
0.0
  0
LINE
  5
2E6
330
1F
100
AcDbEntity
  8
0
  6
Continuous
 62
     7
370
    15
100
AcDbLine
 10
713.5711909885
 20
303.1003510955
 30
0.0
 11
713.0403237099
 21
304.3307090554
 31
0.0
  0
LWPOLYLINE
  5
2E7
330
1F
100
AcDbEntity
  8
0
  6
Continuous
 62
     7
370
    15
100
AcDbPolyline
 90
       12
 70
   128
 43
0.0
 10
713.5711909885
 20
303.1003510955
 10
713.0303429122
 20
302.8669899705
 10
712.4729724283
 20
302.6264990124
 10
711.9026379342
 20
302.3804149035
 10
711.3229842539
 20
302.1303100887
 10
710.737715816
 20
301.8777823451
 10
710.1505728121
 20
301.6244454685
 10
709.5653043742
 20
301.3719179112
 10
708.9856506939
 20
301.1218129101
 10
708.4153161998
 20
300.8757289875
 10
707.8579442258
 20
300.6352380294
 10
707.3170976395
 20
300.4018769044
  0
LINE
  5
2E8
330
1F
100
AcDbEntity
  8
0
  6
Continuous
 62
     7
370
    15
100
AcDbLine
 10
707.3170976395
 20
300.4018769044
 30
0.0
 11
706.786230361
 21
301.632234678
 31
0.0
  0
LWPOLYLINE
  5
2E9
330
1F
100
AcDbEntity
  8
0
  6
Continuous
 62
     7
370
    15
100
AcDbPolyline
 90
       12
 70
   128
 43
0.0
 10
713.0403237099
 20
304.3307090554
 10
712.4994771237
 20
304.0973479304
 10
711.9421051497
 20
303.8568569723
 10
711.3717706556
 20
303.6107728633
 10
710.7921184654
 20
303.3606680486
 10
710.2068500275
 20
303.108140305
 10
709.6197055335
 20
302.8548034283
 10
709.0344370956
 20
302.6022756848
 10
708.4547834153
 20
302.35217087
 10
707.8844489212
 20
302.1060867611
 10
707.3270784373
 20
301.8655961755
 10
706.786230361
 20
301.632234678
  0
LINE
  5
2EA
330
1F
100
AcDbEntity
  8
0
  6
Continuous
 62
     7
370
    15
100
AcDbLine
 10
706.2515766973
 20
299.9421329613
 30
0.0
 11
705.7207094188
 21
301.172490828
 31
0.0
  0
LINE
  5
2EB
330
1F
100
AcDbEntity
  8
0
  6
Continuous
 62
     7
370
    15
100
AcDbLine
 10
703.1245292778
 20
298.5928958657
 30
0.0
 11
702.5936634893
 21
299.8232538256
 31
0.0
  0
LWPOLYLINE
  5
2EC
330
1F
100
AcDbEntity
  8
0
  6
Continuous
 62
     7
370
    15
100
AcDbPolyline
 90
       12
 70
   128
 43
0.0
 10
706.2515766973
 20
299.9421329613
 10
705.7832466121
 20
299.7400612946
 10
705.3446964974
 20
299.5508388992
 10
704.9387292619
 20
299.375674818
 10
704.5679377074
 20
299.2156881749
 10
704.2346926088
 20
299.0719012826
 10
703.9411203618
 20
298.9452327977
 10
703.6890985126
 20
298.8364920396
 10
703.4802363868
 20
298.7463737748
 10
703.3158691282
 20
298.6754538401
 10
703.1970472688
 20
298.6241853473
 10
703.1245292778
 20
298.5928958657
  0
LWPOLYLINE
  5
2ED
330
1F
100
AcDbEntity
  8
0
  6
Continuous
 62
     7
370
    15
100
AcDbPolyline
 90
       12
 70
   128
 43
0.0
 10
705.7207094188
 20
301.172490828
 10
705.2523793335
 20
300.9704191613
 10
704.813830709
 20
300.7811967659
 10
704.4078634734
 20
300.6060326847
 10
704.0370719189
 20
300.4460461813
 10
703.7038253302
 20
300.302259289
 10
703.4102530832
 20
300.1755906644
 10
703.1582312341
 20
300.0668499994
 10
702.9493691082
 20
299.9767316881
 10
702.7850033397
 20
299.9058117534
 10
702.6661799903
 20
299.8545432839
 10
702.5936634893
 20
299.8232538256
  0
LINE
  5
2EE
330
1F
100
AcDbEntity
  8
0
  6
Continuous
 62
     7
370
    15
100
AcDbLine
 10
714.6367134208
 20
303.5600951317
 30
0.0
 11
714.1058446522
 21
304.7904530916
 31
0.0
  0
LINE
  5
2EF
330
1F
100
AcDbEntity
  8
0
  6
Continuous
 62
     7
370
    15
100
AcDbLine
 10
717.7637578602
 20
304.9093323204
 30
0.0
 11
717.2328920717
 21
306.1396899077
 31
0.0
  0
LWPOLYLINE
  5
2F0
330
1F
100
AcDbEntity
  8
0
  6
Continuous
 62
     7
370
    15
100
AcDbPolyline
 90
       12
 70
   128
 43
0.0
 10
717.7637578602
 20
304.9093323204
 10
717.6912398691
 20
304.8780428621
 10
717.5724180097
 20
304.8267739269
 10
717.4080522413
 20
304.7558540854
 10
717.1991916055
 20
304.6657359603
 10
716.9471682663
 20
304.556995109
 10
716.6535975094
 20
304.4303266707
 10
716.3203509207
 20
304.2865397784
 10
715.9495593662
 20
304.1265530887
 10
715.5435921306
 20
303.9513891938
 10
715.105042016
 20
303.7621667984
 10
714.6367134208
 20
303.5600951317
  0
LWPOLYLINE
  5
2F1
330
1F
100
AcDbEntity
  8
0
  6
Continuous
 62
     7
370
    15
100
AcDbPolyline
 90
       12
 70
   128
 43
0.0
 10
717.2328920717
 20
306.1396899077
 10
717.1603740806
 20
306.1084004495
 10
717.0415522213
 20
306.0571322593
 10
716.8771864528
 20
305.9862124178
 10
716.6683228369
 20
305.8960939202
 10
716.4163024778
 20
305.7873534414
 10
716.1227287407
 20
305.6606846306
 10
715.789482152
 20
305.5168973657
 10
715.4186905975
 20
305.3569110486
 10
715.0127233619
 20
305.1817471537
 10
714.5741762275
 20
304.9925247583
 10
714.1058446522
 20
304.7904530916
  0
ENDSEC
  0
SECTION
  2
OBJECTS
  0
DICTIONARY
  5
C
330
0
100
AcDbDictionary
281
     1
  3
ACAD_GROUP
350
D
  3
ACAD_LAYOUT
350
1A
  3
ACAD_MLINESTYLE
350
17
  3
ACAD_PLOTSETTINGS
350
19
  3
ACAD_PLOTSTYLENAME
350
E
  3
ACAD_SCALELIST
350
47
  0
DICTIONARY
  5
D
102
{ACAD_REACTORS
330
C
102
}
330
C
100
AcDbDictionary
281
     1
  0
DICTIONARY
  5
1A
102
{ACAD_REACTORS
330
C
102
}
330
C
100
AcDbDictionary
281
     1
  3
Layout1
350
1E
  3
Layout2
350
26
  3
Model
350
22
  0
DICTIONARY
  5
17
102
{ACAD_REACTORS
330
C
102
}
330
C
100
AcDbDictionary
281
     1
  3
Standard
350
18
  0
DICTIONARY
  5
19
102
{ACAD_REACTORS
330
C
102
}
330
C
100
AcDbDictionary
281
     1
  0
ACDBDICTIONARYWDFLT
  5
E
102
{ACAD_REACTORS
330
C
102
}
330
C
100
AcDbDictionary
281
     1
  3
Normal
350
F
100
AcDbDictionaryWithDefault
340
F
  0
DICTIONARY
  5
47
102
{ACAD_REACTORS
330
C
102
}
330
C
100
AcDbDictionary
281
     1
  3
A0
350
48
  3
A1
350
49
  3
A2
350
4A
  3
A3
350
4B
  3
A4
350
4C
  3
A5
350
4D
  3
A6
350
4E
  3
A7
350
4F
  3
A8
350
50
  3
A9
350
51
  3
B0
350
52
  3
B1
350
53
  3
B2
350
54
  3
B3
350
55
  3
B4
350
56
  3
B5
350
57
  3
B6
350
58
  3
B7
350
59
  3
B8
350
5A
  3
B9
350
5B
  3
C0
350
5C
  3
C1
350
5D
  3
C2
350
5E
  3
C3
350
5F
  3
C4
350
60
  3
C5
350
61
  3
C6
350
62
  3
C7
350
63
  3
C8
350
64
  3
C9
350
65
  3
D0
350
66
  3
D1
350
67
  3
D2
350
68
  0
LAYOUT
  5
1E
102
{ACAD_REACTORS
330
1A
102
}
330
1A
100
AcDbPlotSettings
  1

  2
none_device
  4

  6

 40
0.0
 41
0.0
 42
0.0
 43
0.0
 44
0.0
 45
0.0
 46
0.0
 47
0.0
 48
0.0
 49
0.0
140
0.0
141
0.0
142
1.0
143
1.0
 70
   688
 72
     1
 73
     0
 74
     5
  7

 75
    16
147
1.0
148
0.0
149
0.0
100
AcDbLayout
  1
Layout1
 70
     1
 71
     1
 10
0.0
 20
0.0
 11
420.0
 21
297.0
 12
0.0
 22
0.0
 32
0.0
 14
1.0000000000E+20
 24
1.0000000000E+20
 34
1.0000000000E+20
 15
-1.0000000000E+20
 25
-1.0000000000E+20
 35
-1.0000000000E+20
146
0.0
 13
0.0
 23
0.0
 33
0.0
 16
1.0
 26
0.0
 36
0.0
 17
0.0
 27
1.0
 37
0.0
 76
     0
330
1B
  0
LAYOUT
  5
26
102
{ACAD_REACTORS
330
1A
102
}
330
1A
100
AcDbPlotSettings
  1

  2
none_device
  4

  6

 40
0.0
 41
0.0
 42
0.0
 43
0.0
 44
0.0
 45
0.0
 46
0.0
 47
0.0
 48
0.0
 49
0.0
140
0.0
141
0.0
142
1.0
143
1.0
 70
   688
 72
     1
 73
     0
 74
     5
  7

 75
    16
147
1.0
148
0.0
149
0.0
100
AcDbLayout
  1
Layout2
 70
     1
 71
     2
 10
0.0
 20
0.0
 11
0.0
 21
0.0
 12
0.0
 22
0.0
 32
0.0
 14
0.0
 24
0.0
 34
0.0
 15
0.0
 25
0.0
 35
0.0
146
0.0
 13
0.0
 23
0.0
 33
0.0
 16
1.0
 26
0.0
 36
0.0
 17
0.0
 27
1.0
 37
0.0
 76
     0
330
23
  0
LAYOUT
  5
22
102
{ACAD_REACTORS
330
1A
102
}
330
1A
100
AcDbPlotSettings
  1

  2
none_device
  4
Letter_(8.50_x_11.00_Inches)
  6

 40
6.35
 41
6.35
 42
6.35000508
 43
6.35000508
 44
215.9
 45
279.4
 46
0.0
 47
0.0
 48
0.0
 49
0.0
140
0.0
141
0.0
142
1.0
143
1.0
 70
  1712
 72
     1
 73
     0
 74
     0
  7

 75
     0
147
1.0
148
0.0
149
0.0
100
AcDbLayout
  1
Model
 70
     1
 71
     0
 10
0.0
 20
0.0
 11
1189.0
 21
841.0
 12
0.0
 22
0.0
 32
0.0
 14
0.0
 24
0.0
 34
0.0
 15
1189.0
 25
841.0
 35
0.0
146
0.0
 13
0.0
 23
0.0
 33
0.0
 16
1.0
 26
0.0
 36
0.0
 17
0.0
 27
1.0
 37
0.0
 76
     0
330
1F
331
29
  0
MLINESTYLE
  5
18
102
{ACAD_REACTORS
330
17
102
}
330
17
100
AcDbMlineStyle
  2
Standard
 70
     0
  3

 62
   256
 51
90.0
 52
90.0
 71
     2
 49
0.5
 62
   256
  6
BYLAYER
 49
-0.5
 62
   256
  6
BYLAYER
  0
ACDBPLACEHOLDER
  5
F
102
{ACAD_REACTORS
330
E
102
}
330
E
  0
SCALE
  5
48
102
{ACAD_REACTORS
330
47
102
}
330
47
100
AcDbScale
 70
     0
300
1:1
140
1.0
141
1.0
290
     1
  0
SCALE
  5
49
102
{ACAD_REACTORS
330
47
102
}
330
47
100
AcDbScale
 70
     0
300
1:2
140
1.0
141
2.0
290
     0
  0
SCALE
  5
4A
102
{ACAD_REACTORS
330
47
102
}
330
47
100
AcDbScale
 70
     0
300
1:4
140
1.0
141
4.0
290
     0
  0
SCALE
  5
4B
102
{ACAD_REACTORS
330
47
102
}
330
47
100
AcDbScale
 70
     0
300
1:5
140
1.0
141
5.0
290
     0
  0
SCALE
  5
4C
102
{ACAD_REACTORS
330
47
102
}
330
47
100
AcDbScale
 70
     0
300
1:8
140
1.0
141
8.0
290
     0
  0
SCALE
  5
4D
102
{ACAD_REACTORS
330
47
102
}
330
47
100
AcDbScale
 70
     0
300
1:10
140
1.0
141
10.0
290
     0
  0
SCALE
  5
4E
102
{ACAD_REACTORS
330
47
102
}
330
47
100
AcDbScale
 70
     0
300
1:16
140
1.0
141
16.0
290
     0
  0
SCALE
  5
4F
102
{ACAD_REACTORS
330
47
102
}
330
47
100
AcDbScale
 70
     0
300
1:20
140
1.0
141
20.0
290
     0
  0
SCALE
  5
50
102
{ACAD_REACTORS
330
47
102
}
330
47
100
AcDbScale
 70
     0
300
1:30
140
1.0
141
30.0
290
     0
  0
SCALE
  5
51
102
{ACAD_REACTORS
330
47
102
}
330
47
100
AcDbScale
 70
     0
300
1:40
140
1.0
141
40.0
290
     0
  0
SCALE
  5
52
102
{ACAD_REACTORS
330
47
102
}
330
47
100
AcDbScale
 70
     0
300
1:50
140
1.0
141
50.0
290
     0
  0
SCALE
  5
53
102
{ACAD_REACTORS
330
47
102
}
330
47
100
AcDbScale
 70
     0
300
1:100
140
1.0
141
100.0
290
     0
  0
SCALE
  5
54
102
{ACAD_REACTORS
330
47
102
}
330
47
100
AcDbScale
 70
     0
300
2:1
140
2.0
141
1.0
290
     0
  0
SCALE
  5
55
102
{ACAD_REACTORS
330
47
102
}
330
47
100
AcDbScale
 70
     0
300
4:1
140
4.0
141
1.0
290
     0
  0
SCALE
  5
56
102
{ACAD_REACTORS
330
47
102
}
330
47
100
AcDbScale
 70
     0
300
8:1
140
8.0
141
1.0
290
     0
  0
SCALE
  5
57
102
{ACAD_REACTORS
330
47
102
}
330
47
100
AcDbScale
 70
     0
300
10:1
140
10.0
141
1.0
290
     0
  0
SCALE
  5
58
102
{ACAD_REACTORS
330
47
102
}
330
47
100
AcDbScale
 70
     0
300
100:1
140
100.0
141
1.0
290
     0
  0
SCALE
  5
59
102
{ACAD_REACTORS
330
47
102
}
330
47
100
AcDbScale
 70
     0
300
1/128" = 1'-0"
140
0.0078125
141
12.0
290
     0
  0
SCALE
  5
5A
102
{ACAD_REACTORS
330
47
102
}
330
47
100
AcDbScale
 70
     0
300
1/64" = 1'-0"
140
0.015625
141
12.0
290
     0
  0
SCALE
  5
5B
102
{ACAD_REACTORS
330
47
102
}
330
47
100
AcDbScale
 70
     0
300
1/32" = 1'-0"
140
0.03125
141
12.0
290
     0
  0
SCALE
  5
5C
102
{ACAD_REACTORS
330
47
102
}
330
47
100
AcDbScale
 70
     0
300
1/16" = 1'-0"
140
0.0625
141
12.0
290
     0
  0
SCALE
  5
5D
102
{ACAD_REACTORS
330
47
102
}
330
47
100
AcDbScale
 70
     0
300
3/32" = 1'-0"
140
0.09375
141
12.0
290
     0
  0
SCALE
  5
5E
102
{ACAD_REACTORS
330
47
102
}
330
47
100
AcDbScale
 70
     0
300
1/8" = 1'-0"
140
0.125
141
12.0
290
     0
  0
SCALE
  5
5F
102
{ACAD_REACTORS
330
47
102
}
330
47
100
AcDbScale
 70
     0
300
3/16" = 1'-0"
140
0.1875
141
12.0
290
     0
  0
SCALE
  5
60
102
{ACAD_REACTORS
330
47
102
}
330
47
100
AcDbScale
 70
     0
300
1/4" = 1'-0"
140
0.25
141
12.0
290
     0
  0
SCALE
  5
61
102
{ACAD_REACTORS
330
47
102
}
330
47
100
AcDbScale
 70
     0
300
3/8" = 1'-0"
140
0.375
141
12.0
290
     0
  0
SCALE
  5
62
102
{ACAD_REACTORS
330
47
102
}
330
47
100
AcDbScale
 70
     0
300
1/2" = 1'-0"
140
0.5
141
12.0
290
     0
  0
SCALE
  5
63
102
{ACAD_REACTORS
330
47
102
}
330
47
100
AcDbScale
 70
     0
300
3/4" = 1'-0"
140
0.75
141
12.0
290
     0
  0
SCALE
  5
64
102
{ACAD_REACTORS
330
47
102
}
330
47
100
AcDbScale
 70
     0
300
1" = 1'-0"
140
1.0
141
12.0
290
     0
  0
SCALE
  5
65
102
{ACAD_REACTORS
330
47
102
}
330
47
100
AcDbScale
 70
     0
300
1-1/2" = 1'-0"
140
1.5
141
12.0
290
     0
  0
SCALE
  5
66
102
{ACAD_REACTORS
330
47
102
}
330
47
100
AcDbScale
 70
     0
300
3" = 1'-0"
140
3.0
141
12.0
290
     0
  0
SCALE
  5
67
102
{ACAD_REACTORS
330
47
102
}
330
47
100
AcDbScale
 70
     0
300
6" = 1'-0"
140
6.0
141
12.0
290
     0
  0
SCALE
  5
68
102
{ACAD_REACTORS
330
47
102
}
330
47
100
AcDbScale
 70
     0
300
1'-0" = 1'-0"
140
12.0
141
12.0
290
     0
  0
ENDSEC
  0
EOF
