  0
SECTION
  2
HEADER
  9
$ACADVER
  1
AC1015
  9
$ACADMAINTVER
 70
     6
  9
$DWGCODEPAGE
  3
ANSI_1252
  9
$INSBASE
 10
0.0
 20
0.0
 30
0.0
  9
$EXTMIN
 10
0.0
 20
0.0
 30
0.0
  9
$EXTMAX
 10
1189.0
 20
841.0
 30
0.0
  9
$LIMMIN
 10
0.0
 20
0.0
  9
$LIMMAX
 10
1189.0
 20
841.0
  9
$ORTHOMODE
 70
     0
  9
$REGENMODE
 70
     1
  9
$FILLMODE
 70
     1
  9
$QTEXTMODE
 70
     0
  9
$MIRRTEXT
 70
     1
  9
$LTSCALE
 40
1.0
  9
$ATTMODE
 70
     1
  9
$TEXTSIZE
 40
3.5
  9
$TRACEWID
 40
1.0
  9
$TEXTSTYLE
  7
Standard
  9
$CLAYER
  8
0
  9
$CELTYPE
  6
ByLayer
  9
$CECOLOR
 62
   256
  9
$CELTSCALE
 40
1.0
  9
$DISPSILH
 70
     0
  9
$DIMSCALE
 40
1.0
  9
$DIMASZ
 40
3.302
  9
$DIMEXO
 40
1.0
  9
$DIMDLI
 40
3.75
  9
$DIMRND
 40
0.0
  9
$DIMDLE
 40
0.0
  9
$DIMEXE
 40
1.0
  9
$DIMTP
 40
0.0
  9
$DIMTM
 40
0.0
  9
$DIMTXT
 40
3.5
  9
$DIMCEN
 40
2.5
  9
$DIMTSZ
 40
0.0
  9
$DIMTOL
 70
     0
  9
$DIMLIM
 70
     0
  9
$DIMTIH
 70
     1
  9
$DIMTOH
 70
     1
  9
$DIMSE1
 70
     0
  9
$DIMSE2
 70
     0
  9
$DIMTAD
 70
     1
  9
$DIMZIN
 70
     0
  9
$DIMBLK
  1

  9
$DIMASO
 70
     1
  9
$DIMSHO
 70
     1
  9
$DIMPOST
  1

  9
$DIMAPOST
  1

  9
$DIMALT
 70
     0
  9
$DIMALTD
 70
     3
  9
$DIMALTF
 40
0.0393700787
  9
$DIMLFAC
 40
5.0
  9
$DIMTOFL
 70
     1
  9
$DIMTVP
 40
0.0
  9
$DIMTIX
 70
     0
  9
$DIMSOXD
 70
     0
  9
$DIMSAH
 70
     0
  9
$DIMBLK1
  1

  9
$DIMBLK2
  1

  9
$DIMSTYLE
  2
ISO-25
  9
$DIMCLRD
 70
     0
  9
$DIMCLRE
 70
     0
  9
$DIMCLRT
 70
     0
  9
$DIMTFAC
 40
1.0
  9
$DIMGAP
 40
1.524
  9
$DIMJUST
 70
     0
  9
$DIMSD1
 70
     0
  9
$DIMSD2
 70
     0
  9
$DIMTOLJ
 70
     0
  9
$DIMTZIN
 70
     0
  9
$DIMALTZ
 70
     0
  9
$DIMALTTZ
 70
     0
  9
$DIMUPT
 70
     0
  9
$DIMDEC
 70
     2
  9
$DIMTDEC
 70
     2
  9
$DIMALTU
 70
     2
  9
$DIMALTTD
 70
     3
  9
$DIMTXSTY
  7
Standard
  9
$DIMAUNIT
 70
     0
  9
$DIMADEC
 70
     2
  9
$DIMALTRND
 40
0.0
  9
$DIMAZIN
 70
     0
  9
$DIMDSEP
 70
    44
  9
$DIMATFIT
 70
     3
  9
$DIMFRAC
 70
     0
  9
$DIMLDRBLK
  1

  9
$DIMLUNIT
 70
     2
  9
$DIMLWD
 70
    -2
  9
$DIMLWE
 70
    -2
  9
$DIMTMOVE
 70
     0
  9
$LUNITS
 70
     2
  9
$LUPREC
 70
     2
  9
$SKETCHINC
 40
1.0
  9
$FILLETRAD
 40
10.0
  9
$AUNITS
 70
     0
  9
$AUPREC
 70
     2
  9
$MENU
  1
.
  9
$ELEVATION
 40
0.0
  9
$PELEVATION
 40
0.0
  9
$THICKNESS
 40
0.0
  9
$LIMCHECK
 70
     0
  9
$CHAMFERA
 40
0.0
  9
$CHAMFERB
 40
0.0
  9
$CHAMFERC
 40
0.0
  9
$CHAMFERD
 40
0.0
  9
$SKPOLY
 70
     0
  9
$TDCREATE
 40
2458054.737078241
  9
$TDUCREATE
 40
2458054.695411574
  9
$TDUPDATE
 40
2458054.737078357
  9
$TDUUPDATE
 40
2458054.69541169
  9
$TDINDWG
 40
0.0000000116
  9
$TDUSRTIMER
 40
0.0000000116
  9
$USRTIMER
 70
     1
  9
$ANGBASE
 50
0.0
  9
$ANGDIR
 70
     0
  9
$PDMODE
 70
     0
  9
$PDSIZE
 40
-1.0
  9
$PLINEWID
 40
0.0
  9
$SPLFRAME
 70
     0
  9
$SPLINETYPE
 70
     6
  9
$SPLINESEGS
 70
     8
  9
$HANDSEED
  5
D2
  9
$SURFTAB1
 70
     6
  9
$SURFTAB2
 70
     6
  9
$SURFTYPE
 70
     6
  9
$SURFU
 70
     6
  9
$SURFV
 70
     6
  9
$UCSBASE
  2

  9
$UCSNAME
  2

  9
$UCSORG
 10
0.0
 20
0.0
 30
0.0
  9
$UCSXDIR
 10
1.0
 20
0.0
 30
0.0
  9
$UCSYDIR
 10
0.0
 20
1.0
 30
0.0
  9
$UCSORTHOREF
  2

  9
$UCSORTHOVIEW
 70
     0
  9
$UCSORGTOP
 10
0.0
 20
0.0
 30
0.0
  9
$UCSORGBOTTOM
 10
0.0
 20
0.0
 30
0.0
  9
$UCSORGLEFT
 10
0.0
 20
0.0
 30
0.0
  9
$UCSORGRIGHT
 10
0.0
 20
0.0
 30
0.0
  9
$UCSORGFRONT
 10
0.0
 20
0.0
 30
0.0
  9
$UCSORGBACK
 10
0.0
 20
0.0
 30
0.0
  9
$PUCSBASE
  2

  9
$PUCSNAME
  2

  9
$PUCSORG
 10
0.0
 20
0.0
 30
0.0
  9
$PUCSXDIR
 10
1.0
 20
0.0
 30
0.0
  9
$PUCSYDIR
 10
0.0
 20
1.0
 30
0.0
  9
$PUCSORTHOREF
  2

  9
$PUCSORTHOVIEW
 70
     0
  9
$PUCSORGTOP
 10
0.0
 20
0.0
 30
0.0
  9
$PUCSORGBOTTOM
 10
0.0
 20
0.0
 30
0.0
  9
$PUCSORGLEFT
 10
0.0
 20
0.0
 30
0.0
  9
$PUCSORGRIGHT
 10
0.0
 20
0.0
 30
0.0
  9
$PUCSORGFRONT
 10
0.0
 20
0.0
 30
0.0
  9
$PUCSORGBACK
 10
0.0
 20
0.0
 30
0.0
  9
$USERI1
 70
     0
  9
$USERI2
 70
     0
  9
$USERI3
 70
     0
  9
$USERI4
 70
     0
  9
$USERI5
 70
     0
  9
$USERR1
 40
0.0
  9
$USERR2
 40
0.0
  9
$USERR3
 40
0.0
  9
$USERR4
 40
0.0
  9
$USERR5
 40
0.0
  9
$WORLDVIEW
 70
     1
  9
$SHADEDGE
 70
     3
  9
$SHADEDIF
 70
    70
  9
$TILEMODE
 70
     1
  9
$MAXACTVP
 70
    64
  9
$PINSBASE
 10
0.0
 20
0.0
 30
0.0
  9
$PLIMCHECK
 70
     0
  9
$PEXTMIN
 10
1.0000000000E+20
 20
1.0000000000E+20
 30
1.0000000000E+20
  9
$PEXTMAX
 10
-1.0000000000E+20
 20
-1.0000000000E+20
 30
-1.0000000000E+20
  9
$PLIMMIN
 10
0.0
 20
0.0
  9
$PLIMMAX
 10
420.0
 20
297.0
  9
$UNITMODE
 70
     0
  9
$VISRETAIN
 70
     1
  9
$PLINEGEN
 70
     0
  9
$PSLTSCALE
 70
     1
  9
$TREEDEPTH
 70
  3020
  9
$CMLSTYLE
  2
Standard
  9
$CMLJUST
 70
     0
  9
$CMLSCALE
 40
20.0
  9
$PROXYGRAPHICS
 70
     1
  9
$MEASUREMENT
 70
     1
  9
$CELWEIGHT
370
    -1
  9
$ENDCAPS
280
     0
  9
$JOINSTYLE
280
     0
  9
$LWDISPLAY
290
     1
  9
$INSUNITS
 70
     4
  9
$HYPERLINKBASE
  1

  9
$STYLESHEET
  1

  9
$XEDIT
290
     1
  9
$CEPSNTYPE
380
     0
  9
$PSTYLEMODE
290
     1
  9
$FINGERPRINTGUID
  2
{D6495155-D72A-4138-BF7D-E6D0C5BF7B79}
  9
$VERSIONGUID
  2
{FAEB1C32-E019-11D5-929B-00C0DF256EC4}
  9
$EXTNAMES
290
     1
  9
$PSVPSCALE
 40
0.0
  9
$OLESTARTUP
290
     0
  0
ENDSEC
  0
SECTION
  2
CLASSES
  0
CLASS
  1
ACDBDICTIONARYWDFLT
  2
AcDbDictionaryWithDefault
  3
ObjectDBX Classes
 90
        0
280
     0
281
     0
  0
CLASS
  1
VISUALSTYLE
  2
AcDbVisualStyle
  3
ObjectDBX Classes
 90
     4095
280
     0
281
     0
  0
CLASS
  1
MATERIAL
  2
AcDbMaterial
  3
ObjectDBX Classes
 90
     1153
280
     0
281
     0
  0
CLASS
  1
SCALE
  2
AcDbScale
  3
ObjectDBX Classes
 90
     1153
280
     0
281
     0
  0
CLASS
  1
TABLESTYLE
  2
AcDbTableStyle
  3
ObjectDBX Classes
 90
     4095
280
     0
281
     0
  0
CLASS
  1
MLEADERSTYLE
  2
AcDbMLeaderStyle
  3
ACDB_MLEADERSTYLE_CLASS
 90
     4095
280
     0
281
     0
  0
CLASS
  1
SUN
  2
AcDbSun
  3
SCENEOE
 90
     1153
280
     0
281
     0
  0
CLASS
  1
ACDBPLACEHOLDER
  2
AcDbPlaceHolder
  3
ObjectDBX Classes
 90
        0
280
     0
281
     0
  0
CLASS
  1
LAYOUT
  2
AcDbLayout
  3
ObjectDBX Classes
 90
        0
280
     0
281
     0
  0
ENDSEC
  0
SECTION
  2
TABLES
  0
TABLE
  2
VPORT
  5
8
330
0
100
AcDbSymbolTable
 70
     1
  0
VPORT
  5
29
330
8
100
AcDbSymbolTableRecord
100
AcDbViewportTableRecord
  2
*Active
 70
     0
 10
0.0
 20
0.0
 11
1.0
 21
1.0
 12
594.5
 22
420.5
 13
0.0
 23
0.0
 14
10.0
 24
10.0
 15
10.0
 25
10.0
 16
0.0
 26
0.0
 36
1.0
 17
0.0
 27
0.0
 37
0.0
 40
841.0
 41
1.4137931034
 42
50.0
 43
0.0
 44
0.0
 50
0.0
 51
0.0
 71
     0
 72
  2000
 73
     1
 74
     3
 75
     0
 76
     0
 77
     0
 78
     0
281
     0
 65
     1
110
0.0
120
0.0
130
0.0
111
1.0
121
0.0
131
0.0
112
0.0
122
1.0
132
0.0
 79
     0
146
0.0
  0
ENDTAB
  0
TABLE
  2
LTYPE
  5
5
330
0
100
AcDbSymbolTable
 70
     6
  0
LTYPE
  5
14
330
5
100
AcDbSymbolTableRecord
100
AcDbLinetypeTableRecord
  2
ByBlock
 70
     0
  3

 72
    65
 73
     0
 40
0.0
  0
LTYPE
  5
15
330
5
100
AcDbSymbolTableRecord
100
AcDbLinetypeTableRecord
  2
ByLayer
 70
     0
  3

 72
    65
 73
     0
 40
0.0
  0
LTYPE
  5
16
330
5
100
AcDbSymbolTableRecord
100
AcDbLinetypeTableRecord
  2
Continuous
 70
     0
  3
Solid line
 72
    65
 73
     0
 40
0.0
  0
LTYPE
  5
6E
330
5
100
AcDbSymbolTableRecord
100
AcDbLinetypeTableRecord
  2
HIDDEN
 70
     0
  3
Hidden __ __ __ __ __ __ __ __ __ __ __ __ __ __
 72
    65
 73
     2
 40
1.905
 49
1.27
 74
     0
 49
-0.635
 74
     0
  0
LTYPE
  5
6F
330
5
100
AcDbSymbolTableRecord
100
AcDbLinetypeTableRecord
  2
PHANTOM
 70
     0
  3
Phantom ______  __  __  ______  __  __  ______
 72
    65
 73
     6
 40
12.7
 49
6.35
 74
     0
 49
-1.27
 74
     0
 49
1.27
 74
     0
 49
-1.27
 74
     0
 49
1.27
 74
     0
 49
-1.27
 74
     0
  0
LTYPE
  5
70
330
5
100
AcDbSymbolTableRecord
100
AcDbLinetypeTableRecord
  2
CENTER
 70
     0
  3
Center ____ _ ____ _ ____ _ ____ _ ____ _ ____
 72
    65
 73
     4
 40
10.16
 49
6.35
 74
     0
 49
-1.27
 74
     0
 49
1.27
 74
     0
 49
-1.27
 74
     0
  0
LTYPE
  5
71
330
5
100
AcDbSymbolTableRecord
100
AcDbLinetypeTableRecord
  2
CENTERX2
 70
     0
  3
Center (2x) ________  __  ________  __  _____
 72
    65
 73
     4
 40
20.32
 49
12.7
 74
     0
 49
-2.54
 74
     0
 49
2.54
 74
     0
 49
-2.54
 74
     0
  0
LTYPE
  5
72
330
5
100
AcDbSymbolTableRecord
100
AcDbLinetypeTableRecord
  2
DOT2
 70
     0
  3
Dot (.5x) ........................................
 72
    65
 73
     2
 40
0.635
 49
0.0
 74
     0
 49
-0.635
 74
     0
  0
ENDTAB
  0
TABLE
  2
LAYER
  5
2
330
0
100
AcDbSymbolTable
 70
     2
  0
LAYER
  5
10
330
2
100
AcDbSymbolTableRecord
100
AcDbLayerTableRecord
  2
0
 70
     0
 62
     7
  6
Continuous
370
    -3
390
F
  0
LAYER
  5
73
330
2
100
AcDbSymbolTableRecord
100
AcDbLayerTableRecord
  2
FORMAT
 70
     0
 62
     7
  6
Continuous
370
    -3
390
F
  0
ENDTAB
  0
TABLE
  2
STYLE
  5
3
330
0
100
AcDbSymbolTable
 70
     1
  0
STYLE
  5
11
330
3
100
AcDbSymbolTableRecord
100
AcDbTextStyleTableRecord
  2
Standard
 70
     0
 40
0.0
 41
1.0
 50
0.0
 71
     0
 42
3.5
  3
txt
  4

  0
ENDTAB
  0
TABLE
  2
VIEW
  5
6
330
0
100
AcDbSymbolTable
 70
     0
  0
ENDTAB
  0
TABLE
  2
UCS
  5
7
330
0
100
AcDbSymbolTable
 70
     0
  0
ENDTAB
  0
TABLE
  2
APPID
  5
9
330
0
100
AcDbSymbolTable
 70
     1
  0
APPID
  5
12
330
9
100
AcDbSymbolTableRecord
100
AcDbRegAppTableRecord
  2
ACAD
 70
     0
  0
ENDTAB
  0
TABLE
  2
DIMSTYLE
  5
A
330
0
100
AcDbSymbolTable
 70
     1
100
AcDbDimStyleTable
  0
DIMSTYLE
105
27
330
A
100
AcDbSymbolTableRecord
100
AcDbDimStyleTableRecord
  2
ISO-25
 70
     0
 41
2.5
 42
0.625
 43
3.75
 44
1.25
 73
     0
 74
     0
 77
     1
 78
     8
140
2.5
141
2.5
143
0.0393700787
147
0.625
171
     3
172
     1
178
     0
271
     2
272
     2
274
     3
278
    44
283
     0
284
     8
340
11
  0
ENDTAB
  0
TABLE
  2
BLOCK_RECORD
  5
1
330
0
100
AcDbSymbolTable
 70
     1
  0
BLOCK_RECORD
  5
1F
330
1
100
AcDbSymbolTableRecord
100
AcDbBlockTableRecord
  2
*Model_Space
340
22
  0
BLOCK_RECORD
  5
1B
330
1
100
AcDbSymbolTableRecord
100
AcDbBlockTableRecord
  2
*Paper_Space
340
1E
  0
BLOCK_RECORD
  5
23
330
1
100
AcDbSymbolTableRecord
100
AcDbBlockTableRecord
  2
*Paper_Space0
340
26
  0
ENDTAB
  0
ENDSEC
  0
SECTION
  2
BLOCKS
  0
BLOCK
  5
20
330
1F
100
AcDbEntity
  8
0
100
AcDbBlockBegin
  2
*Model_Space
 70
     0
 10
0.0
 20
0.0
 30
0.0
  3
*Model_Space
  1

  0
ENDBLK
  5
21
330
1F
100
AcDbEntity
  8
0
100
AcDbBlockEnd
  0
BLOCK
  5
1C
330
1B
100
AcDbEntity
 67
     1
  8
0
100
AcDbBlockBegin
  2
*Paper_Space
 70
     0
 10
0.0
 20
0.0
 30
0.0
  3
*Paper_Space
  1

  0
ENDBLK
  5
1D
330
1B
100
AcDbEntity
 67
     1
  8
0
100
AcDbBlockEnd
  0
BLOCK
  5
24
330
23
100
AcDbEntity
  8
0
100
AcDbBlockBegin
  2
*Paper_Space0
 70
     0
 10
0.0
 20
0.0
 30
0.0
  3
*Paper_Space0
  1

  0
ENDBLK
  5
25
330
23
100
AcDbEntity
  8
0
100
AcDbBlockEnd
  0
ENDSEC
  0
SECTION
  2
ENTITIES
  0
LINE
  5
74
330
1F
100
AcDbEntity
  8
0
  6
Continuous
 62
     7
370
    15
100
AcDbLine
 10
372.6457616805
 20
319.0985208867
 30
0.0
 11
372.6457616805
 21
315.4985208867
 31
0.0
  0
LINE
  5
75
330
1F
100
AcDbEntity
  8
0
  6
Continuous
 62
     7
370
    15
100
AcDbLine
 10
372.6457616805
 20
319.0985208867
 30
0.0
 11
442.6457616805
 21
319.0985208867
 31
0.0
  0
LINE
  5
76
330
1F
100
AcDbEntity
  8
0
  6
Continuous
 62
     7
370
    15
100
AcDbLine
 10
372.6457616805
 20
315.4985208867
 30
0.0
 11
442.6457616805
 21
315.4985208867
 31
0.0
  0
LINE
  5
77
330
1F
100
AcDbEntity
  8
0
  6
Continuous
 62
     7
370
    15
100
AcDbLine
 10
442.6457616805
 20
319.0985208867
 30
0.0
 11
442.6457616805
 21
315.4985208867
 31
0.0
  0
LINE
  5
78
330
1F
100
AcDbEntity
  8
0
  6
Continuous
 62
     7
370
    15
100
AcDbLine
 10
362.6457616805
 20
234.6985208867
 30
0.0
 11
362.6457616805
 21
231.0985208867
 31
0.0
  0
LINE
  5
79
330
1F
100
AcDbEntity
  8
0
  6
Continuous
 62
     7
370
    15
100
AcDbLine
 10
452.6457616805
 20
234.6985208867
 30
0.0
 11
452.6457616805
 21
231.0985208867
 31
0.0
  0
LINE
  5
7A
330
1F
100
AcDbEntity
  8
0
  6
Continuous
 62
     7
370
    15
100
AcDbLine
 10
362.6457616805
 20
231.0985208867
 30
0.0
 11
452.6457616805
 21
231.0985208867
 31
0.0
  0
LINE
  5
7B
330
1F
100
AcDbEntity
  8
0
  6
Continuous
 62
     7
370
    15
100
AcDbLine
 10
362.6457616805
 20
234.6985208867
 30
0.0
 11
452.6457616805
 21
234.6985208867
 31
0.0
  0
LINE
  5
7C
330
1F
100
AcDbEntity
  8
0
  6
Continuous
 62
     7
370
    15
100
AcDbLine
 10
372.6457616805
 20
315.4985208867
 30
0.0
 11
362.6457616805
 21
234.6985208867
 31
0.0
  0
LINE
  5
7D
330
1F
100
AcDbEntity
  8
0
  6
Continuous
 62
     7
370
    15
100
AcDbLine
 10
452.6457616805
 20
234.6985208867
 30
0.0
 11
442.6457616805
 21
315.4985208867
 31
0.0
  0
LINE
  5
7E
330
1F
100
AcDbEntity
  8
0
  6
Continuous
 62
     7
370
    15
100
AcDbLine
 10
442.6457616805
 20
319.0985208867
 30
0.0
 11
443.8457616805
 21
319.0985208867
 31
0.0
  0
LINE
  5
7F
330
1F
100
AcDbEntity
  8
0
  6
Continuous
 62
     7
370
    15
100
AcDbLine
 10
453.8457616751
 20
231.0985208867
 30
0.0
 11
453.8457616751
 21
234.6985208867
 31
0.0
  0
LINE
  5
80
330
1F
100
AcDbEntity
  8
0
  6
Continuous
 62
     7
370
    15
100
AcDbLine
 10
453.8457616751
 20
231.0985208867
 30
0.0
 11
452.6457616805
 21
231.0985208867
 31
0.0
  0
LINE
  5
81
330
1F
100
AcDbEntity
  8
0
  6
Continuous
 62
     7
370
    15
100
AcDbLine
 10
443.8457616805
 20
315.4985208867
 30
0.0
 11
453.8457616751
 21
234.6985208867
 31
0.0
  0
LINE
  5
82
330
1F
100
AcDbEntity
  8
0
  6
Continuous
 62
     7
370
    15
100
AcDbLine
 10
443.8457616805
 20
319.0985208867
 30
0.0
 11
443.8457616805
 21
315.4985208867
 31
0.0
  0
LINE
  5
83
330
1F
100
AcDbEntity
  8
0
  6
Continuous
 62
     7
370
    15
100
AcDbLine
 10
371.4457616805
 20
319.0985208867
 30
0.0
 11
372.6457616805
 21
319.0985208867
 31
0.0
  0
LINE
  5
84
330
1F
100
AcDbEntity
  8
0
  6
Continuous
 62
     7
370
    15
100
AcDbLine
 10
362.6457616805
 20
231.0985208867
 30
0.0
 11
361.4457616804
 21
231.0985208867
 31
0.0
  0
LINE
  5
85
330
1F
100
AcDbEntity
  8
0
  6
Continuous
 62
     7
370
    15
100
AcDbLine
 10
371.4457616805
 20
315.4985208867
 30
0.0
 11
361.4457616804
 21
234.6985208867
 31
0.0
  0
LINE
  5
86
330
1F
100
AcDbEntity
  8
0
  6
Continuous
 62
     7
370
    15
100
AcDbLine
 10
361.4457616804
 20
231.0985208867
 30
0.0
 11
361.4457616804
 21
234.6985208867
 31
0.0
  0
LINE
  5
87
330
1F
100
AcDbEntity
  8
0
  6
Continuous
 62
     7
370
    15
100
AcDbLine
 10
371.4457616805
 20
319.0985208867
 30
0.0
 11
371.4457616805
 21
315.4985208867
 31
0.0
  0
LWPOLYLINE
  5
88
330
1F
100
AcDbEntity
  8
0
  6
Continuous
 62
     7
370
    15
100
AcDbPolyline
 90
       45
 70
   128
 43
0.0
 10
442.6457616805
 20
579.7265388329
 10
441.0124283471
 20
583.9561566107
 10
439.3790950138
 20
587.9836766107
 10
437.7457616805
 20
591.8090988329
 10
436.1124283471
 20
595.4324232773
 10
434.4790950138
 20
598.853649944
 10
432.8457616805
 20
602.0727788329
 10
431.3057616805
 20
604.9228524329
 10
429.7657616805
 20
607.5932652329
 10
428.2257616805
 20
610.0840172329
 10
426.6857616805
 20
612.3951084329
 10
425.1457616805
 20
614.5265388329
 10
423.5124283471
 20
616.5908232773
 10
421.8790950138
 20
618.453009944
 10
420.2457616805
 20
620.1130988329
 10
418.6124283471
 20
621.571089944
 10
416.9790950138
 20
622.8269832773
 10
415.3457616805
 20
623.8807788329
 10
413.8057616805
 20
624.6892524329
 10
412.2657616805
 20
625.3180652329
 10
410.7257616805
 20
625.7672172329
 10
409.1857616805
 20
626.0367084329
 10
407.6457616805
 20
626.1265388329
 10
406.0124283471
 20
626.025489944
 10
404.3790950138
 20
625.7223432773
 10
402.7457616805
 20
625.2170988329
 10
401.1124283471
 20
624.5097566107
 10
399.4790950138
 20
623.6003166107
 10
397.8457616805
 20
622.4887788329
 10
396.3057616805
 20
621.2556524329
 10
394.7657616805
 20
619.8428652329
 10
393.2257616805
 20
618.2504172329
 10
391.6857616805
 20
616.4783084329
 10
390.1457616805
 20
614.5265388329
 10
388.5124283471
 20
612.2601566107
 10
386.8790950138
 20
609.7916766107
 10
385.2457616805
 20
607.1210988329
 10
383.6124283471
 20
604.2484232773
 10
381.9790950138
 20
601.173649944
 10
380.3457616805
 20
597.8967788329
 10
378.8057616805
 20
594.6220524329
 10
377.2657616805
 20
591.1676652329
 10
375.7257616805
 20
587.5336172329
 10
374.1857616805
 20
583.7199084329
 10
372.6457616805
 20
579.7265388329
  0
LINE
  5
89
330
1F
100
AcDbEntity
  8
0
  6
Continuous
 62
     7
370
    15
100
AcDbLine
 10
442.6457616805
 20
576.1265388329
 30
0.0
 11
442.6457616805
 21
579.7265388329
 31
0.0
  0
LINE
  5
8A
330
1F
100
AcDbEntity
  8
0
  6
Continuous
 62
     7
370
    15
100
AcDbLine
 10
372.6457616805
 20
576.1265388329
 30
0.0
 11
442.6457616805
 21
576.1265388329
 31
0.0
  0
LINE
  5
8B
330
1F
100
AcDbEntity
  8
0
  6
Continuous
 62
     7
370
    15
100
AcDbLine
 10
372.6457616805
 20
579.7265388329
 30
0.0
 11
372.6457616805
 21
576.1265388329
 31
0.0
  0
LINE
  5
8C
330
1F
100
AcDbEntity
  8
0
  6
Continuous
 62
     7
370
    15
100
AcDbLine
 10
371.4457616805
 20
576.1265388329
 30
0.0
 11
372.6457616805
 21
576.1265388329
 31
0.0
  0
LINE
  5
8D
330
1F
100
AcDbEntity
  8
0
  6
Continuous
 62
     7
370
    15
100
AcDbLine
 10
371.4457616805
 20
579.9450857964
 30
0.0
 11
371.4457616805
 21
576.1265388329
 31
0.0
  0
LINE
  5
8E
330
1F
100
AcDbEntity
  8
0
  6
Continuous
 62
     7
370
    15
100
AcDbLine
 10
443.8457616805
 20
576.1265388329
 30
0.0
 11
443.8457616805
 21
579.9450857964
 31
0.0
  0
LINE
  5
8F
330
1F
100
AcDbEntity
  8
0
  6
Continuous
 62
     7
370
    15
100
AcDbLine
 10
442.6457616805
 20
576.1265388329
 30
0.0
 11
443.8457616805
 21
576.1265388329
 31
0.0
  0
LINE
  5
90
330
1F
100
AcDbEntity
  8
0
  6
Continuous
 62
     7
370
    15
100
AcDbLine
 10
442.6457616851
 20
579.7265388207
 30
0.0
 11
442.6457616805
 21
576.1265388329
 31
0.0
  0
LWPOLYLINE
  5
91
330
1F
100
AcDbEntity
  8
0
  6
Continuous
 62
     7
370
    15
100
AcDbPolyline
 90
       41
 70
   128
 43
0.0
 10
372.64576168
 20
579.7265388318
 10
374.5551319269
 20
584.6510076694
 10
376.4645021738
 20
589.2992965299
 10
378.3738724207
 20
593.6714054135
 10
380.2832426676
 20
597.76733432
 10
382.1926129144
 20
601.5870832495
 10
384.0678872641
 20
605.0697960439
 10
385.9431616137
 20
608.2861043642
 10
387.8184359633
 20
611.2360082106
 10
389.6937103129
 20
613.9195075829
 10
391.3692351072
 20
616.0918166107
 10
393.0447599015
 20
618.0514520273
 10
394.7202846958
 20
619.7984138329
 10
396.3958094901
 20
621.3327020273
 10
398.0713342844
 20
622.6543166107
 10
399.7468590787
 20
623.7632575829
 10
401.3266395991
 20
624.6140388329
 10
402.9064201194
 20
625.2757575829
 10
404.4862006398
 20
625.7484138329
 10
406.0659811601
 20
626.0320075829
 10
407.6457616805
 20
626.1265388329
 10
409.3212864748
 20
626.0202020273
 10
410.9968112691
 20
625.7011916107
 10
412.6723360634
 20
625.1695075829
 10
414.3478608577
 20
624.425149944
 10
416.023385652
 20
623.468118694
 10
417.6989104463
 20
622.2984138329
 10
419.2786909666
 20
621.0007575829
 10
420.858471487
 20
619.5140388329
 10
422.4382520073
 20
617.8382575829
 10
424.0180325276
 20
615.9734138329
 10
425.597813048
 20
613.9195075829
 10
427.5071832953
 20
611.1847514195
 10
429.4165535427
 20
608.173815279
 10
431.32592379
 20
604.8866991613
 10
433.2352940374
 20
601.3234030665
 10
435.1446642848
 20
597.4839269945
 10
437.0199386348
 20
593.4441866622
 10
438.8952129849
 20
589.1380418558
 10
440.770487335
 20
584.5654925753
 10
442.6457616851
 20
579.7265388207
  0
LWPOLYLINE
  5
92
330
1F
100
AcDbEntity
  8
0
  6
Continuous
 62
     7
370
    15
100
AcDbPolyline
 90
       45
 70
   128
 43
0.0
 10
443.8457616805
 20
579.9450857964
 10
442.1971759451
 20
584.2230927722
 10
440.5478339315
 20
588.2977260354
 10
438.8977356397
 20
592.1689855859
 10
437.2468810697
 20
595.8368714238
 10
435.5952702215
 20
599.3013835492
 10
433.9429030951
 20
602.5625219619
 10
432.3842642583
 20
605.4510358894
 10
430.8249531056
 20
608.1587547368
 10
429.264969637
 20
610.6856785042
 10
427.7043138525
 20
613.0318071916
 10
426.1429857521
 20
615.197140799
 10
424.3378584805
 20
617.4744843177
 10
422.5288959385
 20
619.5147746627
 10
420.7160981261
 20
621.3180118338
 10
418.8994650433
 20
622.8841958312
 10
417.0789966901
 20
624.2133266549
 10
415.5151766331
 20
625.1645762056
 10
413.9480022649
 20
625.9428734146
 10
412.3774735855
 20
626.5482182819
 10
410.803590595
 20
626.9806108073
 10
409.2263532933
 20
627.240050991
 10
407.6457616805
 20
627.3265388329
 10
406.0652280013
 20
627.2400704423
 10
404.4880254599
 20
626.9806419293
 10
402.9141540561
 20
626.5482532941
 10
401.34361379
 20
625.9429045367
 10
399.7764046615
 20
625.1645956569
 10
398.2125266708
 20
624.2133266549
 10
396.3921142318
 20
622.8842542897
 10
394.5755091061
 20
621.3180995215
 10
392.7627112937
 20
619.5148623504
 10
390.9537207946
 20
617.4745427762
 10
389.1485376088
 20
615.197140799
 10
387.4926175763
 20
612.8947971385
 10
385.837451268
 20
610.3890729787
 10
384.1830386838
 20
607.6799683195
 10
382.5293798237
 20
604.7674831609
 10
380.8764746878
 20
601.651617503
 10
379.224323276
 20
598.3323713457
 10
377.6672708661
 20
595.0165164625
 10
376.1108885016
 20
591.519860466
 10
374.5551761825
 20
587.8424033561
 10
373.0001339088
 20
583.9841451329
 10
371.4457616805
 20
579.9450857964
  0
LINE
  5
93
330
1F
100
AcDbEntity
  8
0
  6
Continuous
 62
     7
370
    15
100
AcDbLine
 10
371.4457616805
 20
579.9450857964
 30
0.0
 11
361.4457616804
 21
579.8994766873
 31
0.0
  0
LWPOLYLINE
  5
94
330
1F
100
AcDbEntity
  8
0
  6
Continuous
 62
     7
370
    15
100
AcDbPolyline
 90
       53
 70
   128
 43
0.0
 10
453.8457616751
 20
579.8994767057
 10
452.0399204191
 20
585.9151842707
 10
450.2336262799
 20
591.6867967083
 10
448.4267795897
 20
597.2144985881
 10
446.6192913288
 20
602.4983996318
 10
444.811051717
 20
607.5386310587
 10
443.0019226851
 20
612.3353524121
 10
441.1917374591
 20
616.888744391
 10
439.531293884
 20
620.849105928
 10
437.8695916838
 20
624.6053561847
 10
436.2063904248
 20
628.1576992596
 10
434.5413875545
 20
631.5063580902
 10
432.8742065834
 20
634.6515768794
 10
431.2044140041
 20
637.593631579
 10
429.3030588103
 20
640.6906274686
 10
427.3964231236
 20
643.5260142305
 10
425.4831982492
 20
646.1001537102
 10
423.5618581735
 20
648.4132924569
 10
421.6300076075
 20
650.4652158341
 10
419.6850339429
 20
652.2555939091
 10
418.0055091141
 20
653.5813295436
 10
416.3129027374
 20
654.711727239
 10
414.6056941922
 20
655.6438471883
 10
412.8824950322
 20
656.3747372972
 10
411.1449568184
 20
656.9011628628
 10
409.3977711193
 20
657.2196065742
 10
407.6457616775
 20
657.3265388329
 10
405.8937522357
 20
657.2196065734
 10
404.1465665366
 20
656.9011628614
 10
402.4090283229
 20
656.3747372951
 10
400.6858291629
 20
655.6438471856
 10
398.9786206178
 20
654.7117272355
 10
397.2860142411
 20
653.5813295394
 10
395.6064894124
 20
652.2555939044
 10
393.6615157478
 20
650.4652158286
 10
391.7296651818
 20
648.4132924506
 10
389.8083251062
 20
646.1001537031
 10
387.8951002318
 20
643.5260142227
 10
385.9884645451
 20
640.6906274601
 10
384.0871093514
 20
637.5936315697
 10
382.2656539092
 20
634.3740475054
 10
380.4472573936
 20
630.9126502488
 10
378.6313689549
 20
627.2090884931
 10
376.8175160348
 20
623.2630505471
 10
375.0053390384
 20
619.0742559258
 10
373.1945493842
 20
614.6424523546
 10
371.3849149886
 20
609.9674194884
 10
369.7269391618
 20
605.4681375985
 10
368.0696585265
 20
600.7641813731
 10
366.412975228
 20
595.8554323057
 10
364.7568113452
 20
590.7418005809
 10
363.1011014656
 20
585.423205314
 10
361.4457616804
 20
579.8994766873
  0
LINE
  5
95
330
1F
100
AcDbEntity
  8
0
  6
Continuous
 62
     7
370
    15
100
AcDbLine
 10
443.8457616805
 20
579.9450857964
 30
0.0
 11
453.8457616751
 21
579.8994767057
 31
0.0
  0
LINE
  5
96
330
1F
100
AcDbEntity
  8
0
  6
Continuous
 62
     7
370
    15
100
AcDbLine
 10
361.4457616804
 20
579.8994766873
 30
0.0
 11
361.4457616804
 21
576.1265388329
 31
0.0
  0
LINE
  5
97
330
1F
100
AcDbEntity
  8
0
  6
Continuous
 62
     7
370
    15
100
AcDbLine
 10
371.4457616805
 20
576.1265388329
 30
0.0
 11
361.4457616804
 21
576.1265388329
 31
0.0
  0
LINE
  5
98
330
1F
100
AcDbEntity
  8
0
  6
Continuous
 62
     7
370
    15
100
AcDbLine
 10
453.8457616751
 20
576.1265388329
 30
0.0
 11
453.8457616751
 21
579.8994767057
 31
0.0
  0
LINE
  5
99
330
1F
100
AcDbEntity
  8
0
  6
Continuous
 62
     7
370
    15
100
AcDbLine
 10
443.8457616805
 20
576.1265388329
 30
0.0
 11
453.8457616751
 21
576.1265388329
 31
0.0
  0
LWPOLYLINE
  5
9A
330
1F
100
AcDbEntity
  8
0
  6
Continuous
 62
     7
370
    15
100
AcDbPolyline
 90
       61
 70
   128
 43
0.0
 10
785.2202289855
 20
594.995864744
 10
784.3555446319
 20
597.1608608049
 10
783.5566471673
 20
599.1620770617
 10
782.8228039809
 20
601.0011767032
 10
782.1457423955
 20
602.6987346257
 10
781.5232295035
 20
604.2602058093
 10
780.9552996412
 20
605.6853615538
 10
780.4698413707
 20
606.904036181
 10
780.037100859
 20
607.9907519514
 10
779.6641396492
 20
608.9276464338
 10
779.3510900393
 20
609.7142606999
 10
779.0979645018
 20
610.3504519688
 10
778.9506524912
 20
610.7207610025
 10
778.761945979
 20
611.1951956069
 10
778.5300084516
 20
611.7784269507
 10
778.2548263338
 20
612.4705587976
 10
777.9363844237
 20
613.2717155162
 10
777.5746666944
 20
614.1820421432
 10
777.1827681352
 20
615.1686895177
 10
776.8039866916
 20
616.1226875414
 10
776.2421847307
 20
617.5383469327
 10
775.7212612733
 20
618.8517865645
 10
775.2412383104
 20
620.0628045595
 10
774.8021323695
 20
621.1712126531
 10
774.4970915727
 20
621.941567872
 10
774.175310737
 20
622.7545283832
 10
773.8361470536
 20
623.6117843898
 10
773.479593159
 20
624.5134288216
 10
773.1056425407
 20
625.4595604984
 10
772.7142898969
 20
626.4502841301
 10
772.3173430411
 20
627.4557811178
 10
771.9591509727
 20
628.3636578984
 10
771.6741509765
 20
629.0864059549
 10
771.4238266103
 20
629.7215075943
 10
771.2081797881
 20
630.2688509863
 10
770.9935699336
 20
630.8137715853
 10
770.7349273663
 20
631.4707799899
 10
770.4320056212
 20
632.2406710616
 10
770.0903086932
 20
633.1096510094
 10
769.7268294141
 20
634.0346791069
 10
769.3966679241
 20
634.8755215299
 10
769.09983577
 20
635.6319914232
 10
768.8089004757
 20
636.3739146729
 10
768.549469448
 20
637.0359106776
 10
768.2621706556
 20
637.7694860538
 10
767.9470043
 20
638.5748015794
 10
767.6138944232
 20
639.4266536744
 10
767.3997661475
 20
639.9746218549
 10
767.2293773306
 20
640.4108780149
 10
767.1027248097
 20
640.7352822847
 10
767.0364354644
 20
640.9051183018
 10
766.974756288
 20
641.0631704607
 10
766.8721577586
 20
641.3261371611
 10
766.7268697996
 20
641.6986473505
 10
766.5388888351
 20
642.1808459668
 10
766.3082123418
 20
642.7729214245
 10
766.0348408125
 20
643.4751055608
 10
765.7187801035
 20
644.2876735593
 10
765.3600441179
 20
645.2109438407
 10
764.9586577711
 20
646.2452779141
 10
764.6772158359
 20
646.9715809553
  0
LINE
  5
9B
330
1F
100
AcDbEntity
  8
0
  6
Continuous
 62
     7
370
    15
100
AcDbLine
 10
764.6772158359
 20
644.9255926827
 30
0.0
 11
764.6772158359
 21
647.8651396055
 31
0.0
  0
LINE
  5
9C
330
1F
100
AcDbEntity
  8
0
  6
Continuous
 62
     7
370
    15
100
AcDbLine
 10
785.9089201922
 20
588.2223727791
 30
0.0
 11
785.9089201922
 21
591.1619197019
 31
0.0
  0
LINE
  5
9D
330
1F
100
AcDbEntity
  8
0
  6
Continuous
 62
     7
370
    15
100
AcDbLine
 10
698.70608299
 20
649.8245915403
 30
0.0
 11
698.70608299
 21
646.8850446175
 31
0.0
  0
LINE
  5
9E
330
1F
100
AcDbEntity
  8
0
  6
Continuous
 62
     7
370
    15
100
AcDbLine
 10
698.70608299
 20
649.8245915403
 30
0.0
 11
748.203557673
 21
621.2503076265
 31
0.0
  0
LINE
  5
9F
330
1F
100
AcDbEntity
  8
0
  6
Continuous
 62
     7
370
    15
100
AcDbLine
 10
748.203557673
 20
621.2503076265
 30
0.0
 11
748.203557673
 21
618.3107607037
 31
0.0
  0
LINE
  5
A0
330
1F
100
AcDbEntity
  8
0
  6
Continuous
 62
     7
370
    15
100
AcDbLine
 10
698.70608299
 20
646.8850446175
 30
0.0
 11
748.203557673
 21
618.3107607037
 31
0.0
  0
LINE
  5
A1
330
1F
100
AcDbEntity
  8
0
  6
Continuous
 62
     7
370
    15
100
AcDbLine
 10
748.203557673
 20
621.2503076265
 30
0.0
 11
750.7491420853
 21
622.7198422278
 31
0.0
  0
LWPOLYLINE
  5
A2
330
1F
100
AcDbEntity
  8
0
  6
Continuous
 62
     7
370
    15
100
AcDbPolyline
 90
       45
 70
   128
 43
0.0
 10
750.7491420853
 20
622.7198422278
 10
752.5849924219
 20
625.1131226509
 10
754.2779380493
 20
627.4239059415
 10
755.8279789676
 20
629.6521920995
 10
757.2351151767
 20
631.797981125
 10
758.4993466768
 20
633.8612730178
 10
759.6206734677
 20
635.8420677781
 10
760.5470353941
 20
637.6341136273
 10
761.3463579505
 20
639.3528212094
 10
762.0186411369
 20
640.9981905241
 10
762.5638849534
 20
642.5702215717
 10
762.9820893998
 20
644.0689143519
 10
763.2868178528
 20
645.578296926
 10
763.4486415967
 20
647.0051823675
 10
763.4675606315
 20
648.3495706765
 10
763.3435749572
 20
649.6114618528
 10
763.0766845737
 20
650.7908558966
 10
762.666889481
 20
651.8877528078
 10
762.149622203
 20
652.8464092566
 10
761.5053155549
 20
653.731727438
 10
760.7339695369
 20
654.5437073522
 10
759.8355841489
 20
655.2823489992
 10
758.8101593908
 20
655.947652379
 10
757.5837659603
 20
656.573137104
 10
756.2144678207
 20
657.1161246964
 10
754.7022649719
 20
657.5766151563
 10
753.047157414
 20
657.9546084836
 10
751.249145147
 20
658.2501046783
 10
749.3082281709
 20
658.4631037404
 10
747.3473316883
 20
658.5883707886
 10
745.2593958358
 20
658.6402995695
 10
743.0444206133
 20
658.6188900832
 10
740.7024060208
 20
658.5241423296
 10
738.2333520583
 20
658.3560563088
 10
735.4758367443
 20
658.0976431848
 10
732.5754167211
 20
657.7567329282
 10
729.5320919888
 20
657.333325539
 10
726.3458625474
 20
656.8274210172
 10
723.0167283968
 20
656.2390193629
 10
719.5446895372
 20
655.5681205759
 10
716.1401638502
 20
654.8599982236
 10
712.6085987932
 20
654.0785376039
 10
708.9499943662
 20
653.2237387171
 10
705.1643505692
 20
652.2956015629
 10
701.2516674022
 20
651.2941261416
  0
LINE
  5
A3
330
1F
100
AcDbEntity
  8
0
  6
Continuous
 62
     7
370
    15
100
AcDbLine
 10
701.2516674022
 20
651.2941261416
 30
0.0
 11
698.70608299
 21
649.8245915403
 31
0.0
  0
LINE
  5
A4
330
1F
100
AcDbEntity
  8
0
  6
Continuous
 62
     7
370
    15
100
AcDbLine
 10
691.6350151781
 20
584.9905875762
 30
0.0
 11
755.2746254849
 21
548.2522225442
 31
0.0
  0
LINE
  5
A5
330
1F
100
AcDbEntity
  8
0
  6
Continuous
 62
     7
370
    15
100
AcDbLine
 10
691.6350151781
 20
584.9905875762
 30
0.0
 11
691.6350151781
 21
582.0510406534
 31
0.0
  0
LINE
  5
A6
330
1F
100
AcDbEntity
  8
0
  6
Continuous
 62
     7
370
    15
100
AcDbLine
 10
755.2746254849
 20
548.2522225442
 30
0.0
 11
755.2746254849
 21
545.3126756214
 31
0.0
  0
LINE
  5
A7
330
1F
100
AcDbEntity
  8
0
  6
Continuous
 62
     7
370
    15
100
AcDbLine
 10
691.6350151781
 20
582.0510406534
 30
0.0
 11
755.2746254849
 21
545.3126756214
 31
0.0
  0
LINE
  5
A8
330
1F
100
AcDbEntity
  8
0
  6
Continuous
 62
     7
370
    15
100
AcDbLine
 10
755.2746254849
 20
548.2522225442
 30
0.0
 11
748.203557673
 21
618.3107607037
 31
0.0
  0
LINE
  5
A9
330
1F
100
AcDbEntity
  8
0
  6
Continuous
 62
     7
370
    15
100
AcDbLine
 10
698.70608299
 20
646.8850446175
 30
0.0
 11
691.6350151781
 21
584.9905875762
 31
0.0
  0
LINE
  5
AA
330
1F
100
AcDbEntity
  8
0
  6
Continuous
 62
     7
370
    15
100
AcDbLine
 10
748.203557673
 20
621.2503076265
 30
0.0
 11
749.0520858104
 21
620.7604627594
 31
0.0
  0
LINE
  5
AB
330
1F
100
AcDbEntity
  8
0
  6
Continuous
 62
     7
370
    15
100
AcDbLine
 10
749.0520858104
 20
620.7604627594
 30
0.0
 11
749.0520858104
 21
617.8209158366
 31
0.0
  0
LINE
  5
AC
330
1F
100
AcDbEntity
  8
0
  6
Continuous
 62
     7
370
    15
100
AcDbLine
 10
749.0520858104
 20
617.8209158366
 30
0.0
 11
756.1231536185
 21
547.7623776793
 31
0.0
  0
LINE
  5
AD
330
1F
100
AcDbEntity
  8
0
  6
Continuous
 62
     7
370
    15
100
AcDbLine
 10
756.1231536185
 20
544.8228307565
 30
0.0
 11
756.1231536185
 21
547.7623776793
 31
0.0
  0
LINE
  5
AE
330
1F
100
AcDbEntity
  8
0
  6
Continuous
 62
     7
370
    15
100
AcDbLine
 10
756.1231536185
 20
544.8228307565
 30
0.0
 11
755.2746254849
 21
545.3126756214
 31
0.0
  0
LINE
  5
AF
330
1F
100
AcDbEntity
  8
0
  6
Continuous
 62
     7
370
    15
100
AcDbLine
 10
751.7522062627
 20
619.3796621948
 30
0.0
 11
749.0520858104
 21
617.8209158366
 31
0.0
  0
LINE
  5
B0
330
1F
100
AcDbEntity
  8
0
  6
Continuous
 62
     7
370
    15
100
AcDbLine
 10
751.7522062627
 20
619.3796621948
 30
0.0
 11
758.7910235734
 21
549.3025062217
 31
0.0
  0
LINE
  5
B1
330
1F
100
AcDbEntity
  8
0
  6
Continuous
 62
     7
370
    15
100
AcDbLine
 10
756.1231536185
 20
547.7623776793
 30
0.0
 11
758.7910235734
 21
549.3025062217
 31
0.0
  0
LWPOLYLINE
  5
B2
330
1F
100
AcDbEntity
  8
0
  6
Continuous
 62
     7
370
    15
100
AcDbPolyline
 90
       22
 70
   128
 43
0.0
 10
758.7910235734
 20
549.3025062217
 10
761.7678485884
 20
552.4952941739
 10
764.5717520468
 20
555.5886263739
 10
767.2027939831
 20
558.5826188484
 10
769.660989036
 20
561.4773527246
 10
771.9463523652
 20
564.2729263794
 10
774.0588991552
 20
566.9694612994
 10
775.9986392524
 20
569.5670993246
 10
777.6249268394
 20
571.8615347688
 10
779.1059959737
 20
574.0731649365
 10
780.4418209623
 20
576.2021712874
 10
781.632345509
 20
578.2487683286
 10
782.677476073
 20
580.2132094294
 10
783.5771012457
 20
582.095784194
 10
784.4225468896
 20
584.1361313791
 10
785.0792730729
 20
586.0718441758
 10
785.5466102721
 20
587.9036045055
 10
785.8236537692
 20
589.6321359354
 10
785.9085580683
 20
591.2583286169
 10
785.7992424786
 20
592.7831143473
 10
785.5490757401
 20
594.0098738575
 10
785.2094816229
 20
594.994262125
  0
LWPOLYLINE
  5
B3
330
1F
100
AcDbEntity
  8
0
  6
Continuous
 62
     7
370
    15
100
AcDbPolyline
 90
       15
 70
   128
 43
0.0
 10
764.6673172757
 20
644.925694432
 10
764.634087005
 20
643.8483388273
 10
764.4626270512
 20
642.4570681117
 10
764.1614205009
 20
640.9960389609
 10
763.701118832
 20
639.3697064588
 10
763.0964071597
 20
637.6638639092
 10
762.3477050651
 20
635.8780568241
 10
761.4553266613
 20
634.0118858593
 10
760.4194716583
 20
632.0650093959
 10
759.2402698245
 20
630.0371323485
 10
757.9972434516
 20
628.0507322497
 10
756.6269043385
 20
625.991925255
 10
755.1292886102
 20
623.8605743178
 10
753.5042349336
 20
621.6563284376
 10
751.7522062627
 20
619.3796621948
  0
LINE
  5
B4
330
1F
100
AcDbEntity
  8
0
  6
Continuous
 62
     7
370
    15
100
AcDbLine
 10
749.0520858104
 20
620.7604627594
 30
0.0
 11
751.7522062627
 21
622.3192091176
 31
0.0
  0
LINE
  5
B5
330
1F
100
AcDbEntity
  8
0
  6
Continuous
 62
     7
370
    15
100
AcDbLine
 10
751.7522062627
 20
622.3192091176
 30
0.0
 11
751.7522062627
 21
619.3796621948
 31
0.0
  0
LINE
  5
B6
330
1F
100
AcDbEntity
  8
0
  6
Continuous
 62
     7
370
    15
100
AcDbLine
 10
697.8575548525
 20
650.3144364074
 30
0.0
 11
698.70608299
 21
649.8245915403
 31
0.0
  0
LINE
  5
B7
330
1F
100
AcDbEntity
  8
0
  6
Continuous
 62
     7
370
    15
100
AcDbLine
 10
700.5576753047
 20
651.8731827656
 30
0.0
 11
697.8575548525
 21
650.3144364074
 31
0.0
  0
LWPOLYLINE
  5
B8
330
1F
100
AcDbEntity
  8
0
  6
Continuous
 62
     7
370
    15
100
AcDbPolyline
 90
       45
 70
   128
 43
0.0
 10
751.7522062627
 20
622.3192091176
 10
753.6114878523
 20
624.7384683
 10
755.3264277412
 20
627.0750182239
 10
756.8970259294
 20
629.3288588893
 10
758.3232824169
 20
631.4999902962
 10
759.6051972035
 20
633.5884124445
 10
760.7427702895
 20
635.5941253343
 10
761.6831339842
 20
637.4094711299
 10
762.4951808527
 20
639.1512900827
 10
763.178910895
 20
640.8195821926
 10
763.7343241111
 20
642.4143474596
 10
764.1614205009
 20
643.9355858837
 10
764.4953278115
 20
645.6020670184
 10
764.6589012696
 20
647.1733476591
 10
764.6521408754
 20
648.6494278057
 10
764.4750466288
 20
650.0303074583
 10
764.1276185298
 20
651.3159866167
 10
763.6944657708
 20
652.3426482316
 10
763.136645382
 20
653.3000792424
 10
762.4541573634
 20
654.1882796493
 10
761.6470017148
 20
655.0072494522
 10
760.7151784365
 20
655.7569886511
 10
759.6586875282
 20
656.437497246
 10
758.4799390605
 20
657.0473807566
 10
757.1812447874
 20
657.5853014598
 10
755.762604709
 20
658.0512593557
 10
754.2240188253
 20
658.4452544443
 10
752.5654871363
 20
658.7672867255
 10
750.787009642
 20
659.0173561994
 10
748.5599875798
 20
659.2179232103
 10
746.1680151197
 20
659.3201580621
 10
743.6110922618
 20
659.3240607546
 10
740.8892190061
 20
659.2296312879
 10
738.0023953526
 20
659.036869662
 10
735.2034802536
 20
658.7729969152
 10
732.2612863877
 20
658.4257957504
 10
729.1758137551
 20
657.9952661677
 10
725.9470623557
 20
657.481408167
 10
722.5750321894
 20
656.8842217482
 10
719.0597232564
 20
656.2037069115
 10
715.6140574653
 20
655.4857566084
 10
712.0410197746
 20
654.6937290422
 10
708.3406101843
 20
653.827624213
 10
704.5128286943
 20
652.8874421208
 10
700.5576753047
 20
651.8731827656
  0
LWPOLYLINE
  5
B9
330
1F
100
AcDbEntity
  8
0
  6
Continuous
 62
     7
370
    15
100
AcDbPolyline
 90
       41
 70
   128
 43
0.0
 10
701.2516674012
 20
651.2941261413
 10
706.0839213593
 20
652.524901615
 10
710.7208865829
 20
653.6429393019
 10
715.1625630719
 20
654.648239202
 10
719.4089508263
 20
655.5408013154
 10
723.4600498462
 20
656.320625642
 10
727.2487188892
 20
656.9767885347
 10
730.8490115221
 20
657.5242040407
 10
734.2609277449
 20
657.9628721599
 10
737.4844675576
 20
658.2927928922
 10
740.2052969461
 20
658.4955822312
 10
742.7757433819
 20
658.6115573396
 10
745.1958068652
 20
658.6407182174
 10
747.4654873959
 20
658.5830648644
 10
749.584784974
 20
658.4385972809
 10
751.5536995995
 20
658.2073154667
 10
753.2723663094
 20
657.9097350078
 10
754.8573456435
 20
657.5349784696
 10
756.3086376017
 20
657.083045852
 10
757.6262421842
 20
656.5539371551
 10
758.8101593908
 20
655.947652379
 10
759.9197428586
 20
655.2202892468
 10
760.8789433738
 20
654.406111884
 10
761.6877609364
 20
653.5051202906
 10
762.3461955464
 20
652.5173144666
 10
762.8542472039
 20
651.4426944119
 10
763.2119159087
 20
650.2812601265
 10
763.4114078934
 20
649.1066787662
 10
763.4772125023
 20
647.8549213266
 10
763.4093297353
 20
646.5259878077
 10
763.2077595926
 20
645.1198782095
 10
762.872502074
 20
643.6365925319
 10
762.2888660957
 20
641.7408412949
 10
761.5099413827
 20
639.732352271
 10
760.535727935
 20
637.6111254603
 10
759.3662257527
 20
635.3771608628
 10
758.0014348357
 20
633.0304584784
 10
756.470926262
 20
630.6159254943
 10
754.7520412782
 20
628.0926451234
 10
752.8447798841
 20
625.4606173656
 10
750.7491420799
 20
622.7198422209
  0
LINE
  5
BA
330
1F
100
AcDbEntity
  8
0
  6
Continuous
 62
     7
370
    15
100
AcDbLine
 10
697.8575548525
 20
650.3144364074
 30
0.0
 11
697.8575548525
 21
647.3748894846
 31
0.0
  0
LINE
  5
BB
330
1F
100
AcDbEntity
  8
0
  6
Continuous
 62
     7
370
    15
100
AcDbLine
 10
691.6350151781
 20
582.0510406534
 30
0.0
 11
690.7864870406
 21
582.5408855206
 31
0.0
  0
LINE
  5
BC
330
1F
100
AcDbEntity
  8
0
  6
Continuous
 62
     7
370
    15
100
AcDbLine
 10
690.7864870406
 20
582.5408855206
 30
0.0
 11
690.7864870406
 21
585.4804324434
 31
0.0
  0
LINE
  5
BD
330
1F
100
AcDbEntity
  8
0
  6
Continuous
 62
     7
370
    15
100
AcDbLine
 10
697.8575548525
 20
647.3748894846
 30
0.0
 11
690.7864870406
 21
585.4804324434
 31
0.0
  0
LINE
  5
BE
330
1F
100
AcDbEntity
  8
0
  6
Continuous
 62
     7
370
    15
100
AcDbLine
 10
758.7910235734
 20
546.3629592989
 30
0.0
 11
758.7910235734
 21
549.3025062217
 31
0.0
  0
LINE
  5
BF
330
1F
100
AcDbEntity
  8
0
  6
Continuous
 62
     7
370
    15
100
AcDbLine
 10
758.7910235734
 20
546.3629592989
 30
0.0
 11
756.1231536185
 21
544.8228307565
 31
0.0
  0
LWPOLYLINE
  5
C0
330
1F
100
AcDbEntity
  8
0
  6
Continuous
 62
     7
370
    15
100
AcDbPolyline
 90
       20
 70
   128
 43
0.0
 10
785.8955270986
 20
588.2224896582
 10
785.8684230365
 20
587.1874357541
 10
785.6917898996
 20
585.7401525497
 10
785.374341152
 20
584.2133910992
 10
784.9160767938
 20
582.6071514027
 10
784.3169968251
 20
580.92143346
 10
783.5771012457
 20
579.1562372712
 10
782.5928114732
 20
577.1072209181
 10
781.4348527544
 20
574.9583009329
 10
780.1032250893
 20
572.7094773155
 10
778.5979284779
 20
570.3607500661
 10
776.9189629202
 20
567.9121191845
 10
775.0663284161
 20
565.3635846708
 10
773.0400249658
 20
562.715146525
 10
771.0300167911
 20
560.1996489923
 10
768.8740784601
 20
557.6002046576
 10
766.5722099728
 20
554.9168135209
 10
764.1244113293
 20
552.1494755822
 10
761.5306825295
 20
549.2981908415
 10
758.7910235734
 20
546.3629592989
  0
LWPOLYLINE
  5
C1
330
1F
100
AcDbEntity
  8
0
  6
Continuous
 62
     7
370
    15
100
AcDbPolyline
 90
        3
 70
   128
 43
0.0
 10
736.2569654599
 20
315.4985208867
 10
721.256934185
 20
275.0985208867
 10
706.2569026506
 20
234.6985208867
  0
LINE
  5
C2
330
1F
100
AcDbEntity
  8
0
  6
Continuous
 62
     7
370
    15
100
AcDbLine
 10
706.256759434
 20
234.6985208867
 30
0.0
 11
706.256759434
 21
231.0985208867
 31
0.0
  0
LINE
  5
C3
330
1F
100
AcDbEntity
  8
0
  6
Continuous
 62
     7
370
    15
100
AcDbLine
 10
736.256759434
 20
319.0985208867
 30
0.0
 11
736.256759434
 21
315.4985208867
 31
0.0
  0
LINE
  5
C4
330
1F
100
AcDbEntity
  8
0
  6
Continuous
 62
     7
370
    15
100
AcDbLine
 10
787.456759434
 20
315.4985208867
 30
0.0
 11
783.6382124704
 21
315.4985208867
 31
0.0
  0
LINE
  5
C5
330
1F
100
AcDbEntity
  8
0
  6
Continuous
 62
     7
370
    15
100
AcDbLine
 10
787.456759434
 20
315.4985208867
 30
0.0
 11
787.456759434
 21
234.6985208867
 31
0.0
  0
LINE
  5
C6
330
1F
100
AcDbEntity
  8
0
  6
Continuous
 62
     7
370
    15
100
AcDbLine
 10
783.6838215796
 20
234.6985208867
 30
0.0
 11
787.456759434
 21
234.6985208867
 31
0.0
  0
LINE
  5
C7
330
1F
100
AcDbEntity
  8
0
  6
Continuous
 62
     7
370
    15
100
AcDbLine
 10
783.6382124704
 20
315.4985208867
 30
0.0
 11
783.6838215796
 21
234.6985208867
 31
0.0
  0
LINE
  5
C8
330
1F
100
AcDbEntity
  8
0
  6
Continuous
 62
     7
370
    15
100
AcDbLine
 10
787.456759434
 20
231.0985208867
 30
0.0
 11
783.6838215796
 21
231.0985208867
 31
0.0
  0
LINE
  5
C9
330
1F
100
AcDbEntity
  8
0
  6
Continuous
 62
     7
370
    15
100
AcDbLine
 10
783.6838215796
 20
231.0985208867
 30
0.0
 11
783.6838215796
 21
234.6985208867
 31
0.0
  0
LINE
  5
CA
330
1F
100
AcDbEntity
  8
0
  6
Continuous
 62
     7
370
    15
100
AcDbLine
 10
787.456759434
 20
231.0985208867
 30
0.0
 11
787.456759434
 21
234.6985208867
 31
0.0
  0
LINE
  5
CB
330
1F
100
AcDbEntity
  8
0
  6
Continuous
 62
     7
370
    15
100
AcDbLine
 10
706.2569569816
 20
234.6985208867
 30
0.0
 11
783.6838215796
 21
234.6985208867
 31
0.0
  0
LINE
  5
CC
330
1F
100
AcDbEntity
  8
0
  6
Continuous
 62
     7
370
    15
100
AcDbLine
 10
783.6382124704
 20
315.4985208867
 30
0.0
 11
736.256759434
 21
315.4985208867
 31
0.0
  0
LINE
  5
CD
330
1F
100
AcDbEntity
  8
0
  6
Continuous
 62
     7
370
    15
100
AcDbLine
 10
783.6838215796
 20
231.0985208867
 30
0.0
 11
706.256759434
 21
231.0985208867
 31
0.0
  0
LINE
  5
CE
330
1F
100
AcDbEntity
  8
0
  6
Continuous
 62
     7
370
    15
100
AcDbLine
 10
783.6382124704
 20
319.0985208867
 30
0.0
 11
783.6382124704
 21
315.4985208867
 31
0.0
  0
LINE
  5
CF
330
1F
100
AcDbEntity
  8
0
  6
Continuous
 62
     7
370
    15
100
AcDbLine
 10
783.6382124704
 20
319.0985208867
 30
0.0
 11
787.456759434
 21
319.0985208867
 31
0.0
  0
LINE
  5
D0
330
1F
100
AcDbEntity
  8
0
  6
Continuous
 62
     7
370
    15
100
AcDbLine
 10
787.456759434
 20
319.0985208867
 30
0.0
 11
787.456759434
 21
315.4985208867
 31
0.0
  0
LINE
  5
D1
330
1F
100
AcDbEntity
  8
0
  6
Continuous
 62
     7
370
    15
100
AcDbLine
 10
736.256759434
 20
319.0985208867
 30
0.0
 11
783.6382124704
 21
319.0985208867
 31
0.0
  0
ENDSEC
  0
SECTION
  2
OBJECTS
  0
DICTIONARY
  5
C
330
0
100
AcDbDictionary
281
     1
  3
ACAD_GROUP
350
D
  3
ACAD_LAYOUT
350
1A
  3
ACAD_MLINESTYLE
350
17
  3
ACAD_PLOTSETTINGS
350
19
  3
ACAD_PLOTSTYLENAME
350
E
  3
ACAD_SCALELIST
350
47
  0
DICTIONARY
  5
D
102
{ACAD_REACTORS
330
C
102
}
330
C
100
AcDbDictionary
281
     1
  0
DICTIONARY
  5
1A
102
{ACAD_REACTORS
330
C
102
}
330
C
100
AcDbDictionary
281
     1
  3
Layout1
350
1E
  3
Layout2
350
26
  3
Model
350
22
  0
DICTIONARY
  5
17
102
{ACAD_REACTORS
330
C
102
}
330
C
100
AcDbDictionary
281
     1
  3
Standard
350
18
  0
DICTIONARY
  5
19
102
{ACAD_REACTORS
330
C
102
}
330
C
100
AcDbDictionary
281
     1
  0
ACDBDICTIONARYWDFLT
  5
E
102
{ACAD_REACTORS
330
C
102
}
330
C
100
AcDbDictionary
281
     1
  3
Normal
350
F
100
AcDbDictionaryWithDefault
340
F
  0
DICTIONARY
  5
47
102
{ACAD_REACTORS
330
C
102
}
330
C
100
AcDbDictionary
281
     1
  3
A0
350
48
  3
A1
350
49
  3
A2
350
4A
  3
A3
350
4B
  3
A4
350
4C
  3
A5
350
4D
  3
A6
350
4E
  3
A7
350
4F
  3
A8
350
50
  3
A9
350
51
  3
B0
350
52
  3
B1
350
53
  3
B2
350
54
  3
B3
350
55
  3
B4
350
56
  3
B5
350
57
  3
B6
350
58
  3
B7
350
59
  3
B8
350
5A
  3
B9
350
5B
  3
C0
350
5C
  3
C1
350
5D
  3
C2
350
5E
  3
C3
350
5F
  3
C4
350
60
  3
C5
350
61
  3
C6
350
62
  3
C7
350
63
  3
C8
350
64
  3
C9
350
65
  3
D0
350
66
  3
D1
350
67
  3
D2
350
68
  0
LAYOUT
  5
1E
102
{ACAD_REACTORS
330
1A
102
}
330
1A
100
AcDbPlotSettings
  1

  2
none_device
  4

  6

 40
0.0
 41
0.0
 42
0.0
 43
0.0
 44
0.0
 45
0.0
 46
0.0
 47
0.0
 48
0.0
 49
0.0
140
0.0
141
0.0
142
1.0
143
1.0
 70
   688
 72
     1
 73
     0
 74
     5
  7

 75
    16
147
1.0
148
0.0
149
0.0
100
AcDbLayout
  1
Layout1
 70
     1
 71
     1
 10
0.0
 20
0.0
 11
420.0
 21
297.0
 12
0.0
 22
0.0
 32
0.0
 14
1.0000000000E+20
 24
1.0000000000E+20
 34
1.0000000000E+20
 15
-1.0000000000E+20
 25
-1.0000000000E+20
 35
-1.0000000000E+20
146
0.0
 13
0.0
 23
0.0
 33
0.0
 16
1.0
 26
0.0
 36
0.0
 17
0.0
 27
1.0
 37
0.0
 76
     0
330
1B
  0
LAYOUT
  5
26
102
{ACAD_REACTORS
330
1A
102
}
330
1A
100
AcDbPlotSettings
  1

  2
none_device
  4

  6

 40
0.0
 41
0.0
 42
0.0
 43
0.0
 44
0.0
 45
0.0
 46
0.0
 47
0.0
 48
0.0
 49
0.0
140
0.0
141
0.0
142
1.0
143
1.0
 70
   688
 72
     1
 73
     0
 74
     5
  7

 75
    16
147
1.0
148
0.0
149
0.0
100
AcDbLayout
  1
Layout2
 70
     1
 71
     2
 10
0.0
 20
0.0
 11
0.0
 21
0.0
 12
0.0
 22
0.0
 32
0.0
 14
0.0
 24
0.0
 34
0.0
 15
0.0
 25
0.0
 35
0.0
146
0.0
 13
0.0
 23
0.0
 33
0.0
 16
1.0
 26
0.0
 36
0.0
 17
0.0
 27
1.0
 37
0.0
 76
     0
330
23
  0
LAYOUT
  5
22
102
{ACAD_REACTORS
330
1A
102
}
330
1A
100
AcDbPlotSettings
  1

  2
none_device
  4
Letter_(8.50_x_11.00_Inches)
  6

 40
6.35
 41
6.35
 42
6.35000508
 43
6.35000508
 44
215.9
 45
279.4
 46
0.0
 47
0.0
 48
0.0
 49
0.0
140
0.0
141
0.0
142
1.0
143
1.0
 70
  1712
 72
     1
 73
     0
 74
     0
  7

 75
     0
147
1.0
148
0.0
149
0.0
100
AcDbLayout
  1
Model
 70
     1
 71
     0
 10
0.0
 20
0.0
 11
1189.0
 21
841.0
 12
0.0
 22
0.0
 32
0.0
 14
0.0
 24
0.0
 34
0.0
 15
1189.0
 25
841.0
 35
0.0
146
0.0
 13
0.0
 23
0.0
 33
0.0
 16
1.0
 26
0.0
 36
0.0
 17
0.0
 27
1.0
 37
0.0
 76
     0
330
1F
331
29
  0
MLINESTYLE
  5
18
102
{ACAD_REACTORS
330
17
102
}
330
17
100
AcDbMlineStyle
  2
Standard
 70
     0
  3

 62
   256
 51
90.0
 52
90.0
 71
     2
 49
0.5
 62
   256
  6
BYLAYER
 49
-0.5
 62
   256
  6
BYLAYER
  0
ACDBPLACEHOLDER
  5
F
102
{ACAD_REACTORS
330
E
102
}
330
E
  0
SCALE
  5
48
102
{ACAD_REACTORS
330
47
102
}
330
47
100
AcDbScale
 70
     0
300
1:1
140
1.0
141
1.0
290
     1
  0
SCALE
  5
49
102
{ACAD_REACTORS
330
47
102
}
330
47
100
AcDbScale
 70
     0
300
1:2
140
1.0
141
2.0
290
     0
  0
SCALE
  5
4A
102
{ACAD_REACTORS
330
47
102
}
330
47
100
AcDbScale
 70
     0
300
1:4
140
1.0
141
4.0
290
     0
  0
SCALE
  5
4B
102
{ACAD_REACTORS
330
47
102
}
330
47
100
AcDbScale
 70
     0
300
1:5
140
1.0
141
5.0
290
     0
  0
SCALE
  5
4C
102
{ACAD_REACTORS
330
47
102
}
330
47
100
AcDbScale
 70
     0
300
1:8
140
1.0
141
8.0
290
     0
  0
SCALE
  5
4D
102
{ACAD_REACTORS
330
47
102
}
330
47
100
AcDbScale
 70
     0
300
1:10
140
1.0
141
10.0
290
     0
  0
SCALE
  5
4E
102
{ACAD_REACTORS
330
47
102
}
330
47
100
AcDbScale
 70
     0
300
1:16
140
1.0
141
16.0
290
     0
  0
SCALE
  5
4F
102
{ACAD_REACTORS
330
47
102
}
330
47
100
AcDbScale
 70
     0
300
1:20
140
1.0
141
20.0
290
     0
  0
SCALE
  5
50
102
{ACAD_REACTORS
330
47
102
}
330
47
100
AcDbScale
 70
     0
300
1:30
140
1.0
141
30.0
290
     0
  0
SCALE
  5
51
102
{ACAD_REACTORS
330
47
102
}
330
47
100
AcDbScale
 70
     0
300
1:40
140
1.0
141
40.0
290
     0
  0
SCALE
  5
52
102
{ACAD_REACTORS
330
47
102
}
330
47
100
AcDbScale
 70
     0
300
1:50
140
1.0
141
50.0
290
     0
  0
SCALE
  5
53
102
{ACAD_REACTORS
330
47
102
}
330
47
100
AcDbScale
 70
     0
300
1:100
140
1.0
141
100.0
290
     0
  0
SCALE
  5
54
102
{ACAD_REACTORS
330
47
102
}
330
47
100
AcDbScale
 70
     0
300
2:1
140
2.0
141
1.0
290
     0
  0
SCALE
  5
55
102
{ACAD_REACTORS
330
47
102
}
330
47
100
AcDbScale
 70
     0
300
4:1
140
4.0
141
1.0
290
     0
  0
SCALE
  5
56
102
{ACAD_REACTORS
330
47
102
}
330
47
100
AcDbScale
 70
     0
300
8:1
140
8.0
141
1.0
290
     0
  0
SCALE
  5
57
102
{ACAD_REACTORS
330
47
102
}
330
47
100
AcDbScale
 70
     0
300
10:1
140
10.0
141
1.0
290
     0
  0
SCALE
  5
58
102
{ACAD_REACTORS
330
47
102
}
330
47
100
AcDbScale
 70
     0
300
100:1
140
100.0
141
1.0
290
     0
  0
SCALE
  5
59
102
{ACAD_REACTORS
330
47
102
}
330
47
100
AcDbScale
 70
     0
300
1/128" = 1'-0"
140
0.0078125
141
12.0
290
     0
  0
SCALE
  5
5A
102
{ACAD_REACTORS
330
47
102
}
330
47
100
AcDbScale
 70
     0
300
1/64" = 1'-0"
140
0.015625
141
12.0
290
     0
  0
SCALE
  5
5B
102
{ACAD_REACTORS
330
47
102
}
330
47
100
AcDbScale
 70
     0
300
1/32" = 1'-0"
140
0.03125
141
12.0
290
     0
  0
SCALE
  5
5C
102
{ACAD_REACTORS
330
47
102
}
330
47
100
AcDbScale
 70
     0
300
1/16" = 1'-0"
140
0.0625
141
12.0
290
     0
  0
SCALE
  5
5D
102
{ACAD_REACTORS
330
47
102
}
330
47
100
AcDbScale
 70
     0
300
3/32" = 1'-0"
140
0.09375
141
12.0
290
     0
  0
SCALE
  5
5E
102
{ACAD_REACTORS
330
47
102
}
330
47
100
AcDbScale
 70
     0
300
1/8" = 1'-0"
140
0.125
141
12.0
290
     0
  0
SCALE
  5
5F
102
{ACAD_REACTORS
330
47
102
}
330
47
100
AcDbScale
 70
     0
300
3/16" = 1'-0"
140
0.1875
141
12.0
290
     0
  0
SCALE
  5
60
102
{ACAD_REACTORS
330
47
102
}
330
47
100
AcDbScale
 70
     0
300
1/4" = 1'-0"
140
0.25
141
12.0
290
     0
  0
SCALE
  5
61
102
{ACAD_REACTORS
330
47
102
}
330
47
100
AcDbScale
 70
     0
300
3/8" = 1'-0"
140
0.375
141
12.0
290
     0
  0
SCALE
  5
62
102
{ACAD_REACTORS
330
47
102
}
330
47
100
AcDbScale
 70
     0
300
1/2" = 1'-0"
140
0.5
141
12.0
290
     0
  0
SCALE
  5
63
102
{ACAD_REACTORS
330
47
102
}
330
47
100
AcDbScale
 70
     0
300
3/4" = 1'-0"
140
0.75
141
12.0
290
     0
  0
SCALE
  5
64
102
{ACAD_REACTORS
330
47
102
}
330
47
100
AcDbScale
 70
     0
300
1" = 1'-0"
140
1.0
141
12.0
290
     0
  0
SCALE
  5
65
102
{ACAD_REACTORS
330
47
102
}
330
47
100
AcDbScale
 70
     0
300
1-1/2" = 1'-0"
140
1.5
141
12.0
290
     0
  0
SCALE
  5
66
102
{ACAD_REACTORS
330
47
102
}
330
47
100
AcDbScale
 70
     0
300
3" = 1'-0"
140
3.0
141
12.0
290
     0
  0
SCALE
  5
67
102
{ACAD_REACTORS
330
47
102
}
330
47
100
AcDbScale
 70
     0
300
6" = 1'-0"
140
6.0
141
12.0
290
     0
  0
SCALE
  5
68
102
{ACAD_REACTORS
330
47
102
}
330
47
100
AcDbScale
 70
     0
300
1'-0" = 1'-0"
140
12.0
141
12.0
290
     0
  0
ENDSEC
  0
EOF
