  0
SECTION
  2
HEADER
  9
$ACADVER
  1
AC1024
  9
$ACADMAINTVER
 70
     6
  9
$DWGCODEPAGE
  3
ANSI_1252
  9
$INSBASE
 10
0.0
 20
0.0
 30
0.0
  9
$EXTMIN
 10
0.0
 20
0.0
 30
0.0
  9
$EXTMAX
 10
3000.0
 20
3000.0
 30
0.0
  9
$LIMMIN
 10
0.0
 20
0.0
  9
$LIMMAX
 10
3000.0
 20
3000.0
  9
$ORTHOMODE
 70
     0
  9
$REGENMODE
 70
     1
  9
$FILLMODE
 70
     1
  9
$QTEXTMODE
 70
     0
  9
$MIRRTEXT
 70
     1
  9
$LTSCALE
 40
1.0
  9
$ATTMODE
 70
     1
  9
$TEXTSIZE
 40
3.5
  9
$TRACEWID
 40
1.0
  9
$TEXTSTYLE
  7
Standard
  9
$CLAYER
  8
0
  9
$CELTYPE
  6
ByLayer
  9
$CECOLOR
 62
   256
  9
$CELTSCALE
 40
1.0
  9
$DISPSILH
 70
     0
  9
$DIMSCALE
 40
1.0
  9
$DIMASZ
 40
3.556
  9
$DIMEXO
 40
1.0
  9
$DIMDLI
 40
3.75
  9
$DIMRND
 40
0.0
  9
$DIMDLE
 40
0.0
  9
$DIMEXE
 40
1.0
  9
$DIMTP
 40
0.0
  9
$DIMTM
 40
0.0
  9
$DIMTXT
 40
3.5
  9
$DIMCEN
 40
2.5
  9
$DIMTSZ
 40
0.0
  9
$DIMTOL
 70
     0
  9
$DIMLIM
 70
     0
  9
$DIMTIH
 70
     1
  9
$DIMTOH
 70
     1
  9
$DIMSE1
 70
     0
  9
$DIMSE2
 70
     0
  9
$DIMTAD
 70
     1
  9
$DIMZIN
 70
     0
  9
$DIMBLK
  1

  9
$DIMASO
 70
     1
  9
$DIMSHO
 70
     1
  9
$DIMPOST
  1

  9
$DIMAPOST
  1

  9
$DIMALT
 70
     0
  9
$DIMALTD
 70
     3
  9
$DIMALTF
 40
0.0393700787
  9
$DIMLFAC
 40
1.0
  9
$DIMTOFL
 70
     1
  9
$DIMTVP
 40
0.0
  9
$DIMTIX
 70
     0
  9
$DIMSOXD
 70
     0
  9
$DIMSAH
 70
     0
  9
$DIMBLK1
  1

  9
$DIMBLK2
  1

  9
$DIMSTYLE
  2
ISO-25
  9
$DIMCLRD
 70
     0
  9
$DIMCLRE
 70
     0
  9
$DIMCLRT
 70
     0
  9
$DIMTFAC
 40
1.0
  9
$DIMGAP
 40
1.524
  9
$DIMJUST
 70
     0
  9
$DIMSD1
 70
     0
  9
$DIMSD2
 70
     0
  9
$DIMTOLJ
 70
     0
  9
$DIMTZIN
 70
     0
  9
$DIMALTZ
 70
     0
  9
$DIMALTTZ
 70
     0
  9
$DIMUPT
 70
     0
  9
$DIMDEC
 70
     2
  9
$DIMTDEC
 70
     2
  9
$DIMALTU
 70
     2
  9
$DIMALTTD
 70
     3
  9
$DIMTXSTY
  7
Standard
  9
$DIMAUNIT
 70
     0
  9
$DIMADEC
 70
     2
  9
$DIMALTRND
 40
0.0
  9
$DIMAZIN
 70
     0
  9
$DIMDSEP
 70
    44
  9
$DIMATFIT
 70
     3
  9
$DIMFRAC
 70
     0
  9
$DIMLDRBLK
  1

  9
$DIMLUNIT
 70
     2
  9
$DIMLWD
 70
    -2
  9
$DIMLWE
 70
    -2
  9
$DIMTMOVE
 70
     0
  9
$DIMFXL
 40
1.0
  9
$DIMFXLON
 70
     0
  9
$DIMJOGANG
 40
0.7853981634
  9
$DIMTFILL
 70
     0
  9
$DIMTFILLCLR
 70
     0
  9
$DIMARCSYM
 70
     0
  9
$DIMLTYPE
  6

  9
$DIMLTEX1
  6

  9
$DIMLTEX2
  6

  9
$DIMTXTDIRECTION
 70
     0
  9
$LUNITS
 70
     2
  9
$LUPREC
 70
     2
  9
$SKETCHINC
 40
1.0
  9
$FILLETRAD
 40
10.0
  9
$AUNITS
 70
     0
  9
$AUPREC
 70
     2
  9
$MENU
  1
.
  9
$ELEVATION
 40
0.0
  9
$PELEVATION
 40
0.0
  9
$THICKNESS
 40
0.0
  9
$LIMCHECK
 70
     0
  9
$CHAMFERA
 40
0.0
  9
$CHAMFERB
 40
0.0
  9
$CHAMFERC
 40
0.0
  9
$CHAMFERD
 40
0.0
  9
$SKPOLY
 70
     0
  9
$TDCREATE
 40
2458775.385051887
  9
$TDUCREATE
 40
2458775.34338522
  9
$TDUPDATE
 40
2458775.385052257
  9
$TDUUPDATE
 40
2458775.34338559
  9
$TDINDWG
 40
0.0000000116
  9
$TDUSRTIMER
 40
0.0000000116
  9
$USRTIMER
 70
     1
  9
$ANGBASE
 50
0.0
  9
$ANGDIR
 70
     0
  9
$PDMODE
 70
     0
  9
$PDSIZE
 40
-1.0
  9
$PLINEWID
 40
0.0
  9
$SPLFRAME
 70
     0
  9
$SPLINETYPE
 70
     6
  9
$SPLINESEGS
 70
     8
  9
$HANDSEED
  5
20C
  9
$SURFTAB1
 70
     6
  9
$SURFTAB2
 70
     6
  9
$SURFTYPE
 70
     6
  9
$SURFU
 70
     6
  9
$SURFV
 70
     6
  9
$UCSBASE
  2

  9
$UCSNAME
  2

  9
$UCSORG
 10
0.0
 20
0.0
 30
0.0
  9
$UCSXDIR
 10
1.0
 20
0.0
 30
0.0
  9
$UCSYDIR
 10
0.0
 20
1.0
 30
0.0
  9
$UCSORTHOREF
  2

  9
$UCSORTHOVIEW
 70
     0
  9
$UCSORGTOP
 10
0.0
 20
0.0
 30
0.0
  9
$UCSORGBOTTOM
 10
0.0
 20
0.0
 30
0.0
  9
$UCSORGLEFT
 10
0.0
 20
0.0
 30
0.0
  9
$UCSORGRIGHT
 10
0.0
 20
0.0
 30
0.0
  9
$UCSORGFRONT
 10
0.0
 20
0.0
 30
0.0
  9
$UCSORGBACK
 10
0.0
 20
0.0
 30
0.0
  9
$PUCSBASE
  2

  9
$PUCSNAME
  2

  9
$PUCSORG
 10
0.0
 20
0.0
 30
0.0
  9
$PUCSXDIR
 10
1.0
 20
0.0
 30
0.0
  9
$PUCSYDIR
 10
0.0
 20
1.0
 30
0.0
  9
$PUCSORTHOREF
  2

  9
$PUCSORTHOVIEW
 70
     0
  9
$PUCSORGTOP
 10
0.0
 20
0.0
 30
0.0
  9
$PUCSORGBOTTOM
 10
0.0
 20
0.0
 30
0.0
  9
$PUCSORGLEFT
 10
0.0
 20
0.0
 30
0.0
  9
$PUCSORGRIGHT
 10
0.0
 20
0.0
 30
0.0
  9
$PUCSORGFRONT
 10
0.0
 20
0.0
 30
0.0
  9
$PUCSORGBACK
 10
0.0
 20
0.0
 30
0.0
  9
$USERI1
 70
     0
  9
$USERI2
 70
     0
  9
$USERI3
 70
     0
  9
$USERI4
 70
     0
  9
$USERI5
 70
     0
  9
$USERR1
 40
0.0
  9
$USERR2
 40
0.0
  9
$USERR3
 40
0.0
  9
$USERR4
 40
0.0
  9
$USERR5
 40
0.0
  9
$WORLDVIEW
 70
     1
  9
$SHADEDGE
 70
     3
  9
$SHADEDIF
 70
    70
  9
$TILEMODE
 70
     1
  9
$MAXACTVP
 70
    64
  9
$PINSBASE
 10
0.0
 20
0.0
 30
0.0
  9
$PLIMCHECK
 70
     0
  9
$PEXTMIN
 10
1.0000000000E+20
 20
1.0000000000E+20
 30
1.0000000000E+20
  9
$PEXTMAX
 10
-1.0000000000E+20
 20
-1.0000000000E+20
 30
-1.0000000000E+20
  9
$PLIMMIN
 10
0.0
 20
0.0
  9
$PLIMMAX
 10
420.0
 20
297.0
  9
$UNITMODE
 70
     0
  9
$VISRETAIN
 70
     1
  9
$PLINEGEN
 70
     0
  9
$PSLTSCALE
 70
     1
  9
$TREEDEPTH
 70
  3020
  9
$CMLSTYLE
  2
Standard
  9
$CMLJUST
 70
     0
  9
$CMLSCALE
 40
20.0
  9
$PROXYGRAPHICS
 70
     1
  9
$MEASUREMENT
 70
     1
  9
$CELWEIGHT
370
    -1
  9
$ENDCAPS
280
     0
  9
$JOINSTYLE
280
     0
  9
$LWDISPLAY
290
     1
  9
$INSUNITS
 70
     4
  9
$HYPERLINKBASE
  1

  9
$STYLESHEET
  1

  9
$XEDIT
290
     1
  9
$CEPSNTYPE
380
     0
  9
$PSTYLEMODE
290
     1
  9
$FINGERPRINTGUID
  2
{D9E22918-4504-4652-B661-4EDEEA325301}
  9
$VERSIONGUID
  2
{FAEB1C32-E019-11D5-929B-00C0DF256EC4}
  9
$EXTNAMES
290
     1
  9
$PSVPSCALE
 40
0.0
  9
$OLESTARTUP
290
     0
  9
$SORTENTS
280
   127
  9
$INDEXCTL
280
     0
  9
$HIDETEXT
280
     1
  9
$XCLIPFRAME
280
     2
  9
$HALOGAP
280
     0
  9
$OBSCOLOR
 70
   257
  9
$OBSLTYPE
280
     0
  9
$INTERSECTIONDISPLAY
280
     0
  9
$INTERSECTIONCOLOR
 70
   257
  9
$DIMASSOC
280
     2
  9
$PROJECTNAME
  1

  9
$CAMERADISPLAY
290
     0
  9
$LENSLENGTH
 40
50.0
  9
$CAMERAHEIGHT
 40
0.0
  9
$STEPSPERSEC
 40
2.0
  9
$STEPSIZE
 40
6.0
  9
$3DDWFPREC
 40
2.0
  9
$PSOLWIDTH
 40
5.0
  9
$PSOLHEIGHT
 40
80.0
  9
$LOFTANG1
 40
1.5707963268
  9
$LOFTANG2
 40
1.5707963268
  9
$LOFTMAG1
 40
0.0
  9
$LOFTMAG2
 40
0.0
  9
$LOFTPARAM
 70
     7
  9
$LOFTNORMALS
280
     1
  9
$LATITUDE
 40
37.795
  9
$LONGITUDE
 40
-122.394
  9
$NORTHDIRECTION
 40
0.0
  9
$TIMEZONE
 70
 -8000
  9
$LIGHTGLYPHDISPLAY
280
     1
  9
$TILEMODELIGHTSYNCH
280
     1
  9
$CMATERIAL
347
44
  9
$SOLIDHIST
280
     0
  9
$SHOWHIST
280
     1
  9
$DWFFRAME
280
     2
  9
$DGNFRAME
280
     2
  9
$REALWORLDSCALE
290
     1
  9
$INTERFERECOLOR
 62
   256
  9
$CSHADOW
280
     0
  9
$SHADOWPLANELOCATION
 40
0.0
  0
ENDSEC
  0
SECTION
  2
CLASSES
  0
CLASS
  1
ACDBDICTIONARYWDFLT
  2
AcDbDictionaryWithDefault
  3
ObjectDBX Classes
 90
        0
 91
        4
280
     0
281
     0
  0
CLASS
  1
VISUALSTYLE
  2
AcDbVisualStyle
  3
ObjectDBX Classes
 90
     4095
 91
        4
280
     0
281
     0
  0
CLASS
  1
MATERIAL
  2
AcDbMaterial
  3
ObjectDBX Classes
 90
     1153
 91
        4
280
     0
281
     0
  0
CLASS
  1
SCALE
  2
AcDbScale
  3
ObjectDBX Classes
 90
     1153
 91
        4
280
     0
281
     0
  0
CLASS
  1
TABLESTYLE
  2
AcDbTableStyle
  3
ObjectDBX Classes
 90
     4095
 91
        4
280
     0
281
     0
  0
CLASS
  1
MLEADERSTYLE
  2
AcDbMLeaderStyle
  3
ACDB_MLEADERSTYLE_CLASS
 90
     4095
 91
        4
280
     0
281
     0
  0
CLASS
  1
SUN
  2
AcDbSun
  3
SCENEOE
 90
     1153
 91
        4
280
     0
281
     0
  0
CLASS
  1
DICTIONARYVAR
  2
AcDbDictionaryVar
  3
ObjectDBX Classes
 90
        0
 91
        4
280
     0
281
     0
  0
CLASS
  1
CELLSTYLEMAP
  2
AcDbCellStyleMap
  3
ObjectDBX Classes
 90
     1152
 91
        4
280
     0
281
     0
  0
ENDSEC
  0
SECTION
  2
TABLES
  0
TABLE
  2
VPORT
  5
8
330
0
100
AcDbSymbolTable
 70
     1
  0
VPORT
  5
29
330
8
100
AcDbSymbolTableRecord
100
AcDbViewportTableRecord
  2
*Active
 70
     0
 10
0.0
 20
0.0
 11
1.0
 21
1.0
 12
1500.0
 22
1500.0
 13
0.0
 23
0.0
 14
10.0
 24
10.0
 15
10.0
 25
10.0
 16
0.0
 26
0.0
 36
1.0
 17
0.0
 27
0.0
 37
0.0
 40
3000.0
 41
1.0
 42
50.0
 43
0.0
 44
0.0
 50
0.0
 51
0.0
 71
     0
 72
  2000
 73
     1
 74
     3
 75
     0
 76
     0
 77
     0
 78
     0
281
     0
 65
     1
110
0.0
120
0.0
130
0.0
111
1.0
121
0.0
131
0.0
112
0.0
122
1.0
132
0.0
 79
     0
146
0.0
 60
     3
 61
     5
292
     1
282
     1
141
0.0
142
0.0
 63
   250
361
6D
  0
ENDTAB
  0
TABLE
  2
LTYPE
  5
5
330
0
100
AcDbSymbolTable
 70
     6
  0
LTYPE
  5
14
330
5
100
AcDbSymbolTableRecord
100
AcDbLinetypeTableRecord
  2
ByBlock
 70
     0
  3

 72
    65
 73
     0
 40
0.0
  0
LTYPE
  5
15
330
5
100
AcDbSymbolTableRecord
100
AcDbLinetypeTableRecord
  2
ByLayer
 70
     0
  3

 72
    65
 73
     0
 40
0.0
  0
LTYPE
  5
16
330
5
100
AcDbSymbolTableRecord
100
AcDbLinetypeTableRecord
  2
Continuous
 70
     0
  3
Solid line
 72
    65
 73
     0
 40
0.0
  0
LTYPE
  5
6E
330
5
100
AcDbSymbolTableRecord
100
AcDbLinetypeTableRecord
  2
HIDDEN
 70
     0
  3
Hidden __ __ __ __ __ __ __ __ __ __ __ __ __ __
 72
    65
 73
     2
 40
1.905
 49
1.27
 74
     0
 49
-0.635
 74
     0
  0
LTYPE
  5
6F
330
5
100
AcDbSymbolTableRecord
100
AcDbLinetypeTableRecord
  2
PHANTOM
 70
     0
  3
Phantom ______  __  __  ______  __  __  ______
 72
    65
 73
     6
 40
12.7
 49
6.35
 74
     0
 49
-1.27
 74
     0
 49
1.27
 74
     0
 49
-1.27
 74
     0
 49
1.27
 74
     0
 49
-1.27
 74
     0
  0
LTYPE
  5
70
330
5
100
AcDbSymbolTableRecord
100
AcDbLinetypeTableRecord
  2
CENTER
 70
     0
  3
Center ____ _ ____ _ ____ _ ____ _ ____ _ ____
 72
    65
 73
     4
 40
10.16
 49
6.35
 74
     0
 49
-1.27
 74
     0
 49
1.27
 74
     0
 49
-1.27
 74
     0
  0
LTYPE
  5
71
330
5
100
AcDbSymbolTableRecord
100
AcDbLinetypeTableRecord
  2
CENTERX2
 70
     0
  3
Center (2x) ________  __  ________  __  _____
 72
    65
 73
     4
 40
20.32
 49
12.7
 74
     0
 49
-2.54
 74
     0
 49
2.54
 74
     0
 49
-2.54
 74
     0
  0
LTYPE
  5
72
330
5
100
AcDbSymbolTableRecord
100
AcDbLinetypeTableRecord
  2
DOT2
 70
     0
  3
Dot (.5x) ........................................
 72
    65
 73
     2
 40
0.635
 49
0.0
 74
     0
 49
-0.635
 74
     0
  0
ENDTAB
  0
TABLE
  2
LAYER
  5
2
330
0
100
AcDbSymbolTable
 70
     1
  0
LAYER
  5
10
330
2
100
AcDbSymbolTableRecord
100
AcDbLayerTableRecord
  2
0
 70
     0
 62
     7
  6
Continuous
370
    -3
390
F
347
46
  0
ENDTAB
  0
TABLE
  2
STYLE
  5
3
330
0
100
AcDbSymbolTable
 70
     1
  0
STYLE
  5
11
330
3
100
AcDbSymbolTableRecord
100
AcDbTextStyleTableRecord
  2
Standard
 70
     0
 40
0.0
 41
1.0
 50
0.0
 71
     0
 42
3.5
  3
txt
  4

  0
ENDTAB
  0
TABLE
  2
VIEW
  5
6
330
0
100
AcDbSymbolTable
 70
     0
  0
ENDTAB
  0
TABLE
  2
UCS
  5
7
330
0
100
AcDbSymbolTable
 70
     0
  0
ENDTAB
  0
TABLE
  2
APPID
  5
9
330
0
100
AcDbSymbolTable
 70
     1
  0
APPID
  5
12
330
9
100
AcDbSymbolTableRecord
100
AcDbRegAppTableRecord
  2
ACAD
 70
     0
  0
ENDTAB
  0
TABLE
  2
DIMSTYLE
  5
A
330
0
100
AcDbSymbolTable
 70
     1
100
AcDbDimStyleTable
  0
DIMSTYLE
105
27
330
A
100
AcDbSymbolTableRecord
100
AcDbDimStyleTableRecord
  2
ISO-25
 70
     0
 41
2.5
 42
0.625
 43
3.75
 44
1.25
 73
     0
 74
     0
 77
     1
 78
     8
140
2.5
141
2.5
143
0.0393700787
147
0.625
171
     3
172
     1
178
     0
271
     2
272
     2
274
     3
278
    44
283
     0
284
     8
340
11
  0
ENDTAB
  0
TABLE
  2
BLOCK_RECORD
  5
1
330
0
100
AcDbSymbolTable
 70
     1
  0
BLOCK_RECORD
  5
1F
330
1
100
AcDbSymbolTableRecord
100
AcDbBlockTableRecord
  2
*Model_Space
340
22
 70
     0
280
     1
281
     0
  0
BLOCK_RECORD
  5
1B
330
1
100
AcDbSymbolTableRecord
100
AcDbBlockTableRecord
  2
*Paper_Space
340
1E
 70
     0
280
     1
281
     0
  0
BLOCK_RECORD
  5
23
330
1
100
AcDbSymbolTableRecord
100
AcDbBlockTableRecord
  2
*Paper_Space0
340
26
 70
     0
280
     1
281
     0
  0
ENDTAB
  0
ENDSEC
  0
SECTION
  2
BLOCKS
  0
BLOCK
  5
20
330
1F
100
AcDbEntity
  8
0
100
AcDbBlockBegin
  2
*Model_Space
 70
     0
 10
0.0
 20
0.0
 30
0.0
  3
*Model_Space
  1

  0
ENDBLK
  5
21
330
1F
100
AcDbEntity
  8
0
100
AcDbBlockEnd
  0
BLOCK
  5
1C
330
1B
100
AcDbEntity
 67
     1
  8
0
100
AcDbBlockBegin
  2
*Paper_Space
 70
     0
 10
0.0
 20
0.0
 30
0.0
  3
*Paper_Space
  1

  0
ENDBLK
  5
1D
330
1B
100
AcDbEntity
 67
     1
  8
0
100
AcDbBlockEnd
  0
BLOCK
  5
24
330
23
100
AcDbEntity
  8
0
100
AcDbBlockBegin
  2
*Paper_Space0
 70
     0
 10
0.0
 20
0.0
 30
0.0
  3
*Paper_Space0
  1

  0
ENDBLK
  5
25
330
23
100
AcDbEntity
  8
0
100
AcDbBlockEnd
  0
ENDSEC
  0
SECTION
  2
ENTITIES
  0
LINE
  5
73
330
1F
100
AcDbEntity
  8
0
  6
Continuous
 62
     7
370
    15
100
AcDbLine
 10
980.813587618
 20
308.6614821821
 30
0.0
 11
980.813587618
 21
314.6614821821
 31
0.0
  0
LINE
  5
74
330
1F
100
AcDbEntity
  8
0
  6
Continuous
 62
     7
370
    15
100
AcDbLine
 10
980.813587618
 20
314.6614821821
 30
0.0
 11
973.2297861051
 21
320.6614821821
 31
0.0
  0
LINE
  5
75
330
1F
100
AcDbEntity
  8
0
  6
Continuous
 62
     7
370
    15
100
AcDbLine
 10
475.4988861415
 20
314.6238297532
 30
0.0
 11
467.9150846286
 21
320.6238297532
 31
0.0
  0
LINE
  5
76
330
1F
100
AcDbEntity
  8
0
  6
Continuous
 62
     7
370
    15
100
AcDbLine
 10
453.0826876544
 20
320.6238297532
 30
0.0
 11
445.4988861415
 21
314.6238297532
 31
0.0
  0
LINE
  5
77
330
1F
100
AcDbEntity
  8
0
  6
Continuous
 62
     7
370
    15
100
AcDbLine
 10
445.4988861415
 20
314.6238297532
 30
0.0
 11
445.4988861415
 21
308.6238297532
 31
0.0
  0
LINE
  5
78
330
1F
100
AcDbEntity
  8
0
  6
Continuous
 62
     7
370
    15
100
AcDbLine
 10
475.4988861415
 20
308.6238297532
 30
0.0
 11
475.4988861415
 21
314.6238297532
 31
0.0
  0
LINE
  5
79
330
1F
100
AcDbEntity
  8
0
  6
Continuous
 62
     7
370
    15
100
AcDbLine
 10
450.2193221677
 20
320.6614821821
 30
0.0
 11
442.6355206548
 21
314.6614821821
 31
0.0
  0
LINE
  5
7A
330
1F
100
AcDbEntity
  8
0
  6
Continuous
 62
     7
370
    15
100
AcDbLine
 10
442.6355206548
 20
314.6614821821
 30
0.0
 11
442.6355206548
 21
308.6614821821
 31
0.0
  0
LINE
  5
7B
330
1F
100
AcDbEntity
  8
0
  6
Continuous
 62
     7
370
    15
100
AcDbLine
 10
947.9502221313
 20
314.6238297532
 30
0.0
 11
947.9502221313
 21
308.6238297532
 31
0.0
  0
LINE
  5
7C
330
1F
100
AcDbEntity
  8
0
  6
Continuous
 62
     7
370
    15
100
AcDbLine
 10
977.9502221313
 20
308.6238297532
 30
0.0
 11
977.9502221313
 21
314.6238297532
 31
0.0
  0
LINE
  5
7D
330
1F
100
AcDbEntity
  8
0
  6
Continuous
 62
     7
370
    15
100
AcDbLine
 10
977.9502221313
 20
314.6238297532
 30
0.0
 11
970.3664206184
 21
320.6238297532
 31
0.0
  0
LINE
  5
7E
330
1F
100
AcDbEntity
  8
0
  6
Continuous
 62
     7
370
    15
100
AcDbLine
 10
955.5340236442
 20
320.6238297532
 30
0.0
 11
947.9502221313
 21
314.6238297532
 31
0.0
  0
LINE
  5
7F
330
1F
100
AcDbEntity
  8
0
  6
Continuous
 62
     7
370
    15
100
AcDbLine
 10
496.4379482381
 20
591.9851801263
 30
0.0
 11
927.0111600347
 21
591.9851801263
 31
0.0
  0
LINE
  5
80
330
1F
100
AcDbEntity
  8
0
  6
Continuous
 62
     7
370
    15
100
AcDbLine
 10
927.0111600347
 20
611.9851801263
 30
0.0
 11
496.4379482381
 21
611.9851801263
 31
0.0
  0
SPLINE
  5
81
330
1F
100
AcDbEntity
  8
0
  6
Continuous
 62
     7
370
    15
100
AcDbSpline
210
0.0
220
0.0
230
1.0
 70
     8
 71
     3
 72
    41
 73
    37
 74
     0
 42
0.000000001
 43
0.00000001
 40
0.0
 40
0.0
 40
0.0
 40
0.0
 40
0.0217946288783654
 40
0.0632414990565038
 40
0.1047047181518303
 40
0.146186474183708
 40
0.1876992749037168
 40
0.2292582121384204
 40
0.2708826173036823
 40
0.3125985991321243
 40
0.3544431964579052
 40
0.3964716139430318
 40
0.4387707078546839
 40
0.481486236724992
 40
0.5248840441838434
 40
0.5695094187676375
 40
0.616710581093575
 40
0.671290647762984
 40
0.698014959095673
 40
0.7164629742425015
 40
0.7335092744455065
 40
0.7501777713273121
 40
0.7670134085725716
 40
0.7846085965645286
 40
0.80286890180927
 40
0.8215458091329045
 40
0.8404646319402201
 40
0.8595090237313217
 40
0.8801878185799688
 40
0.8997225608728705
 40
0.9182576275049232
 40
0.9359600138285039
 40
0.9529170665082441
 40
0.969169766333932
 40
0.9847701054434848
 40
1.0
 40
1.0
 40
1.0
 40
1.0
 10
496.4379482381038
 20
611.9851801262556
 30
0.0
 10
495.7768034403678
 20
611.984714925852
 30
0.0
 10
493.8583588393798
 20
611.9833650533193
 30
0.0
 10
490.6899539798497
 20
611.9683555952622
 30
0.0
 10
486.9665549448657
 20
611.934750447358
 30
0.0
 10
483.3074116873112
 20
611.8844914116676
 30
0.0
 10
479.7373914356241
 20
611.818156991104
 30
0.0
 10
476.2800251517763
 20
611.7360330983516
 30
0.0
 10
472.957724560415
 20
611.638558761685
 30
0.0
 10
469.7913607861104
 20
611.526170305756
 30
0.0
 10
466.7998269699943
 20
611.3992790673012
 30
0.0
 10
463.9993952959409
 20
611.2581703950044
 30
0.0
 10
461.4026516244932
 20
611.102800336114
 30
0.0
 10
459.0166694212504
 20
610.9324701722101
 30
0.0
 10
456.8383987058901
 20
610.7446007030459
 30
0.0
 10
454.8445813443943
 20
610.532984846343
 30
0.0
 10
452.9385579983542
 20
610.2720215680155
 30
0.0
 10
451.4215157618071
 20
609.9911654532475
 30
0.0
 10
450.0887839535727
 20
609.630280145637
 30
0.0
 10
449.1067556459842
 20
609.2841532484191
 30
0.0
 10
448.1506741611072
 20
608.8591982870906
 30
0.0
 10
447.1191234442895
 20
608.2735773449047
 30
0.0
 10
446.0436071315815
 20
607.4832629371791
 30
0.0
 10
444.9899516997259
 20
606.4654880191179
 30
0.0
 10
444.0354955030716
 20
605.2211367079774
 30
0.0
 10
443.2563212136837
 20
603.7834333539267
 30
0.0
 10
442.7083555523913
 20
602.2018062180499
 30
0.0
 10
442.4182347509126
 20
600.4854076270245
 30
0.0
 10
442.4306415632441
 20
598.7221693534675
 30
0.0
 10
442.7491706063992
 20
597.0075751510475
 30
0.0
 10
443.3140256776585
 20
595.4606780822024
 30
0.0
 10
444.0691966004921
 20
594.1014041555876
 30
0.0
 10
444.9603613624425
 20
592.9404652685078
 30
0.0
 10
445.9272809234616
 20
591.9880049588736
 30
0.0
 10
446.9183643734931
 20
591.2237044380755
 30
0.0
 10
447.5452863502214
 20
590.8605143311386
 30
0.0
 10
447.8549809086264
 20
590.6811012558915
 30
0.0
  0
SPLINE
  5
82
330
1F
100
AcDbEntity
  8
0
  6
Continuous
 62
     7
370
    15
100
AcDbSpline
210
0.0
220
0.0
230
1.0
 70
     8
 71
     3
 72
    25
 73
    21
 74
     0
 42
0.000000001
 43
0.00000001
 40
0.0
 40
0.0
 40
0.0
 40
0.0
 40
0.0233066213152772
 40
0.0605331101523102
 40
0.1038208462621599
 40
0.1526983175829471
 40
0.2060964717586728
 40
0.2627774933268422
 40
0.3216826271573411
 40
0.3820489079849959
 40
0.4433729256437946
 40
0.5053334448354846
 40
0.5677256071652897
 40
0.6304165121483855
 40
0.6933176531232574
 40
0.7563682233503749
 40
0.819524961144876
 40
0.882755849141464
 40
0.9460360830001705
 40
1.0
 40
1.0
 40
1.0
 40
1.0
 10
455.7966008695312
 20
590.4522236783789
 30
0.0
 10
455.8004223285095
 20
590.4531665248375
 30
0.0
 10
455.8103476108638
 20
590.4556153323142
 30
0.0
 10
456.1146580806542
 20
590.5130777909922
 30
0.0
 10
456.693103537021
 20
590.5998616499161
 30
0.0
 10
457.606462476208
 20
590.7140059167018
 30
0.0
 10
458.8564340096223
 20
590.84341743214
 30
0.0
 10
460.4452513334472
 20
590.9813389648988
 30
0.0
 10
462.3540447680044
 20
591.1209724714492
 30
0.0
 10
464.5587209388194
 20
591.2575469656871
 30
0.0
 10
467.0324338065027
 20
591.3875087428859
 30
0.0
 10
469.7483473239163
 20
591.5083091108413
 30
0.0
 10
472.6798471984912
 20
591.618048930847
 30
0.0
 10
475.8004413953099
 20
591.7152778953205
 30
0.0
 10
479.0835145188467
 20
591.798873428136
 30
0.0
 10
482.5021662704808
 20
591.8679232829729
 30
0.0
 10
486.0291628576819
 20
591.9218388886767
 30
0.0
 10
489.6368648624008
 20
591.9597385243729
 30
0.0
 10
493.1173547739041
 20
591.9815142010301
 30
0.0
 10
495.3913139741129
 20
591.9840246451672
 30
0.0
 10
496.4379482381038
 20
591.9851801262556
 30
0.0
  0
SPLINE
  5
83
330
1F
100
AcDbEntity
  8
0
  6
Continuous
 62
     7
370
    15
100
AcDbSpline
210
0.0
220
0.0
230
1.0
 70
     8
 71
     3
 72
    42
 73
    38
 74
     0
 42
0.000000001
 43
0.00000001
 40
0.0
 40
0.0
 40
0.0
 40
0.0
 40
0.015051274221197
 40
0.0320239301539054
 40
0.0497570737342727
 40
0.0681088519639553
 40
0.0868399551566878
 40
0.1057886386079731
 40
0.1248476594558389
 40
0.14532457421445
 40
0.1646821251689853
 40
0.1830732766651204
 40
0.2006502187883799
 40
0.2174911395417921
 40
0.2336323195915559
 40
0.2491414808801133
 40
0.2643297070164454
 40
0.2799209172204449
 40
0.2967934116798747
 40
0.3165451289183119
 40
0.3417493022259339
 40
0.3780488496022417
 40
0.4272198531599372
 40
0.4714052913286093
 40
0.5135463071461065
 40
0.5579871124448403
 40
0.6012289469284867
 40
0.6438110684713299
 40
0.6860028317059669
 40
0.7279459392644665
 40
0.7697229446603826
 40
0.8113856464279697
 40
0.8529685619659026
 40
0.8944959785418699
 40
0.9359859388091626
 40
0.9774526565415498
 40
1.0
 40
1.0
 40
1.0
 40
1.0
 10
975.5941273641366
 20
590.6811012558913
 30
0.0
 10
975.9001382032707
 20
590.8583132983358
 30
0.0
 10
976.5512239249676
 20
591.2353595195578
 30
0.0
 10
977.5998863030239
 20
592.0496241071849
 30
0.0
 10
978.6407147171448
 20
593.106973467533
 30
0.0
 10
979.5691059268303
 20
594.390140144149
 30
0.0
 10
980.3099432981714
 20
595.8574785366557
 30
0.0
 10
980.8120178049513
 20
597.4593586470371
 30
0.0
 10
981.0497282784629
 20
599.1798999988669
 30
0.0
 10
980.9859499612376
 20
600.9308765900176
 30
0.0
 10
980.6236522392403
 20
602.6197910511446
 30
0.0
 10
980.0243141032818
 20
604.1372715418247
 30
0.0
 10
979.2433125623874
 20
605.4651783772297
 30
0.0
 10
978.3359237167098
 20
606.5923585446604
 30
0.0
 10
977.360949347516
 20
607.5141809874657
 30
0.0
 10
976.3768165866611
 20
608.2384934353389
 30
0.0
 10
975.4283987495364
 20
608.7898748511819
 30
0.0
 10
974.5357911852068
 20
609.2040912714923
 30
0.0
 10
973.680074733154
 20
609.523493229665
 30
0.0
 10
972.8022933300459
 20
609.7872678931269
 30
0.0
 10
971.7751168885209
 20
610.0331544912108
 30
0.0
 10
970.440955308018
 20
610.280060600964
 30
0.0
 10
968.7748623721981
 20
610.5123283760307
 30
0.0
 10
966.7956416185652
 20
610.7265990342188
 30
0.0
 10
964.642369757484
 20
610.9159274440703
 30
0.0
 10
962.2537019718454
 20
611.0894793045361
 30
0.0
 10
959.6065218618163
 20
611.2496693889831
 30
0.0
 10
956.7755391703184
 20
611.3935009992588
 30
0.0
 10
953.7644713082061
 20
611.5220606123892
 30
0.0
 10
950.585069891524
 20
611.6355514727695
 30
0.0
 10
947.2538780668903
 20
611.7338008192675
 30
0.0
 10
943.7904157335555
 20
611.8165028067004
 30
0.0
 10
940.2162716907028
 20
611.8832934061286
 30
0.0
 10
936.5544630732624
 20
611.9339350597164
 30
0.0
 10
932.8292648004247
 20
611.9678756721825
 30
0.0
 10
929.6370678610592
 20
611.983272741534
 30
0.0
 10
927.6951513110481
 20
611.9846832944562
 30
0.0
 10
927.0111600346594
 20
611.9851801262555
 30
0.0
  0
SPLINE
  5
84
330
1F
100
AcDbEntity
  8
0
  6
Continuous
 62
     7
370
    15
100
AcDbSpline
210
0.0
220
0.0
230
1.0
 70
     8
 71
     3
 72
    25
 73
    21
 74
     0
 42
0.000000001
 43
0.00000001
 40
0.0
 40
0.0
 40
0.0
 40
0.0
 40
0.0332919183827017
 40
0.0965981949526398
 40
0.1599019705005535
 40
0.2231713138176216
 40
0.2863861282205092
 40
0.3495219773326266
 40
0.4125475334230152
 40
0.4754207967862982
 40
0.538083194812794
 40
0.6004500093069653
 40
0.6623943298542289
 40
0.7237194180515262
 40
0.7841103277099892
 40
0.8430499394066796
 40
0.8934077295110759
 40
0.939099941195727
 40
0.9788384604505208
 40
0.9999999999999999
 40
0.9999999999999999
 40
0.9999999999999999
 40
0.9999999999999999
 10
927.0111600346594
 20
591.9851801262555
 30
0.0
 10
927.6567553202827
 20
591.9847258786357
 30
0.0
 10
929.5299828869329
 20
591.9834078560561
 30
0.0
 10
932.622775590369
 20
591.968755855689
 30
0.0
 10
936.253663177804
 20
591.9359850318759
 30
0.0
 10
939.8149343462387
 20
591.8870755243977
 30
0.0
 10
943.2787628114163
 20
591.8227382636248
 30
0.0
 10
946.6182753336847
 20
591.7434787313899
 30
0.0
 10
949.8070998267569
 20
591.6500624928899
 30
0.0
 10
952.8194654461748
 20
591.5434165643163
 30
0.0
 10
955.6301503491495
 20
591.4246992092206
 30
0.0
 10
958.2143206452683
 20
591.2953646029044
 30
0.0
 10
960.5472829275767
 20
591.157276028306
 30
0.0
 10
962.6036865983689
 20
591.0129953307193
 30
0.0
 10
964.3575757437069
 20
590.8660212820729
 30
0.0
 10
965.7274116301404
 20
590.7274958897541
 30
0.0
 10
966.7193704477523
 20
590.6050628161581
 30
0.0
 10
967.3328491360052
 20
590.5138573245399
 30
0.0
 10
967.6492991871012
 20
590.4532292654243
 30
0.0
 10
967.64571374829
 20
590.4539049132082
 30
0.0
 10
967.6444678807704
 20
590.4541396871572
 30
0.0
  0
LINE
  5
85
330
1F
100
AcDbEntity
  8
0
  6
Continuous
 62
     7
370
    15
100
AcDbLine
 10
502.8825940223
 20
583.4744763563
 30
0.0
 11
488.6037567404
 21
591.254550719
 31
0.0
  0
LINE
  5
86
330
1F
100
AcDbEntity
  8
0
  6
Continuous
 62
     7
370
    15
100
AcDbLine
 10
447.8549809086
 20
590.6811012559
 30
0.0
 11
467.8039150092
 21
579.8115754188
 31
0.0
  0
LINE
  5
87
330
1F
100
AcDbEntity
  8
0
  6
Continuous
 62
     7
370
    15
100
AcDbLine
 10
487.1508961592
 20
569.2700341806
 30
0.0
 11
493.3134981955
 21
565.9122326199
 31
0.0
  0
LINE
  5
88
330
1F
100
AcDbEntity
  8
0
  6
Continuous
 62
     7
370
    15
100
AcDbLine
 10
930.1356100773
 20
565.9122326199
 30
0.0
 11
936.2982121136
 21
569.2700341806
 31
0.0
  0
LINE
  5
89
330
1F
100
AcDbEntity
  8
0
  6
Continuous
 62
     7
370
    15
100
AcDbLine
 10
955.6451932636
 20
579.8115754188
 30
0.0
 11
975.5941273641
 21
590.6811012559
 31
0.0
  0
LINE
  5
8A
330
1F
100
AcDbEntity
  8
0
  6
Continuous
 62
     7
370
    15
100
AcDbLine
 10
934.8453515324
 20
591.254550719
 30
0.0
 11
920.5665142505
 21
583.4744763563
 31
0.0
  0
SPLINE
  5
8B
330
1F
100
AcDbEntity
  8
0
  6
Continuous
 62
     7
370
    15
100
AcDbSpline
210
0.0
220
0.0
230
1.0
 70
     8
 71
     3
 72
    17
 73
    13
 74
     0
 42
0.000000001
 43
0.00000001
 40
0.0
 40
0.0
 40
0.0
 40
0.0
 40
0.0515094871042688
 40
0.158684495897446
 40
0.269604780055321
 40
0.3826699376095931
 40
0.4968891372085411
 40
0.6228933402620813
 40
0.7412282187184257
 40
0.8527175980715724
 40
0.9583162740686464
 40
1.0
 40
1.0
 40
1.0
 40
1.0
 10
811.359192798703
 20
999.596197183359
 30
0.0
 10
811.5321032026621
 20
999.4125813270473
 30
0.0
 10
812.0647856623443
 20
998.8469187426263
 30
0.0
 10
813.1461875109975
 20
998.0739614897184
 30
0.0
 10
814.5807110546048
 20
997.3122306058216
 30
0.0
 10
816.1616649991123
 20
996.7948279104916
 30
0.0
 10
817.8779262293575
 20
996.5332019219601
 30
0.0
 10
819.6413718321172
 20
996.5794810664623
 30
0.0
 10
821.3563414751202
 20
996.9333884711726
 30
0.0
 10
822.8831569660524
 20
997.5450890152401
 30
0.0
 10
823.998572127958
 20
998.1655182651353
 30
0.0
 10
824.5486936840402
 20
998.6318544326053
 30
0.0
 10
824.7043885659298
 20
998.7638364531467
 30
0.0
  0
SPLINE
  5
8C
330
1F
100
AcDbEntity
  8
0
  6
Continuous
 62
     7
370
    15
100
AcDbSpline
210
0.0
220
0.0
230
1.0
 70
     8
 71
     3
 72
    17
 73
    13
 74
     0
 42
0.000000001
 43
0.00000001
 40
0.0
 40
0.0
 40
0.0
 40
0.0
 40
0.0341485846487522
 40
0.1456825735142008
 40
0.2590458322556457
 40
0.3733700765807884
 40
0.4972969485487311
 40
0.6138084537843723
 40
0.7237690104792038
 40
0.8279777436271698
 40
0.9267491541448121
 40
1.0
 40
1.0
 40
1.0
 40
1.0
 10
598.7463237029642
 20
998.763936496894
 30
0.0
 10
598.872316254601
 20
998.6538250090692
 30
0.0
 10
599.4098178627895
 20
998.1840742101764
 30
0.0
 10
600.5298142549484
 20
997.5621486741549
 30
0.0
 10
602.072908842831
 20
996.9396643155455
 30
0.0
 10
603.7680228697167
 20
996.586858265033
 30
0.0
 10
605.5132397874771
 20
996.529680002251
 30
0.0
 10
607.2190136347363
 20
996.7788179531327
 30
0.0
 10
608.7680573194287
 20
997.2755323811242
 30
0.0
 10
610.1365329425316
 20
997.9740525485014
 30
0.0
 10
611.2550187793861
 20
998.7479477788597
 30
0.0
 10
611.8518184850267
 20
999.3435687512941
 30
0.0
 10
612.1059488758615
 20
999.5971972117032
 30
0.0
  0
SPLINE
  5
8D
330
1F
100
AcDbEntity
  8
0
  6
Continuous
 62
     7
370
    15
100
AcDbSpline
210
0.0
220
0.0
230
1.0
 70
     8
 71
     3
 72
     9
 73
     5
 74
     0
 42
0.000000001
 43
0.00000001
 40
0.0
 40
0.0
 40
0.0
 40
0.0
 40
0.7208020347429052
 40
1.0
 40
1.0
 40
1.0
 40
1.0
 10
624.7135823710216
 20
1197.481913801771
 30
0.0
 10
624.7447191914367
 20
1198.099525790711
 30
0.0
 10
624.7879166560863
 20
1198.956365753934
 30
0.0
 10
624.8329311214089
 20
1199.81524918233
 30
0.0
 10
624.8454990685343
 20
1200.055047687931
 30
0.0
  0
LINE
  5
8E
330
1F
100
AcDbEntity
  8
0
  6
Continuous
 62
     7
370
    15
100
AcDbLine
 10
604.8615702417
 20
1200.8812054874
 30
0.0
 11
604.7389710196
 21
1198.4893369293
 31
0.0
  0
LINE
  5
8F
330
1F
100
AcDbEntity
  8
0
  6
Continuous
 62
     7
370
    15
100
AcDbLine
 10
798.6036342326
 20
1200.0550476879
 30
0.0
 11
798.7355259017
 21
1197.4819138018
 31
0.0
  0
SPLINE
  5
90
330
1F
100
AcDbEntity
  8
0
  6
Continuous
 62
     7
370
    15
100
AcDbSpline
210
0.0
220
0.0
230
1.0
 70
     8
 71
     3
 72
     9
 73
     5
 74
     0
 42
0.000000001
 43
0.00000001
 40
0.0
 40
0.0
 40
0.0
 40
0.0
 40
0.7801966059037432
 40
1.0
 40
1.0
 40
1.0
 40
1.0
 10
818.7101372532093
 20
1198.489336929266
 30
0.0
 10
818.6787187828643
 20
1199.113025491132
 30
0.0
 10
818.6384488430731
 20
1199.912424715823
 30
0.0
 10
818.5964856275617
 20
1200.713691798268
 30
0.0
 10
818.5872619703651
 20
1200.889813022567
 30
0.0
  0
LINE
  5
91
330
1F
100
AcDbEntity
  8
0
  6
Continuous
 62
     7
370
    15
100
AcDbLine
 10
619.1368061114
 20
1086.9087739363
 30
0.0
 11
624.713582371
 21
1197.4819138018
 31
0.0
  0
LINE
  5
92
330
1F
100
AcDbEntity
  8
0
  6
Continuous
 62
     7
370
    15
100
AcDbLine
 10
604.7389710196
 20
1198.4893369293
 30
0.0
 11
599.0849902237
 21
1086.3854295415
 31
0.0
  0
LINE
  5
93
330
1F
100
AcDbEntity
  8
0
  6
Continuous
 62
     7
370
    15
100
AcDbLine
 10
824.3641153789
 20
1086.3854824841
 30
0.0
 11
818.7101372532
 21
1198.4893369293
 31
0.0
  0
LINE
  5
94
330
1F
100
AcDbEntity
  8
0
  6
Continuous
 62
     7
370
    15
100
AcDbLine
 10
798.7355259017
 20
1197.4819138018
 30
0.0
 11
804.3122710725
 21
1086.909390349
 31
0.0
  0
LINE
  5
95
330
1F
100
AcDbEntity
  8
0
  6
Continuous
 62
     7
370
    15
100
AcDbLine
 10
614.9540647658
 20
1010.6084737746
 30
0.0
 11
614.9540647658
 21
1010.7077633729
 31
0.0
  0
LINE
  5
96
330
1F
100
AcDbEntity
  8
0
  6
Continuous
 62
     7
370
    15
100
AcDbLine
 10
594.9540647658
 20
1011.5860650045
 30
0.0
 11
594.9540647658
 21
1009.3610424971
 31
0.0
  0
LINE
  5
97
330
1F
100
AcDbEntity
  8
0
  6
Continuous
 62
     7
370
    15
100
AcDbLine
 10
828.495043507
 20
1009.3610424971
 30
0.0
 11
828.495043507
 21
1011.5860650045
 31
0.0
  0
LINE
  5
98
330
1F
100
AcDbEntity
  8
0
  6
Continuous
 62
     7
370
    15
100
AcDbLine
 10
808.495043507
 20
1010.7077633729
 30
0.0
 11
808.495043507
 21
1010.6084737746
 31
0.0
  0
LINE
  5
99
330
1F
100
AcDbEntity
  8
0
  6
Continuous
 62
     7
370
    15
100
AcDbLine
 10
471.2672169169
 20
328.9200559951
 30
0.0
 11
488.6494987877
 21
591.946714034
 31
0.0
  0
LINE
  5
9A
330
1F
100
AcDbEntity
  8
0
  6
Continuous
 62
     7
370
    15
100
AcDbLine
 10
489.9720332122
 20
611.9591503993
 30
0.0
 11
514.7547556215
 21
986.9684098774
 31
0.0
  0
LINE
  5
9B
330
1F
100
AcDbEntity
  8
0
  6
Continuous
 62
     7
370
    15
100
AcDbLine
 10
494.7982861712
 20
988.2872453789
 30
0.0
 11
469.8998214297
 21
611.5265864543
 31
0.0
  0
LINE
  5
9C
330
1F
100
AcDbEntity
  8
0
  6
Continuous
 62
     7
370
    15
100
AcDbLine
 10
468.573222417
 20
591.4526452157
 30
0.0
 11
451.3107474666
 21
330.2388914967
 31
0.0
  0
SPLINE
  5
9D
330
1F
100
AcDbEntity
  8
0
  6
Continuous
 62
     7
370
    15
100
AcDbSpline
210
0.0
220
0.0
230
1.0
 70
     8
 71
     3
 72
    23
 73
    19
 74
     0
 42
0.000000001
 43
0.00000001
 40
0.0
 40
0.0
 40
0.0
 40
0.0
 40
0.0310369828518038
 40
0.0934761408415032
 40
0.1558569682681445
 40
0.2181486068637161
 40
0.280350123004838
 40
0.3424807706594364
 40
0.4045817446664016
 40
0.4667168270382686
 40
0.5290097042341376
 40
0.591649472011333
 40
0.6549093551035271
 40
0.719165495130721
 40
0.7849069263918179
 40
0.8527099442923003
 40
0.9231062294326563
 40
1.0
 40
1.0
 40
1.0
 40
1.0
 10
514.7364021429363
 20
986.675079721089
 30
0.0
 10
514.7714508220248
 20
987.1759400000284
 30
0.0
 10
514.877009254635
 20
988.6844141387552
 30
0.0
 10
515.212663197061
 20
991.171178597316
 30
0.0
 10
515.8155796165091
 20
994.0821771496895
 30
0.0
 10
516.6219455834632
 20
996.882806442316
 30
0.0
 10
517.6153445265229
 20
999.5431616348337
 30
0.0
 10
518.7811625814558
 20
1002.035744605315
 30
0.0
 10
520.1010266569242
 20
1004.33601493292
 30
0.0
 10
521.5549704631893
 20
1006.42306992453
 30
0.0
 10
523.1219392718411
 20
1008.28029737873
 30
0.0
 10
524.7812771980416
 20
1009.89576016944
 30
0.0
 10
526.5142625672167
 20
1011.262191720134
 30
0.0
 10
528.3061622733214
 20
1012.375573931975
 30
0.0
 10
530.1483456386944
 20
1013.236024533656
 30
0.0
 10
532.0398598022381
 20
1013.834114264505
 30
0.0
 10
534.0197758366421
 20
1014.193280033387
 30
0.0
 10
535.3704145238659
 20
1014.178487886724
 30
0.0
 10
536.0755245928096
 20
1014.170765546432
 30
0.0
  0
SPLINE
  5
9E
330
1F
100
AcDbEntity
  8
0
  6
Continuous
 62
     7
370
    15
100
AcDbSpline
210
0.0
220
0.0
230
1.0
 70
     8
 71
     3
 72
    27
 73
    23
 74
     0
 42
0.000000001
 43
0.00000001
 40
0.0
 40
0.0
 40
0.0
 40
0.0
 40
0.0255798659231224
 40
0.07619044566704
 40
0.126768022570137
 40
0.1773852403760934
 40
0.2281440169378214
 40
0.2791331899659081
 40
0.3304221786903557
 40
0.3820563537680204
 40
0.4340548123842047
 40
0.4864110954606617
 40
0.5390969147591133
 40
0.5920682854115173
 40
0.6452728636810107
 40
0.6986570642122398
 40
0.7521717792702804
 40
0.8057760892410333
 40
0.8594389521265596
 40
0.9131390027797269
 40
0.9668618905762406
 40
1.0
 40
1.0
 40
1.0
 40
1.0
 10
536.7923634978351
 20
1034.149748463701
 30
0.0
 10
536.2446798568534
 20
1034.169520388457
 30
0.0
 10
534.6133866821216
 20
1034.228411696308
 30
0.0
 10
531.8972207563348
 20
1034.064694025747
 30
0.0
 10
528.6727856832572
 20
1033.581487520459
 30
0.0
 10
525.4966338075025
 20
1032.781769634911
 30
0.0
 10
522.3872609097957
 20
1031.680217869704
 30
0.0
 10
519.3615436474481
 20
1030.280546826953
 30
0.0
 10
516.4364376452013
 20
1028.590534044259
 30
0.0
 10
513.6289867334914
 20
1026.618442515777
 30
0.0
 10
510.956393303692
 20
1024.374516847324
 30
0.0
 10
508.4358416177934
 20
1021.871083462571
 30
0.0
 10
506.0841725507341
 20
1019.122870213214
 30
0.0
 10
503.9174631477881
 20
1016.147014962043
 30
0.0
 10
501.9505819010392
 20
1012.962883881482
 30
0.0
 10
500.1968999598158
 20
1009.591707420421
 30
0.0
 10
498.6678430472097
 20
1006.05616211929
 30
0.0
 10
497.3736644418022
 20
1002.379855190808
 30
0.0
 10
496.320277607397
 20
998.587252914516
 30
0.0
 10
495.5213199134865
 20
994.702342731662
 30
0.0
 10
495.0261635984057
 20
991.257443976302
 30
0.0
 10
494.8675137856336
 20
989.1076458756403
 30
0.0
 10
494.8069877149696
 20
988.2874820854634
 30
0.0
  0
LINE
  5
9F
330
1F
100
AcDbEntity
  8
0
  6
Continuous
 62
     7
370
    15
100
AcDbLine
 10
565.8949110973
 20
1012.8622001085
 30
0.0
 11
686.6440484294
 21
1007.5594918918
 31
0.0
  0
LINE
  5
A0
330
1F
100
AcDbEntity
  8
0
  6
Continuous
 62
     7
370
    15
100
AcDbLine
 10
535.9149986934
 20
1014.1787704075
 30
0.0
 11
562.2615806043
 21
1013.0217581135
 31
0.0
  0
LINE
  5
A1
330
1F
100
AcDbEntity
  8
0
  6
Continuous
 62
     7
370
    15
100
AcDbLine
 10
563.1332069238
 20
1033.0027566273
 30
0.0
 11
536.7924546578
 21
1034.159512912
 31
0.0
  0
LINE
  5
A2
330
1F
100
AcDbEntity
  8
0
  6
Continuous
 62
     7
370
    15
100
AcDbLine
 10
687.5215043938
 20
1027.5402343963
 30
0.0
 11
566.7827671004
 21
1032.8424858945
 31
0.0
  0
SPLINE
  5
A3
330
1F
100
AcDbEntity
  8
0
  6
Continuous
 62
     7
370
    15
100
AcDbSpline
210
0.0
220
0.0
230
1.0
 70
     8
 71
     3
 72
    16
 73
    12
 74
     0
 42
0.000000001
 43
0.00000001
 40
0.0
 40
0.0
 40
0.0
 40
0.0
 40
0.0587085288338286
 40
0.1965608809090987
 40
0.3333944255974046
 40
0.4685023610371009
 40
0.6009477619024166
 40
0.7291710007621204
 40
0.8344261871447038
 40
0.9270725289621661
 40
1.0
 40
1.0
 40
1.0
 40
1.0
 10
686.6390675305705
 20
1007.559245205097
 30
0.0
 10
687.0069517676936
 20
1007.542894543992
 30
0.0
 10
688.2386578103742
 20
1007.488151214289
 30
0.0
 10
690.1703056905054
 20
1007.387174658561
 30
0.0
 10
692.3226796847109
 20
1007.254867877071
 30
0.0
 10
694.1857324453164
 20
1007.117243545955
 30
0.0
 10
695.7335179482686
 20
1006.979426608578
 30
0.0
 10
696.8864836339277
 20
1006.853076870593
 30
0.0
 10
697.6384966703282
 20
1006.752264402907
 30
0.0
 10
698.0624779937324
 20
1006.680281146047
 30
0.0
 10
698.1083013715652
 20
1006.670266311915
 30
0.0
 10
698.1284844126038
 20
1006.665855248876
 30
0.0
  0
SPLINE
  5
A4
330
1F
100
AcDbEntity
  8
0
  6
Continuous
 62
     7
370
    15
100
AcDbSpline
210
0.0
220
0.0
230
1.0
 70
     8
 71
     3
 72
    43
 73
    39
 74
     0
 42
0.000000001
 43
0.00000001
 40
0.0
 40
0.0
 40
0.0
 40
0.0
 40
0.0184866331914186
 40
0.063936039710691
 40
0.1101259757402979
 40
0.1580938435114641
 40
0.210262110987168
 40
0.2437643915024491
 40
0.2702953187040979
 40
0.289879194737413
 40
0.308101483556119
 40
0.3260468660928771
 40
0.3443688488502866
 40
0.3636498725448606
 40
0.3836875058570803
 40
0.4041944677301154
 40
0.4249776619823644
 40
0.4459060292401041
 40
0.4686687039368835
 40
0.4901559564513873
 40
0.510525057336979
 40
0.5299580841056909
 40
0.5485476233057137
 40
0.5663296878029241
 40
0.583327868884557
 40
0.5997408234442442
 40
0.6162313690917557
 40
0.6337158344881545
 40
0.6536761785694184
 40
0.6785514506897062
 40
0.7132066043715285
 40
0.7737677304795828
 40
0.8202873860417388
 40
0.8646772481492058
 40
0.9114795959693341
 40
0.9570164714825903
 40
0.9991655656890729
 40
1.0
 40
1.0
 40
1.0
 40
1.0
 10
692.6304877595093
 20
1004.620240667832
 30
0.0
 10
692.963855330531
 20
1004.641286679362
 30
0.0
 10
694.1168074142555
 20
1004.714074331661
 30
0.0
 10
695.927404146371
 20
1004.849612830093
 30
0.0
 10
697.9877317238276
 20
1005.03567549769
 30
0.0
 10
699.8862417740829
 20
1005.25249931699
 30
0.0
 10
701.4219421838923
 20
1005.483326204623
 30
0.0
 10
702.6957818310435
 20
1005.743591162116
 30
0.0
 10
703.6971343684572
 20
1006.010188702947
 30
0.0
 10
704.6483284248311
 20
1006.336992216848
 30
0.0
 10
705.6062784114627
 20
1006.753972887775
 30
0.0
 10
706.6441400573311
 20
1007.333575058183
 30
0.0
 10
707.7280958974166
 20
1008.119783283488
 30
0.0
 10
708.790626387701
 20
1009.135486795317
 30
0.0
 10
709.7525785063333
 20
1010.378222580494
 30
0.0
 10
710.5378660803843
 20
1011.81348911992
 30
0.0
 10
711.0916448779943
 20
1013.392419423961
 30
0.0
 10
711.3881213237026
 20
1015.107464784078
 30
0.0
 10
711.3819593337558
 20
1016.870931667765
 30
0.0
 10
711.0688686820537
 20
1018.587310051971
 30
0.0
 10
710.508496385986
 20
1020.136406774267
 30
0.0
 10
709.7562966667257
 20
1021.499076334616
 30
0.0
 10
708.8662042477731
 20
1022.663808301578
 30
0.0
 10
707.8953443705097
 20
1023.624322320399
 30
0.0
 10
706.9030365797886
 20
1024.384475991029
 30
0.0
 10
705.9397245046719
 20
1024.964291992738
 30
0.0
 10
705.0342201403066
 20
1025.397048941481
 30
0.0
 10
704.1787307697465
 20
1025.72433460104
 30
0.0
 10
703.3244115231422
 20
1025.986784230864
 30
0.0
 10
702.3654130663149
 20
1026.22163672281
 30
0.0
 10
701.0130759907463
 20
1026.479135677557
 30
0.0
 10
699.3427812558344
 20
1026.709348666351
 30
0.0
 10
697.2811281536494
 20
1026.92488983356
 30
0.0
 10
695.1671366768278
 20
1027.103132669421
 30
0.0
 10
692.8214863952924
 20
1027.265810445129
 30
0.0
 10
690.2713631810395
 20
1027.411744743077
 30
0.0
 10
688.4571975013008
 20
1027.499470405687
 30
0.0
 10
687.5392734807841
 20
1027.539438322159
 30
0.0
 10
687.5214539270165
 20
1027.540214214739
 30
0.0
  0
LINE
  5
A5
330
1F
100
AcDbEntity
  8
0
  6
Continuous
 62
     7
370
    15
100
AcDbLine
 10
581.6596877955
 20
997.698216294
 30
0.0
 11
692.6355563922
 21
1004.6199547707
 31
0.0
  0
LINE
  5
A6
330
1F
100
AcDbEntity
  8
0
  6
Continuous
 62
     7
370
    15
100
AcDbLine
 10
532.0435738634
 20
994.6035816747
 30
0.0
 11
578.6524954681
 21
997.5106530057
 31
0.0
  0
SPLINE
  5
A7
330
1F
100
AcDbEntity
  8
0
  6
Continuous
 62
     7
370
    15
100
AcDbSpline
210
0.0
220
0.0
230
1.0
 70
     8
 71
     3
 72
    23
 73
    19
 74
     0
 42
0.000000001
 43
0.00000001
 40
0.0
 40
0.0
 40
0.0
 40
0.0
 40
0.0338507803974239
 40
0.1002458144851096
 40
0.166467833362169
 40
0.2324266056233709
 40
0.2980659200753201
 40
0.3633479013545673
 40
0.4282643102593526
 40
0.4928535529977129
 40
0.5572259443369777
 40
0.6215771806003462
 40
0.6861752963262888
 40
0.7515618844588071
 40
0.8186138094099048
 40
0.8887480067703034
 40
0.9642860485784142
 40
0.9999999999999999
 40
0.9999999999999999
 40
0.9999999999999999
 40
0.9999999999999999
 10
516.8679235181612
 20
968.5309512828946
 30
0.0
 10
516.9117545452882
 20
969.0476690655886
 30
0.0
 10
517.041555895877
 20
970.5778788385081
 30
0.0
 10
517.3899755667542
 20
973.0793137725443
 30
0.0
 10
517.9673576816178
 20
975.975688646124
 30
0.0
 10
518.7057052326196
 20
978.7409325605605
 30
0.0
 10
519.5875816632246
 20
981.3439261634185
 30
0.0
 10
520.5961386287511
 20
983.7560116019436
 30
0.0
 10
521.7104011468294
 20
985.9522489303955
 30
0.0
 10
522.9069117061748
 20
987.9121078769772
 30
0.0
 10
524.1598792676982
 20
989.6202999883575
 30
0.0
 10
525.4417234975054
 20
991.0672226130077
 30
0.0
 10
526.725062857299
 20
992.250960110572
 30
0.0
 10
527.9857967500213
 20
993.1779726850577
 30
0.0
 10
529.2085615531965
 20
993.8641727820315
 30
0.0
 10
530.3937123435566
 20
994.3276883077729
 30
0.0
 10
531.3222852095798
 20
994.5411843043574
 30
0.0
 10
531.868294699243
 20
994.5884185928005
 30
0.0
 10
532.0435738634491
 20
994.6035816746825
 30
0.0
  0
LINE
  5
A8
330
1F
100
AcDbEntity
  8
0
  6
Continuous
 62
     7
370
    15
100
AcDbLine
 10
490.3883361523
 20
618.2585978411
 30
0.0
 11
516.8679235182
 21
968.5309512829
 31
0.0
  0
LINE
  5
A9
330
1F
100
AcDbEntity
  8
0
  6
Continuous
 62
     7
370
    15
100
AcDbLine
 10
470.4381074642
 20
619.6718678256
 30
0.0
 11
469.8221373738
 21
611.5238068218
 31
0.0
  0
LINE
  5
AA
330
1F
100
AcDbEntity
  8
0
  6
Continuous
 62
     7
370
    15
100
AcDbLine
 10
467.4397822302
 20
580.0099795355
 30
0.0
 11
448.5649394453
 21
330.3332941782
 31
0.0
  0
LINE
  5
AB
330
1F
100
AcDbEntity
  8
0
  6
Continuous
 62
     7
370
    15
100
AcDbLine
 10
448.5649394453
 20
330.3332941782
 30
0.0
 11
448.2646174285
 21
326.3606303236
 31
0.0
  0
ARC
  5
AC
330
1F
100
AcDbEntity
  8
0
  6
Continuous
 62
     7
370
    15
100
AcDbCircle
 10
457.6355206548
 20
317.6614821821
 30
0.0
 40
8.000000000000034
100
AcDbArc
 50
124.3336362927
 51
157.975687163
  0
SPLINE
  5
AD
330
1F
100
AcDbEntity
  8
0
  6
Continuous
 62
     7
370
    15
100
AcDbSpline
210
0.0
220
0.0
230
1.0
 70
     8
 71
     3
 72
    11
 73
     7
 74
     0
 42
0.000000001
 43
0.00000001
 40
0.0
 40
0.0
 40
0.0
 40
0.0
 40
0.1836370408421094
 40
0.5693365716068263
 40
0.8748891140961996
 40
1.0
 40
1.0
 40
1.0
 40
1.0
 10
453.4879550162341
 20
325.1924133204923
 30
0.0
 10
453.5023045832681
 20
325.1291468345616
 30
0.0
 10
453.5467930658841
 20
324.9329994558401
 30
0.0
 10
453.4460829432722
 20
324.6183954250642
 30
0.0
 10
453.278542354538
 20
324.387620264795
 30
0.0
 10
453.1960563357925
 20
324.3280004528785
 30
0.0
 10
453.1720935421129
 20
324.3106804600615
 30
0.0
  0
LINE
  5
AE
330
1F
100
AcDbEntity
  8
0
  6
Continuous
 62
     7
370
    15
100
AcDbLine
 10
451.3107474665
 20
330.2388914947
 30
0.0
 11
451.0473821164
 21
326.2536768304
 31
0.0
  0
LINE
  5
AF
330
1F
100
AcDbEntity
  8
0
  6
Continuous
 62
     7
370
    15
100
AcDbLine
 10
471.003851567
 20
324.9348413331
 30
0.0
 11
471.2672169171
 21
328.9200559974
 31
0.0
  0
ARC
  5
B0
330
1F
100
AcDbEntity
  8
0
  6
Continuous
 62
     7
370
    15
100
AcDbCircle
 10
460.4988861415
 20
317.6238297532
 30
0.0
 40
8.000000000000046
100
AcDbArc
 50
125.0532317898
 51
157.6844928985
  0
LWPOLYLINE
  5
B1
330
1F
100
AcDbEntity
  8
0
  6
Continuous
 62
     7
370
    15
100
AcDbPolyline
 90
        3
 70
   128
 43
0.0
 10
467.9150846286
 20
320.6238297532
 10
467.0877665641
 20
322.1610816502
 10
465.9154445952
 20
323.511180135
  0
SPLINE
  5
B2
330
1F
100
AcDbEntity
  8
0
  6
Continuous
 62
     7
370
    15
100
AcDbSpline
210
0.0
220
0.0
230
1.0
 70
     8
 71
     3
 72
    15
 73
    11
 74
     0
 42
0.000000001
 43
0.00000001
 40
0.0
 40
0.0
 40
0.0
 40
0.0
 40
0.0650519368580438
 40
0.1766079745421957
 40
0.3087565684010932
 40
0.465875151104071
 40
0.6324582613517562
 40
0.7974475178769096
 40
0.9294394931809977
 40
1.0
 40
1.0
 40
1.0
 40
1.0
 10
455.8095494304015
 20
325.8189196845024
 30
0.0
 10
455.8204784240242
 20
325.8141742207845
 30
0.0
 10
455.8501492919601
 20
325.8012908728634
 30
0.0
 10
455.9859115956729
 20
325.7125366059394
 30
0.0
 10
456.1678404154076
 20
325.5169332554919
 30
0.0
 10
456.3099361920561
 20
325.206342317597
 30
0.0
 10
456.3297228384955
 20
324.831881338314
 30
0.0
 10
456.2161931657709
 20
324.5007381012181
 30
0.0
 10
456.0491430803391
 20
324.2818791770371
 30
0.0
 10
455.948838560395
 20
324.2111763682486
 30
0.0
 10
455.9138968125117
 20
324.1865465736918
 30
0.0
  0
SPLINE
  5
B3
330
1F
100
AcDbEntity
  8
0
  6
Continuous
 62
     7
370
    15
100
AcDbSpline
210
0.0
220
0.0
230
1.0
 70
     8
 71
     3
 72
    15
 73
    11
 74
     0
 42
0.000000001
 43
0.00000001
 40
0.0
 40
0.0
 40
0.0
 40
0.0
 40
0.0398571272446265
 40
0.1933193434390102
 40
0.3604139388768417
 40
0.5412521868550284
 40
0.6823160808767478
 40
0.8016247345123193
 40
0.9048746180570121
 40
1.0
 40
1.0
 40
1.0
 40
1.0
 10
465.8800240646968
 20
323.5536804962352
 30
0.0
 10
465.8627513530777
 20
323.5691749231736
 30
0.0
 10
465.7789733815959
 20
323.6443276662274
 30
0.0
 10
465.6447557945224
 20
323.8840752833487
 30
0.0
 10
465.5787786994416
 20
324.249104390673
 30
0.0
 10
465.6599001021679
 20
324.6129054540402
 30
0.0
 10
465.8378732792913
 20
324.8809237061291
 30
0.0
 10
466.0220337236313
 20
325.0365202329212
 30
0.0
 10
466.1693080973669
 20
325.1131545233991
 30
0.0
 10
466.2183555909502
 20
325.1295710576584
 30
0.0
 10
466.2418749624253
 20
325.137443153445
 30
0.0
  0
LINE
  5
B4
330
1F
100
AcDbEntity
  8
0
  6
Continuous
 62
     7
370
    15
100
AcDbLine
 10
975.1844908443
 20
326.3606303236
 30
0.0
 11
974.8841688275
 21
330.3332941782
 31
0.0
  0
ARC
  5
B5
330
1F
100
AcDbEntity
  8
0
  6
Continuous
 62
     7
370
    15
100
AcDbCircle
 10
965.813587618
 20
317.6614821821
 30
0.0
 40
7.999999999999938
100
AcDbArc
 50
22.024312837
 51
55.6663637073
  0
SPLINE
  5
B6
330
1F
100
AcDbEntity
  8
0
  6
Continuous
 62
     7
370
    15
100
AcDbSpline
210
0.0
220
0.0
230
1.0
 70
     8
 71
     3
 72
    11
 73
     7
 74
     0
 42
0.000000001
 43
0.00000001
 40
0.0
 40
0.0
 40
0.0
 40
0.0
 40
0.1416311774775392
 40
0.4795613033802295
 40
0.8466243939287588
 40
1.0
 40
1.0
 40
1.0
 40
1.0
 10
970.2773781084611
 20
324.3118549242786
 30
0.0
 10
970.2504177777672
 20
324.3311939007299
 30
0.0
 10
970.159130452777
 20
324.3966754205353
 30
0.0
 10
969.9903492777025
 20
324.6452340092277
 30
0.0
 10
969.9025165841198
 20
324.9549606190655
 30
0.0
 10
969.9463928537509
 20
325.1312122819777
 30
0.0
 10
969.9593233861854
 20
325.183154433466
 30
0.0
  0
LINE
  5
B7
330
1F
100
AcDbEntity
  8
0
  6
Continuous
 62
     7
370
    15
100
AcDbLine
 10
952.1818913557
 20
328.9200559974
 30
0.0
 11
952.4452567058
 21
324.9348413331
 31
0.0
  0
LINE
  5
B8
330
1F
100
AcDbEntity
  8
0
  6
Continuous
 62
     7
370
    15
100
AcDbLine
 10
972.4017261563
 20
326.2536768304
 30
0.0
 11
972.1383608062
 21
330.2388914947
 31
0.0
  0
ARC
  5
B9
330
1F
100
AcDbEntity
  8
0
  6
Continuous
 62
     7
370
    15
100
AcDbCircle
 10
962.9502221313
 20
317.6238297532
 30
0.0
 40
8.000000000000075
100
AcDbArc
 50
132.6150895699
 51
157.975687163
  0
ARC
  5
BA
330
1F
100
AcDbEntity
  8
0
  6
Continuous
 62
     7
370
    15
100
AcDbCircle
 10
962.9502221313
 20
317.6238297532
 30
0.0
 40
7.99999999999999
100
AcDbArc
 50
22.024312837
 51
54.9467682102
  0
SPLINE
  5
BB
330
1F
100
AcDbEntity
  8
0
  6
Continuous
 62
     7
370
    15
100
AcDbSpline
210
0.0
220
0.0
230
1.0
 70
     8
 71
     3
 72
    15
 73
    11
 74
     0
 42
0.000000001
 43
0.00000001
 40
0.0
 40
0.0
 40
0.0
 40
0.0
 40
0.0973171649470049
 40
0.2566243079228437
 40
0.424948152912462
 40
0.5897283162699865
 40
0.7220464302206446
 40
0.8357333448162041
 40
0.9351126064770996
 40
1.0
 40
1.0
 40
1.0
 40
1.0
 10
967.5121424431696
 20
324.2060078317382
 30
0.0
 10
967.4636811780799
 20
324.244175366514
 30
0.0
 10
967.3358893479183
 20
324.3448227415406
 30
0.0
 10
967.1730029065823
 20
324.6249056153133
 30
0.0
 10
967.110313199857
 20
324.989986928288
 30
0.0
 10
967.1840752855883
 20
325.3338475713718
 30
0.0
 10
967.3382470359529
 20
325.5860767557578
 30
0.0
 10
967.4953577111888
 20
325.7350329909223
 30
0.0
 10
967.6059813557249
 20
325.8047112336049
 30
0.0
 10
967.6373091984993
 20
325.8190674201391
 30
0.0
 10
967.649684090166
 20
325.8247382942681
 30
0.0
  0
SPLINE
  5
BC
330
1F
100
AcDbEntity
  8
0
  6
Continuous
 62
     7
370
    15
100
AcDbSpline
210
0.0
220
0.0
230
1.0
 70
     8
 71
     3
 72
    16
 73
    12
 74
     0
 42
0.000000001
 43
0.00000001
 40
0.0
 40
0.0
 40
0.0
 40
0.0
 40
0.0138464674171708
 40
0.1761969386115264
 40
0.2747671318826926
 40
0.3823640819645168
 40
0.5149036096172765
 40
0.6586532946068576
 40
0.8123271257024389
 40
0.9325766270356468
 40
1.0
 40
1.0
 40
1.0
 40
1.0
 10
957.1636166941662
 20
325.1501315975552
 30
0.0
 10
957.1621809530993
 20
325.1503191690328
 30
0.0
 10
957.1439110815883
 20
325.1527060247645
 30
0.0
 10
957.1987344253306
 20
325.1454766012246
 30
0.0
 10
957.3550917446141
 20
325.0797376973638
 30
0.0
 10
957.5599170576181
 20
324.9374152278394
 30
0.0
 10
957.7573830670799
 20
324.6807191445366
 30
0.0
 10
957.866230843014
 20
324.3188734676228
 30
0.0
 10
957.8277869942748
 20
323.9555293058499
 30
0.0
 10
957.6995435966465
 20
323.6878036224621
 30
0.0
 10
957.603650224303
 20
323.5896931535156
 30
0.0
 10
957.5691995631059
 20
323.5544459780021
 30
0.0
  0
LINE
  5
BD
330
1F
100
AcDbEntity
  8
0
  6
Continuous
 62
     7
370
    15
100
AcDbLine
 10
908.6943526513
 20
986.9684098774
 30
0.0
 11
933.477068537
 21
611.9592491129
 31
0.0
  0
LINE
  5
BE
330
1F
100
AcDbEntity
  8
0
  6
Continuous
 62
     7
370
    15
100
AcDbLine
 10
934.7996315709
 20
591.9463798333
 30
0.0
 11
952.1818913558
 21
328.9200559951
 31
0.0
  0
LINE
  5
BF
330
1F
100
AcDbEntity
  8
0
  6
Continuous
 62
     7
370
    15
100
AcDbLine
 10
972.1383608061
 20
330.2388914967
 30
0.0
 11
954.8758516802
 21
591.4531623565
 31
0.0
  0
LINE
  5
C0
330
1F
100
AcDbEntity
  8
0
  6
Continuous
 62
     7
370
    15
100
AcDbLine
 10
953.549308161
 20
611.5262638741
 30
0.0
 11
928.6508221016
 21
988.2872453789
 31
0.0
  0
SPLINE
  5
C1
330
1F
100
AcDbEntity
  8
0
  6
Continuous
 62
     7
370
    15
100
AcDbSpline
210
0.0
220
0.0
230
1.0
 70
     8
 71
     3
 72
    23
 73
    19
 74
     0
 42
0.000000001
 43
0.00000001
 40
0.0
 40
0.0
 40
0.0
 40
0.0
 40
0.0299116781306264
 40
0.1048887048834386
 40
0.1793408637446908
 40
0.251426366490409
 40
0.3206582123141618
 40
0.3874970899719243
 40
0.4526162562977166
 40
0.5165938274403766
 40
0.5798574545158204
 40
0.6427038625892878
 40
0.7053298712662356
 40
0.7678593117442483
 40
0.830356042329411
 40
0.8928527834072424
 40
0.9553664552632117
 40
1.0
 40
1.0
 40
1.0
 40
1.0
 10
887.3735836799535
 20
1014.170765546432
 30
0.0
 10
887.6478980929545
 20
1014.18093099548
 30
0.0
 10
888.6098128135156
 20
1014.21657729993
 30
0.0
 10
890.255147827267
 20
1014.074430363697
 30
0.0
 10
892.3009595194095
 20
1013.59597348618
 30
0.0
 10
894.3082730190573
 20
1012.806672296357
 30
0.0
 10
896.2449754890093
 20
1011.730970191961
 30
0.0
 10
898.0933555317804
 20
1010.387194785693
 30
0.0
 10
899.8424415409137
 20
1008.789953948382
 30
0.0
 10
901.4805789745077
 20
1006.951365207932
 30
0.0
 10
902.9935475925852
 20
1004.884779312902
 30
0.0
 10
904.3652805391854
 20
1002.606363228452
 30
0.0
 10
905.5792993668216
 20
1000.135739517916
 30
0.0
 10
906.6193122419306
 20
997.4960389063391
 30
0.0
 10
907.4721251527935
 20
994.7137346950555
 30
0.0
 10
908.121133150024
 20
991.8173204879145
 30
0.0
 10
908.5305425838282
 20
989.1234164180514
 30
0.0
 10
908.6591380444613
 20
987.395052032055
 30
0.0
 10
908.7127061298269
 20
986.675079721089
 30
0.0
  0
SPLINE
  5
C2
330
1F
100
AcDbEntity
  8
0
  6
Continuous
 62
     7
370
    15
100
AcDbSpline
210
0.0
220
0.0
230
1.0
 70
     8
 71
     3
 72
    27
 73
    23
 74
     0
 42
0.000000001
 43
0.00000001
 40
0.0
 40
0.0
 40
0.0
 40
0.0
 40
0.0240478677741983
 40
0.0778591011603348
 40
0.1317207893668554
 40
0.1856210312409549
 40
0.2395575708369621
 40
0.2935173378705355
 40
0.3474778636165042
 40
0.401405953183387
 40
0.4552560176566557
 40
0.5089708594670201
 40
0.5624847542261943
 40
0.615729153581601
 40
0.6686406358021061
 40
0.7211698739193664
 40
0.7732897908026917
 40
0.8250011094944896
 40
0.8763342209908646
 40
0.9273473044000625
 40
0.978121442939712
 40
0.9999999999999999
 40
0.9999999999999999
 40
0.9999999999999999
 40
0.9999999999999999
 10
928.6445143568985
 20
988.2874034158623
 30
0.0
 10
928.6023497778401
 20
988.8827092134565
 30
0.0
 10
928.4658347130897
 20
990.81011395268
 30
0.0
 10
928.0380201631443
 20
994.0456114558843
 30
0.0
 10
927.278301127249
 20
997.9547560815647
 30
0.0
 10
926.2605752443682
 20
1001.780788105461
 30
0.0
 10
924.9963832164105
 20
1005.499630186438
 30
0.0
 10
923.4898640778073
 20
1009.086864190979
 30
0.0
 10
921.7491583877004
 20
1012.518366415998
 30
0.0
 10
919.7836024759506
 20
1015.770261861829
 30
0.0
 10
917.6047544024796
 20
1018.819203744338
 30
0.0
 10
915.2263830180243
 20
1021.64269133019
 30
0.0
 10
912.6646244330802
 20
1024.219560569095
 30
0.0
 10
909.9379014862723
 20
1026.530554181976
 30
0.0
 10
907.0666525239601
 20
1028.558929544616
 30
0.0
 10
904.0728552827189
 20
1030.290864257283
 30
0.0
 10
900.9793926010235
 20
1031.716019312784
 30
0.0
 10
897.8094461034319
 20
1032.826488261962
 30
0.0
 10
894.5857213197241
 20
1033.620468259677
 30
0.0
 10
891.3307200770824
 20
1034.087369858921
 30
0.0
 10
888.6801802616006
 20
1034.228099733552
 30
0.0
 10
887.1248021536773
 20
1034.168962531614
 30
0.0
 10
886.6564172107164
 20
1034.151154016233
 30
0.0
  0
LINE
  5
C3
330
1F
100
AcDbEntity
  8
0
  6
Continuous
 62
     7
370
    15
100
AcDbLine
 10
856.6663411723
 20
1032.8424858945
 30
0.0
 11
735.9276038789
 21
1027.5402343963
 31
0.0
  0
LINE
  5
C4
330
1F
100
AcDbEntity
  8
0
  6
Continuous
 62
     7
370
    15
100
AcDbLine
 10
886.656653615
 20
1034.159512912
 30
0.0
 11
860.315901349
 21
1033.0027566273
 31
0.0
  0
LINE
  5
C5
330
1F
100
AcDbEntity
  8
0
  6
Continuous
 62
     7
370
    15
100
AcDbLine
 10
861.1875276684
 20
1013.0217581135
 30
0.0
 11
887.5341095794
 21
1014.1787704075
 31
0.0
  0
LINE
  5
C6
330
1F
100
AcDbEntity
  8
0
  6
Continuous
 62
     7
370
    15
100
AcDbLine
 10
736.8050598433
 20
1007.5594918918
 30
0.0
 11
857.5541971754
 21
1012.8622001085
 31
0.0
  0
SPLINE
  5
C7
330
1F
100
AcDbEntity
  8
0
  6
Continuous
 62
     7
370
    15
100
AcDbSpline
210
0.0
220
0.0
230
1.0
 70
     8
 71
     3
 72
    17
 73
    13
 74
     0
 42
0.000000001
 43
0.00000001
 40
0.0
 40
0.0
 40
0.0
 40
0.0
 40
0.0467507567916748
 40
0.1284001007216509
 40
0.2236952780699933
 40
0.3316716419809611
 40
0.4499336937848955
 40
0.5756520357377984
 40
0.70639646046662
 40
0.8404211003713776
 40
0.9765810952783134
 40
0.9999999999999999
 40
0.9999999999999999
 40
0.9999999999999999
 40
0.9999999999999999
 10
725.3352559305437
 20
1006.669106109804
 30
0.0
 10
725.336060863839
 20
1006.669340186225
 30
0.0
 10
725.3382715984511
 20
1006.669983072845
 30
0.0
 10
725.6237139866472
 20
1006.722707095311
 30
0.0
 10
726.1805870401525
 20
1006.803769345604
 30
0.0
 10
727.0713201687109
 20
1006.911499867125
 30
0.0
 10
728.296365024259
 20
1007.033649440759
 30
0.0
 10
729.8585064561431
 20
1007.163612265875
 30
0.0
 10
731.7366094133556
 20
1007.294669151546
 30
0.0
 10
733.9091626426073
 20
1007.421857616491
 30
0.0
 10
735.6538948919568
 20
1007.508789048263
 30
0.0
 10
736.6595058746136
 20
1007.552918665268
 30
0.0
 10
736.8070837050456
 20
1007.559394880472
 30
0.0
  0
SPLINE
  5
C8
330
1F
100
AcDbEntity
  8
0
  6
Continuous
 62
     7
370
    15
100
AcDbSpline
210
0.0
220
0.0
230
1.0
 70
     8
 71
     3
 72
    43
 73
    39
 74
     0
 42
0.000000001
 43
0.00000001
 40
0.0
 40
0.0
 40
0.0
 40
0.0
 40
0.0184179822855122
 40
0.0628822175517429
 40
0.1076335698227419
 40
0.1529426785712459
 40
0.1992094145765592
 40
0.2473316250363342
 40
0.2999235676125125
 40
0.3344838661299047
 40
0.3589654055058809
 40
0.378373230069826
 40
0.396504989805185
 40
0.4144357752272788
 40
0.4328612005803169
 40
0.4522474891841345
 40
0.4723528232048292
 40
0.4929004799648999
 40
0.5137064046252462
 40
0.5346459907847546
 40
0.5572618343694752
 40
0.578620073714973
 40
0.5988841092545202
 40
0.618225242788689
 40
0.6367291386475673
 40
0.6544269726596658
 40
0.6713485055337064
 40
0.687728430364476
 40
0.7042886736212053
 40
0.7219478341298057
 40
0.7422893923938012
 40
0.7678927595285059
 40
0.8041199472629765
 40
0.8577328959323073
 40
0.9044284632101086
 40
0.9488912545312507
 40
0.9920913139626227
 40
1.0
 40
1.0
 40
1.0
 40
1.0
 10
735.9319222437242
 20
1027.539929193513
 30
0.0
 10
735.5416764625057
 20
1027.52258354523
 30
0.0
 10
734.2093090113468
 20
1027.463362463787
 30
0.0
 10
732.0791816687016
 20
1027.351835542757
 30
0.0
 10
729.6276538366621
 20
1027.200085006434
 30
0.0
 10
727.3883737385328
 20
1027.032204707558
 30
0.0
 10
725.3452906888688
 20
1026.844789868054
 30
0.0
 10
723.4517798514848
 20
1026.625462575679
 30
0.0
 10
721.9068844637521
 20
1026.388628995556
 30
0.0
 10
720.6337669377946
 20
1026.121128940195
 30
0.0
 10
719.6264006787791
 20
1025.84292619217
 30
0.0
 10
718.6923139505438
 20
1025.513145790414
 30
0.0
 10
717.7242234533588
 20
1025.079416733034
 30
0.0
 10
716.678939964489
 20
1024.477799261109
 30
0.0
 10
715.5939570710392
 20
1023.665719357315
 30
0.0
 10
714.5388940219578
 20
1022.622522946121
 30
0.0
 10
713.5940653122228
 20
1021.355012905145
 30
0.0
 10
712.8335148559246
 20
1019.900225949296
 30
0.0
 10
712.3094555048725
 20
1018.307943559355
 30
0.0
 10
712.0470355118149
 20
1016.589947232512
 30
0.0
 10
712.0866889220124
 20
1014.83423764095
 30
0.0
 10
712.4283804789532
 20
1013.134404368082
 30
0.0
 10
713.0113708606096
 20
1011.604191956362
 30
0.0
 10
713.780581409258
 20
1010.261798743618
 30
0.0
 10
714.6818904000431
 20
1009.118299644362
 30
0.0
 10
715.6577588633747
 20
1008.179201977604
 30
0.0
 10
716.6490784609838
 20
1007.439200024122
 30
0.0
 10
717.6073817724872
 20
1006.876416597069
 30
0.0
 10
718.5067092228355
 20
1006.456694054399
 30
0.0
 10
719.3592057824742
 20
1006.138009917182
 30
0.0
 10
720.2181596549791
 20
1005.880215461774
 30
0.0
 10
721.1988294757261
 20
1005.645973772391
 30
0.0
 10
722.4968440008174
 20
1005.405849951493
 30
0.0
 10
724.1158883380673
 20
1005.183179597884
 30
0.0
 10
726.0730779434609
 20
1004.976333564509
 30
0.0
 10
728.127498064528
 20
1004.801846768892
 30
0.0
 10
729.7449007100785
 20
1004.686859721156
 30
0.0
 10
730.672358124533
 20
1004.629017438362
 30
0.0
 10
730.8158750400175
 20
1004.620066789112
 30
0.0
  0
LINE
  5
C9
330
1F
100
AcDbEntity
  8
0
  6
Continuous
 62
     7
370
    15
100
AcDbLine
 10
844.7966128047
 20
997.5106530057
 30
0.0
 11
891.4055344093
 21
994.6035816747
 31
0.0
  0
LINE
  5
CA
330
1F
100
AcDbEntity
  8
0
  6
Continuous
 62
     7
370
    15
100
AcDbLine
 10
730.8135518806
 20
1004.6199547707
 30
0.0
 11
841.7894204773
 21
997.698216294
 31
0.0
  0
SPLINE
  5
CB
330
1F
100
AcDbEntity
  8
0
  6
Continuous
 62
     7
370
    15
100
AcDbSpline
210
0.0
220
0.0
230
1.0
 70
     8
 71
     3
 72
    23
 73
    19
 74
     0
 42
0.000000001
 43
0.00000001
 40
0.0
 40
0.0
 40
0.0
 40
0.0
 40
0.0325724592342959
 40
0.1113146836940657
 40
0.181944080208909
 40
0.2480537334333763
 40
0.31826479245934
 40
0.3855141042556633
 40
0.4512510115734263
 40
0.5163617878498038
 40
0.5813329956575345
 40
0.6463617038224488
 40
0.7116049849753789
 40
0.7771335426377141
 40
0.8429580330030435
 40
0.9090518907447653
 40
0.9753657244362677
 40
1.0
 40
1.0
 40
1.0
 40
1.0
 10
891.4055344093141
 20
994.6035816746825
 30
0.0
 10
891.5653455197357
 20
994.5900611452271
 30
0.0
 10
892.1114916697524
 20
994.543855439699
 30
0.0
 10
893.0410404300932
 20
994.3338766561236
 30
0.0
 10
894.2420481031361
 20
993.8632738317898
 30
0.0
 10
895.4912013793281
 20
993.1618908678473
 30
0.0
 10
896.7962459168767
 20
992.1958185087924
 30
0.0
 10
898.1405071697799
 20
990.9327105097109
 30
0.0
 10
899.4524519140052
 20
989.4169667587662
 30
0.0
 10
900.7151868206815
 20
987.6512834630878
 30
0.0
 10
901.9081274953141
 20
985.6444209720504
 30
0.0
 10
903.0098023356215
 20
983.4112123418782
 30
0.0
 10
903.9998096463991
 20
980.9715938920422
 30
0.0
 10
904.8597222365424
 20
978.3487570216595
 30
0.0
 10
905.5741569666225
 20
975.5696818999104
 30
0.0
 10
906.1272897694397
 20
972.6640329267481
 30
0.0
 10
906.4356700390647
 20
970.2961057430629
 30
0.0
 10
906.5501709491095
 20
968.9071617361782
 30
0.0
 10
906.581184754602
 20
968.5309512828946
 30
0.0
  0
LINE
  5
CC
330
1F
100
AcDbEntity
  8
0
  6
Continuous
 62
     7
370
    15
100
AcDbLine
 10
974.8841688275
 20
330.3332941782
 30
0.0
 11
956.0093260425
 21
580.0099795355
 31
0.0
  0
LINE
  5
CD
330
1F
100
AcDbEntity
  8
0
  6
Continuous
 62
     7
370
    15
100
AcDbLine
 10
953.6269948184
 20
611.5234904153
 30
0.0
 11
953.0110008086
 21
619.6718678256
 31
0.0
  0
LINE
  5
CE
330
1F
100
AcDbEntity
  8
0
  6
Continuous
 62
     7
370
    15
100
AcDbLine
 10
906.5811847546
 20
968.5309512829
 30
0.0
 11
933.0607721204
 21
618.2585978411
 31
0.0
  0
SPLINE
  5
CF
330
1F
100
AcDbEntity
  8
0
  6
Continuous
 62
     7
370
    15
100
AcDbSpline
210
0.0
220
0.0
230
1.0
 70
     8
 71
     3
 72
    32
 73
    28
 74
     0
 42
0.000000001
 43
0.00000001
 40
0.0
 40
0.0
 40
0.0
 40
0.0
 40
0.0237265076570719
 40
0.0652172950668888
 40
0.1067128445539276
 40
0.1482074231249809
 40
0.1896996274021049
 40
0.2311880660638964
 40
0.2726713712845577
 40
0.3141482130263623
 40
0.3556173148766587
 40
0.3970774714406979
 40
0.4385275671574578
 40
0.4799665962506536
 40
0.5213936833705103
 40
0.5628081043331841
 40
0.6042093062346711
 40
0.6455969261155343
 40
0.6869708072916495
 40
0.7283310124528202
 40
0.7696778326713647
 40
0.811011791559096
 40
0.8523336439611986
 40
0.8936443687746485
 40
0.9349451557157888
 40
0.976237386124429
 40
1.0
 40
1.0
 40
1.0
 40
1.0
 10
616.7245541363803
 20
1370.231722490457
 30
0.0
 10
615.732362735511
 20
1370.221577161559
 30
0.0
 10
613.0051160505548
 20
1370.19369059191
 30
0.0
 10
608.5492458207107
 20
1369.897608852819
 30
0.0
 10
603.3818612023127
 20
1369.259856293826
 30
0.0
 10
598.2634820468539
 20
1368.311071904298
 30
0.0
 10
593.2134257879069
 20
1367.060381785217
 30
0.0
 10
588.2504505372125
 20
1365.510909716252
 30
0.0
 10
583.393026927279
 20
1363.66880743057
 30
0.0
 10
578.6592231529186
 20
1361.540815781002
 30
0.0
 10
574.0666469631068
 20
1359.134887100059
 30
0.0
 10
569.6323743240357
 20
1356.459981695801
 30
0.0
 10
565.3728840523474
 20
1353.52607992112
 30
0.0
 10
561.3039936980164
 20
1350.34413092059
 30
0.0
 10
557.4407985131389
 20
1346.926012918436
 30
0.0
 10
553.7976131893884
 20
1343.284485254596
 30
0.0
 10
550.3879181010997
 20
1339.433137653112
 30
0.0
 10
547.2243056503746
 20
1335.386336077995
 30
0.0
 10
544.3184446452835
 20
1331.159164128214
 30
0.0
 10
541.6809972326546
 20
1326.767366983335
 30
0.0
 10
539.3217337389594
 20
1322.227273363489
 30
0.0
 10
537.2489309786047
 20
1317.555789244582
 30
0.0
 10
535.4714656141554
 20
1312.770115806223
 30
0.0
 10
533.9908760194226
 20
1307.888490190086
 30
0.0
 10
532.8308692330543
 20
1302.927106737406
 30
0.0
 10
532.0549829130707
 20
1298.620774962163
 30
0.0
 10
531.7934171729748
 20
1295.960712984806
 30
0.0
 10
531.6978749308348
 20
1294.989070882692
 30
0.0
  0
SPLINE
  5
D0
330
1F
100
AcDbEntity
  8
0
  6
Continuous
 62
     7
370
    15
100
AcDbSpline
210
0.0
220
0.0
230
1.0
 70
     8
 71
     3
 72
    33
 73
    29
 74
     0
 42
0.000000001
 43
0.00000001
 40
0.0
 40
0.0
 40
0.0
 40
0.0
 40
0.0000342984305615
 40
0.0414862814508885
 40
0.0829397405680448
 40
0.1243965320092506
 40
0.1658584358615608
 40
0.2073271212155034
 40
0.2488041151738529
 40
0.2902907765566521
 40
0.3317882748933428
 40
0.373297575033996
 40
0.4148194274505664
 40
0.4563543640517764
 40
0.4979026991157334
 40
0.5394645347644451
 40
0.581039770271669
 40
0.6226281144144687
 40
0.6642291000501165
 40
0.7058421001203394
 40
0.747466344348406
 40
0.7891009359935067
 40
0.8307448681516446
 40
0.8723970392328833
 40
0.914056267392074
 40
0.9557213038348102
 40
0.9952022388844047
 40
1.0
 40
1.0
 40
1.0
 40
1.0
 10
891.7333769661421
 20
1295.51884340886
 30
0.0
 10
891.733266915402
 20
1295.520241863989
 30
0.0
 10
891.6001530700734
 20
1297.211768330885
 30
0.0
 10
891.0475351033782
 20
1300.566708731434
 30
0.0
 10
890.0532775544552
 20
1305.557612559945
 30
0.0
 10
888.7122387056511
 20
1310.47485754129
 30
0.0
 10
887.078881855118
 20
1315.30463390662
 30
0.0
 10
885.1459393176008
 20
1320.028044840413
 30
0.0
 10
882.9240575442795
 20
1324.628023926929
 30
0.0
 10
880.4204243479976
 20
1329.087558202523
 30
0.0
 10
877.6444645280553
 20
1333.390240295674
 30
0.0
 10
874.6062764941939
 20
1337.520195191277
 30
0.0
 10
871.3170100485155
 20
1341.462173231411
 30
0.0
 10
867.788719273582
 20
1345.20159687495
 30
0.0
 10
864.0343514612695
 20
1348.724617814672
 30
0.0
 10
860.067694904546
 20
1352.018168874956
 30
0.0
 10
855.9033331037845
 20
1355.070014473676
 30
0.0
 10
851.5565927826327
 20
1357.868798101937
 30
0.0
 10
847.0434892606161
 20
1360.404087224853
 30
0.0
 10
842.3806686288314
 20
1362.666413619166
 30
0.0
 10
837.585346704395
 20
1364.647314914986
 30
0.0
 10
832.6752469561918
 20
1366.339354680498
 30
0.0
 10
827.6685303606064
 20
1367.736204620711
 30
0.0
 10
822.5837449774614
 20
1368.832476078228
 30
0.0
 10
817.4396929478058
 20
1369.624467982693
 30
0.0
 10
812.3463702784574
 20
1370.099016501576
 30
0.0
 10
808.7679459680305
 20
1370.227195309686
 30
0.0
 10
806.9243180642802
 20
1370.231279908961
 30
0.0
 10
806.7245541363803
 20
1370.231722490457
 30
0.0
  0
LINE
  5
D1
330
1F
100
AcDbEntity
  8
0
  6
Continuous
 62
     7
370
    15
100
AcDbLine
 10
892.2245541364
 20
1284.3147523149
 30
0.0
 11
892.2245541364
 21
1286.5642628583
 31
0.0
  0
LINE
  5
D2
330
1F
100
AcDbEntity
  8
0
  6
Continuous
 62
     7
370
    15
100
AcDbLine
 10
531.2245541364
 20
1286.5642628583
 30
0.0
 11
531.2245541364
 21
1284.3147523149
 31
0.0
  0
LINE
  5
D3
330
1F
100
AcDbEntity
  8
0
  6
Continuous
 62
     7
370
    15
100
AcDbLine
 10
616.7245541364
 20
1200.9548519053
 30
0.0
 11
806.7245541364
 21
1200.9548519053
 31
0.0
  0
SPLINE
  5
D4
330
1F
100
AcDbEntity
  8
0
  6
Continuous
 62
     7
370
    15
100
AcDbSpline
210
0.0
220
0.0
230
1.0
 70
     8
 71
     3
 72
    20
 73
    16
 74
     0
 42
0.000000001
 43
0.00000001
 40
0.0
 40
0.0
 40
0.0
 40
0.0
 40
0.0226482747051263
 40
0.1103681061249738
 40
0.19809246939297
 40
0.2858211742141682
 40
0.3735539782316233
 40
0.4612905935654782
 40
0.5490306931190053
 40
0.6367739164815194
 40
0.7245198753184929
 40
0.8122681581968213
 40
0.9000183348470704
 40
0.9831575950650637
 40
1.0
 40
1.0
 40
1.0
 40
1.0
 10
562.1227588640073
 20
1220.205421384434
 30
0.0
 10
562.4610903673494
 20
1219.920053951938
 30
0.0
 10
564.1098255470682
 20
1218.529419853561
 30
0.0
 10
567.269419134709
 20
1216.270394553922
 30
0.0
 10
571.5893605449878
 20
1213.45111177113
 30
0.0
 10
576.0923307191671
 20
1210.912308628501
 30
0.0
 10
580.7412077934127
 20
1208.639722892408
 30
0.0
 10
585.5243072795821
 20
1206.648103860244
 30
0.0
 10
590.422483843889
 20
1204.943141013443
 30
0.0
 10
595.4180330620583
 20
1203.531555721971
 30
0.0
 10
600.4923767540334
 20
1202.418642604241
 30
0.0
 10
605.6268210315493
 20
1201.607869713574
 30
0.0
 10
610.7115708793976
 20
1201.11363282711
 30
0.0
 10
614.4177771763949
 20
1200.963184676995
 30
0.0
 10
616.3919884962232
 20
1200.956053232352
 30
0.0
 10
616.7245541363816
 20
1200.954851905307
 30
0.0
  0
SPLINE
  5
D5
330
1F
100
AcDbEntity
  8
0
  6
Continuous
 62
     7
370
    15
100
AcDbSpline
210
0.0
220
0.0
230
1.0
 70
     8
 71
     3
 72
    20
 73
    16
 74
     0
 42
0.000000001
 43
0.00000001
 40
0.0
 40
0.0
 40
0.0
 40
0.0
 40
0.0444904695508146
 40
0.1281390176189868
 40
0.2117968573050118
 40
0.2954542999177065
 40
0.3791108914278606
 40
0.4627661837550329
 40
0.5464197354505593
 40
0.6300711157879649
 40
0.7137199094643489
 40
0.7973657219488761
 40
0.8810081854680634
 40
0.9646469655630255
 40
0.9999999999999999
 40
0.9999999999999999
 40
0.9999999999999999
 40
0.9999999999999999
 10
806.7245541363816
 20
1200.954851905307
 30
0.0
 10
807.6460821221453
 20
1200.963613571423
 30
0.0
 10
810.3002166367139
 20
1200.988848443076
 30
0.0
 10
814.6813455756054
 20
1201.267607911917
 30
0.0
 10
819.8429570551677
 20
1201.889176751314
 30
0.0
 10
824.9563827283232
 20
1202.819661448414
 30
0.0
 10
830.0024039360782
 20
1204.050276603445
 30
0.0
 10
834.9624107215835
 20
1205.577878967502
 30
0.0
 10
839.8179683202178
 20
1207.396527986203
 30
0.0
 10
844.5514291604258
 20
1209.49926388241
 30
0.0
 10
849.1441370759934
 20
1211.879536433293
 30
0.0
 10
853.5833985537872
 20
1214.523861139234
 30
0.0
 10
857.8367854454456
 20
1217.439937093856
 30
0.0
 10
861.1571755670238
 20
1219.952945625093
 30
0.0
 10
862.9788437404897
 20
1221.57298687634
 30
0.0
 10
863.5200700250252
 20
1222.054308842645
 30
0.0
  0
LINE
  5
D6
330
1F
100
AcDbEntity
  8
0
  6
Continuous
 62
     7
370
    15
100
AcDbLine
 10
806.7245541364
 20
1370.2317224905
 30
0.0
 11
616.7245541364
 21
1370.2317224905
 31
0.0
  0
SPLINE
  5
D7
330
1F
100
AcDbEntity
  8
0
  6
Continuous
 62
     7
370
    15
100
AcDbSpline
210
0.0
220
0.0
230
1.0
 70
     8
 71
     3
 72
    20
 73
    16
 74
     0
 42
0.000000001
 43
0.00000001
 40
0.0
 40
0.0
 40
0.0
 40
0.0
 40
0.082073974450199
 40
0.1644601964552102
 40
0.2468506747594
 40
0.3292452306383025
 40
0.41164363647094
 40
0.4940456218813639
 40
0.5764508796612215
 40
0.6588590713138021
 40
0.7412698321163902
 40
0.8236827756521727
 40
0.9060974978132754
 40
0.9841816600692141
 40
1.0
 40
1.0
 40
1.0
 40
1.0
 10
559.2080030360474
 20
1221.736858160851
 30
0.0
 10
560.5054022025564
 20
1220.626276554536
 30
0.0
 10
563.1051364451615
 20
1218.400888173168
 30
0.0
 10
567.261929446203
 20
1215.361734718038
 30
0.0
 10
571.5913675520151
 20
1212.553680588172
 30
0.0
 10
576.0917929048627
 20
1210.01186851308
 30
0.0
 10
580.741351909932
 20
1207.740089074767
 30
0.0
 10
585.5242686613028
 20
1205.748253981593
 30
0.0
 10
590.4224941922143
 20
1204.043349031668
 30
0.0
 10
595.4180302890275
 20
1202.631748225837
 30
0.0
 10
600.4923774973481
 20
1201.518839265744
 30
0.0
 10
605.6268208314214
 20
1200.708065259574
 30
0.0
 10
610.711570932053
 20
1200.213828671995
 30
0.0
 10
614.4177771743695
 20
1200.063380457226
 30
0.0
 10
616.3919884959308
 20
1200.056249014632
 30
0.0
 10
616.7245541363816
 20
1200.055047687931
 30
0.0
  0
LINE
  5
D8
330
1F
100
AcDbEntity
  8
0
  6
Continuous
 62
     7
370
    15
100
AcDbLine
 10
616.7245541364
 20
1200.0550476879
 30
0.0
 11
806.7245541364
 21
1200.0550476879
 31
0.0
  0
SPLINE
  5
D9
330
1F
100
AcDbEntity
  8
0
  6
Continuous
 62
     7
370
    15
100
AcDbSpline
210
0.0
220
0.0
230
1.0
 70
     8
 71
     3
 72
    19
 73
    15
 74
     0
 42
0.000000001
 43
0.00000001
 40
0.0
 40
0.0
 40
0.0
 40
0.0
 40
0.0465386545408854
 40
0.1340380880306815
 40
0.2215472408917888
 40
0.3090559783997047
 40
0.3965638256233039
 40
0.4840703138540983
 40
0.5715749813206781
 40
0.6590773774674433
 40
0.7465770678723852
 40
0.8340736398418693
 40
0.9215667086714124
 40
1.0
 40
1.0
 40
1.0
 40
1.0
 10
806.7245541363817
 20
1200.055047687931
 30
0.0
 10
807.6460821264586
 20
1200.06380934911
 30
0.0
 10
810.3002166534499
 20
1200.089044206543
 30
0.0
 10
814.6813454354599
 20
1200.36780385497
 30
0.0
 10
819.8429575700683
 20
1200.989371944517
 30
0.0
 10
824.9563808089083
 20
1201.919859428247
 30
0.0
 10
830.0024110987148
 20
1203.150464186795
 30
0.0
 10
834.9623839911046
 20
1204.678105349268
 30
0.0
 10
839.8180680763278
 20
1206.496609575163
 30
0.0
 10
844.5510568809145
 20
1208.599885824003
 30
0.0
 10
849.1455263745593
 20
1210.97814184624
 30
0.0
 10
853.5782139087164
 20
1213.629991932883
 30
0.0
 10
857.7085387929936
 20
1216.418344297603
 30
0.0
 10
860.258324703283
 20
1218.441047798798
 30
0.0
 10
861.4636069799308
 20
1219.397178535526
 30
0.0
  0
SPLINE
  5
DA
330
1F
100
AcDbEntity
  8
0
  6
Continuous
 62
     7
370
    15
100
AcDbSpline
210
0.0
220
0.0
230
1.0
 70
     8
 71
     3
 72
    17
 73
    13
 74
     0
 42
0.000000001
 43
0.00000001
 40
0.0
 40
0.0
 40
0.0
 40
0.0
 40
0.1220428647512281
 40
0.2538436834006109
 40
0.3869805683663716
 40
0.5225873651192129
 40
0.663298697830277
 40
0.7767663066317679
 40
0.8513716752900407
 40
0.916397976133316
 40
0.9762282499467491
 40
0.9999999999999999
 40
0.9999999999999999
 40
0.9999999999999999
 40
0.9999999999999999
 10
950.7689595471649
 20
1028.33566906908
 30
0.0
 10
951.5136046241878
 20
1028.462521397185
 30
0.0
 10
953.0624329769385
 20
1028.726368548593
 30
0.0
 10
955.0502902691973
 20
1029.139453595197
 30
0.0
 10
956.8328572870513
 20
1029.578595593906
 30
0.0
 10
958.3501340222593
 20
1030.048858673336
 30
0.0
 10
959.5373346243649
 20
1030.539670577641
 30
0.0
 10
960.3948229519117
 20
1031.049507896885
 30
0.0
 10
961.0272512265186
 20
1031.609336908694
 30
0.0
 10
961.4640018709077
 20
1032.250531640768
 30
0.0
 10
961.7306389808912
 20
1032.917406620422
 30
0.0
 10
961.6955910143632
 20
1033.321396475823
 30
0.0
 10
961.6856253285862
 20
1033.436268645449
 30
0.0
  0
SPLINE
  5
DB
330
1F
100
AcDbEntity
  8
0
  6
Continuous
 62
     7
370
    15
100
AcDbSpline
210
0.0
220
0.0
230
1.0
 70
     8
 71
     3
 72
    19
 73
    15
 74
     0
 42
0.000000001
 43
0.00000001
 40
0.0
 40
0.0
 40
0.0
 40
0.0
 40
0.0344011733881315
 40
0.0877558277879555
 40
0.1433383437488052
 40
0.2086913556887112
 40
0.2950068973116351
 40
0.4167320535783532
 40
0.5310578810043095
 40
0.6521556258379599
 40
0.7689477903600516
 40
0.8836625316782908
 40
0.9972847006965595
 40
1.0
 40
1.0
 40
1.0
 40
1.0
 10
461.7634829441772
 20
1033.448949049541
 30
0.0
 10
461.7611081838209
 20
1033.253723674311
 30
0.0
 10
461.7550502782226
 20
1032.755712626395
 30
0.0
 10
462.087060512752
 20
1032.06794257321
 30
0.0
 10
462.5513597713265
 20
1031.478243186692
 30
0.0
 10
463.1546889664655
 20
1030.986428548429
 30
0.0
 10
463.9923160778858
 20
1030.503433175191
 30
0.0
 10
465.1369691259396
 20
1030.036008810476
 30
0.0
 10
466.6784716300256
 20
1029.561199078071
 30
0.0
 10
468.5028308895423
 20
1029.114521847638
 30
0.0
 10
470.6390721186007
 20
1028.679636480653
 30
0.0
 10
473.0758360090423
 20
1028.263994060895
 30
0.0
 10
474.8229654805518
 20
1027.988752240765
 30
0.0
 10
475.8411807028655
 20
1027.853636377326
 30
0.0
 10
475.8649456955526
 20
1027.850482793058
 30
0.0
  0
LINE
  5
DC
330
1F
100
AcDbEntity
  8
0
  6
Continuous
 62
     7
370
    15
100
AcDbLine
 10
961.7245541364
 20
1033.4426088475
 30
0.0
 11
961.7245541364
 21
1043.428904195
 31
0.0
  0
LINE
  5
DD
330
1F
100
AcDbEntity
  8
0
  6
Continuous
 62
     7
370
    15
100
AcDbLine
 10
461.7245541364
 20
1043.428904195
 30
0.0
 11
461.7245541364
 21
1033.4426088475
 31
0.0
  0
SPLINE
  5
DE
330
1F
100
AcDbEntity
  8
0
  6
Continuous
 62
     7
370
    15
100
AcDbSpline
210
0.0
220
0.0
230
1.0
 70
     8
 71
     3
 72
    15
 73
    11
 74
     0
 42
0.000000001
 43
0.00000001
 40
0.0
 40
0.0
 40
0.0
 40
0.0
 40
0.0520495257554007
 40
0.1894208782207042
 40
0.323342504583652
 40
0.4551585399809198
 40
0.586413858004045
 40
0.719101239949977
 40
0.8561146221258251
 40
1.0
 40
1.0
 40
1.0
 40
1.0
 10
961.6862353945645
 20
1043.425052724646
 30
0.0
 10
961.6964811325877
 20
1043.673656868099
 30
0.0
 10
961.7337678641418
 20
1044.578387785405
 30
0.0
 10
961.4719910704257
 20
1046.108845058523
 30
0.0
 10
960.9473848797119
 20
1047.906409676626
 30
0.0
 10
960.196114493581
 20
1049.508720899198
 30
0.0
 10
959.3069833094211
 20
1050.897499948144
 30
0.0
 10
958.333311498372
 20
1052.070227916948
 30
0.0
 10
957.3181226752054
 20
1053.057764302579
 30
0.0
 10
956.6709973968351
 20
1053.55428587568
 30
0.0
 10
956.3395190193811
 20
1053.808620192271
 30
0.0
  0
SPLINE
  5
DF
330
1F
100
AcDbEntity
  8
0
  6
Continuous
 62
     7
370
    15
100
AcDbSpline
210
0.0
220
0.0
230
1.0
 70
     8
 71
     3
 72
    15
 73
    11
 74
     0
 42
0.000000001
 43
0.00000001
 40
0.0
 40
0.0
 40
0.0
 40
0.0
 40
0.0871804157415021
 40
0.2325149084275862
 40
0.3698772531188531
 40
0.5032192786225592
 40
0.6348429334379475
 40
0.7658026916508085
 40
0.910825560412337
 40
1.0
 40
1.0
 40
1.0
 40
1.0
 10
467.1457374990401
 20
1053.816657262751
 30
0.0
 10
466.9500249098573
 20
1053.677619217709
 30
0.0
 10
466.4280487944083
 20
1053.306797192645
 30
0.0
 10
465.5208654967828
 20
1052.487299941463
 30
0.0
 10
464.4956913676338
 20
1051.359638408394
 30
0.0
 10
463.5504335719527
 20
1050.02008437111
 30
0.0
 10
462.7398944515681
 20
1048.480952752825
 30
0.0
 10
462.1165842780127
 20
1046.705273247252
 30
0.0
 10
461.755374364204
 20
1044.990442353833
 30
0.0
 10
461.7608050544403
 20
1043.862310313846
 30
0.0
 10
461.7628728781987
 20
1043.432755665435
 30
0.0
  0
LINE
  5
E0
330
1F
100
AcDbEntity
  8
0
  6
Continuous
 62
     7
370
    15
100
AcDbLine
 10
711.7246041364
 20
1087.3283877673
 30
0.0
 11
661.7245541364
 21
1087.3283877673
 31
0.0
  0
LINE
  5
E1
330
1F
100
AcDbEntity
  8
0
  6
Continuous
 62
     7
370
    15
100
AcDbLine
 10
761.7245541364
 20
1087.3283877673
 30
0.0
 11
711.7245041364
 21
1087.3283877673
 31
0.0
  0
SPLINE
  5
E2
330
1F
100
AcDbEntity
  8
0
  6
Continuous
 62
     7
370
    15
100
AcDbSpline
210
0.0
220
0.0
230
1.0
 70
     8
 71
     3
 72
    47
 73
    43
 74
     0
 42
0.000000001
 43
0.00000001
 40
0.0
 40
0.0
 40
0.0
 40
0.0
 40
0.0124799100901199
 40
0.0378794903338372
 40
0.0629193526901473
 40
0.0875176829884166
 40
0.1115673108257089
 40
0.1349380197987419
 40
0.157491283456341
 40
0.1791107807877975
 40
0.1997411888884903
 40
0.2194173058421894
 40
0.238270157939134
 40
0.2565139354379637
 40
0.2744286481842485
 40
0.2923515704705996
 40
0.3105738568196691
 40
0.3295325254873778
 40
0.3498154200245104
 40
0.3722546944929944
 40
0.3982146794468487
 40
0.4304678138373617
 40
0.4769892380655303
 40
0.5126295753928377
 40
0.5450935924950097
 40
0.5755164202126526
 40
0.607503771810474
 40
0.6380353115148674
 40
0.6675994596826687
 40
0.6964966476018338
 40
0.7249102713609097
 40
0.7529613640892633
 40
0.7807344711214276
 40
0.8082912931670779
 40
0.8356785166193407
 40
0.862932606810919
 40
0.8900828991718321
 40
0.9171536845786135
 40
0.9441656766050496
 40
0.9711370890596354
 40
0.9966590854219098
 40
1.0
 40
1.0
 40
1.0
 40
1.0
 10
956.3363715111841
 20
1053.773809427169
 30
0.0
 10
955.5657930520423
 20
1054.356415011101
 30
0.0
 10
953.226904463603
 20
1056.124761291295
 30
0.0
 10
949.1950275871873
 20
1058.844939812894
 30
0.0
 10
944.295273318973
 20
1061.925389957838
 30
0.0
 10
939.3738977556562
 20
1064.73826746214
 30
0.0
 10
934.4815035034633
 20
1067.292195603324
 30
0.0
 10
929.6631547943794
 20
1069.581393633823
 30
0.0
 10
924.9696661826559
 20
1071.608827850838
 30
0.0
 10
920.4472381381479
 20
1073.382925774184
 30
0.0
 10
916.1303787992327
 20
1074.920136069186
 30
0.0
 10
912.0352831380499
 20
1076.243815181939
 30
0.0
 10
908.1577345357844
 20
1077.381825818145
 30
0.0
 10
904.4750432446359
 20
1078.363409445157
 30
0.0
 10
900.9497661943675
 20
1079.21667190288
 30
0.0
 10
897.5394609329496
 20
1079.965680744666
 30
0.0
 10
894.1920450922544
 20
1080.631904556772
 30
0.0
 10
890.8408754296613
 20
1081.234968345007
 30
0.0
 10
887.389649903784
 20
1081.794422648042
 30
0.0
 10
883.6930190739654
 20
1082.330920461135
 30
0.0
 10
879.4898954524235
 20
1082.871646109702
 30
0.0
 10
874.1421774248649
 20
1083.470767694545
 30
0.0
 10
868.2939764831899
 20
1084.01998821427
 30
0.0
 10
862.25342359186
 20
1084.499766537255
 30
0.0
 10
856.8751276413038
 20
1084.872829189841
 30
0.0
 10
851.5011252241022
 20
1085.2027217627
 30
0.0
 10
846.0314213615263
 20
1085.500411239683
 30
0.0
 10
840.4017608933676
 20
1085.771952350442
 30
0.0
 10
834.7655263702374
 20
1086.013564416788
 30
0.0
 10
829.0821254903219
 20
1086.230082468473
 30
0.0
 10
823.3303270729568
 20
1086.424339995713
 30
0.0
 10
817.5008806444856
 20
1086.598045853511
 30
0.0
 10
811.5915422015717
 20
1086.752268301134
 30
0.0
 10
805.6045406664122
 20
1086.887686901645
 30
0.0
 10
799.5451416572604
 20
1087.004736094734
 30
0.0
 10
793.4207621643544
 20
1087.103691476759
 30
0.0
 10
787.2403801103661
 20
1087.184728523813
 30
0.0
 10
781.0141357527931
 20
1087.247947150807
 30
0.0
 10
774.7529726074496
 20
1087.29344061845
 30
0.0
 10
768.5792733793447
 20
1087.320658657777
 30
0.0
 10
764.2319936347502
 20
1087.328106625108
 30
0.0
 10
761.984682895587
 20
1087.328358600816
 30
0.0
 10
761.7245541363816
 20
1087.328387767288
 30
0.0
  0
SPLINE
  5
E3
330
1F
100
AcDbEntity
  8
0
  6
Continuous
 62
     7
370
    15
100
AcDbSpline
210
0.0
220
0.0
230
1.0
 70
     8
 71
     3
 72
    46
 73
    42
 74
     0
 42
0.000000001
 43
0.00000001
 40
0.0
 40
0.0
 40
0.0
 40
0.0
 40
0.0141742914448874
 40
0.0411151492918304
 40
0.0680689721990375
 40
0.0950489117990506
 40
0.1220712547140339
 40
0.1491537664093287
 40
0.1763164458827804
 40
0.2035824778064192
 40
0.230979491314506
 40
0.2585412925076976
 40
0.2863103388582785
 40
0.3143414061217418
 40
0.3427072424333472
 40
0.3715076906743672
 40
0.4008852279238642
 40
0.4310532936100422
 40
0.462352698532088
 40
0.495378364235289
 40
0.5313189689809795
 40
0.5731648398958561
 40
0.6064316441539302
 40
0.6324443569448644
 40
0.6557427244302823
 40
0.6767566410508791
 40
0.6963347708153362
 40
0.7151366277336935
 40
0.7336830593994321
 40
0.7522788075287684
 40
0.7712743133286956
 40
0.7909935560596327
 40
0.8116812123863271
 40
0.8334848707632166
 40
0.8564322357477286
 40
0.8804303716812011
 40
0.9053014744729543
 40
0.930840379335064
 40
0.9568617452465276
 40
0.9832206483326387
 40
1.0
 40
1.0
 40
1.0
 40
1.0
 10
661.7245541363832
 20
1087.328387767288
 30
0.0
 10
660.6209923408525
 20
1087.327896318512
 30
0.0
 10
657.4199076056877
 20
1087.326470780602
 30
0.0
 10
652.1249938899966
 20
1087.310626108225
 30
0.0
 10
645.8584184194768
 20
1087.275067123218
 30
0.0
 10
639.6253673490634
 20
1087.221645030147
 30
0.0
 10
633.4379165534077
 20
1087.150667455345
 30
0.0
 10
627.3073744965408
 20
1087.062036294714
 30
0.0
 10
621.2444182666574
 20
1086.955725029519
 30
0.0
 10
615.2588246397488
 20
1086.83162853924
 30
0.0
 10
609.3591968536455
 20
1086.689571012326
 30
0.0
 10
603.5525914750692
 20
1086.529256491979
 30
0.0
 10
597.8440138631679
 20
1086.35021220289
 30
0.0
 10
592.235694283106
 20
1086.151697793399
 30
0.0
 10
586.7259967807989
 20
1085.932563701367
 30
0.0
 10
581.3076771405406
 20
1085.691017874769
 30
0.0
 10
575.9649047874329
 20
1085.4242186867
 30
0.0
 10
570.667734947046
 20
1085.1275126605
 30
0.0
 10
565.3605935582586
 20
1084.792836357724
 30
0.0
 10
559.9342944719292
 20
1084.404889289877
 30
0.0
 10
554.1370332238896
 20
1083.929075554294
 30
0.0
 10
548.469969493634
 20
1083.382607472833
 30
0.0
 10
543.3001146270889
 20
1082.792626699707
 30
0.0
 10
538.9756803499057
 20
1082.223715315155
 30
0.0
 10
535.1595520660786
 20
1081.655566175477
 30
0.0
 10
531.5422718956848
 20
1081.050951905602
 30
0.0
 10
528.0287232710754
 20
1080.396117269684
 30
0.0
 10
524.5174128565305
 20
1079.669682184118
 30
0.0
 10
520.9355677939811
 20
1078.849292476563
 30
0.0
 10
517.2276325950131
 20
1077.910597648286
 30
0.0
 10
513.3496528634396
 20
1076.826582715166
 30
0.0
 10
509.2609206703032
 20
1075.564936051188
 30
0.0
 10
504.9349515763794
 20
1074.091067712137
 30
0.0
 10
500.3673372955013
 20
1072.372153171276
 30
0.0
 10
495.57916197093
 20
1070.381447339709
 30
0.0
 10
490.6151813245474
 20
1068.102523964387
 30
0.0
 10
485.5364837512554
 20
1065.529506225282
 30
0.0
 10
480.405854111522
 20
1062.66973450349
 30
0.0
 10
475.2902592079847
 20
1059.522490836092
 30
0.0
 10
470.8408479761455
 20
1056.562684410799
 30
0.0
 10
468.1675399410415
 20
1054.562923198623
 30
0.0
 10
467.1277116982779
 20
1053.785082351291
 30
0.0
  0
LINE
  5
E4
330
1F
100
AcDbEntity
  8
0
  6
Continuous
 62
     7
370
    15
100
AcDbLine
 10
709.9430897093
 20
1021.0800895114
 30
0.0
 11
713.4994583106
 21
1021.0800895114
 31
0.0
  0
LINE
  5
E5
330
1F
100
AcDbEntity
  8
0
  6
Continuous
 62
     7
370
    15
100
AcDbLine
 10
977.9502221313
 20
308.6614821821
 30
0.0
 11
980.813587618
 21
308.6614821821
 31
0.0
  0
LINE
  5
E6
330
1F
100
AcDbEntity
  8
0
  6
Continuous
 62
     7
370
    15
100
AcDbLine
 10
977.9026307067
 20
314.6614821821
 30
0.0
 11
980.813587618
 21
314.6614821821
 31
0.0
  0
LINE
  5
E7
330
1F
100
AcDbEntity
  8
0
  6
Continuous
 62
     7
370
    15
100
AcDbLine
 10
970.3510780089
 20
320.6614821821
 30
0.0
 11
973.2297861051
 21
320.6614821821
 31
0.0
  0
LINE
  5
E8
330
1F
100
AcDbEntity
  8
0
  6
Continuous
 62
     7
370
    15
100
AcDbLine
 10
468.654023957
 20
314.6238297532
 30
0.0
 11
475.4988861415
 21
314.6238297532
 31
0.0
  0
LINE
  5
E9
330
1F
100
AcDbEntity
  8
0
  6
Continuous
 62
     7
370
    15
100
AcDbLine
 10
445.4988861415
 20
314.6238297532
 30
0.0
 11
468.654023957
 21
314.6238297532
 31
0.0
  0
LINE
  5
EA
330
1F
100
AcDbEntity
  8
0
  6
Continuous
 62
     7
370
    15
100
AcDbLine
 10
464.5308941901
 20
320.6238297532
 30
0.0
 11
467.9150846286
 21
320.6238297532
 31
0.0
  0
LINE
  5
EB
330
1F
100
AcDbEntity
  8
0
  6
Continuous
 62
     7
370
    15
100
AcDbLine
 10
453.0826876544
 20
320.6238297532
 30
0.0
 11
464.5308941901
 21
320.6238297532
 31
0.0
  0
LINE
  5
EC
330
1F
100
AcDbEntity
  8
0
  6
Continuous
 62
     7
370
    15
100
AcDbLine
 10
468.654023957
 20
308.6238297532
 30
0.0
 11
475.4988861415
 21
308.6238297532
 31
0.0
  0
LINE
  5
ED
330
1F
100
AcDbEntity
  8
0
  6
Continuous
 62
     7
370
    15
100
AcDbLine
 10
445.4988861415
 20
308.6238297532
 30
0.0
 11
468.654023957
 21
308.6238297532
 31
0.0
  0
LINE
  5
EE
330
1F
100
AcDbEntity
  8
0
  6
Continuous
 62
     7
370
    15
100
AcDbLine
 10
442.6355206548
 20
314.6614821821
 30
0.0
 11
445.5464775661
 21
314.6614821821
 31
0.0
  0
LINE
  5
EF
330
1F
100
AcDbEntity
  8
0
  6
Continuous
 62
     7
370
    15
100
AcDbLine
 10
450.2193221677
 20
320.6614821821
 30
0.0
 11
453.0980302639
 21
320.6614821821
 31
0.0
  0
LINE
  5
F0
330
1F
100
AcDbEntity
  8
0
  6
Continuous
 62
     7
370
    15
100
AcDbLine
 10
442.6355206548
 20
308.6614821821
 30
0.0
 11
445.4988861415
 21
308.6614821821
 31
0.0
  0
LINE
  5
F1
330
1F
100
AcDbEntity
  8
0
  6
Continuous
 62
     7
370
    15
100
AcDbLine
 10
962.9502221313
 20
308.6238297532
 30
0.0
 11
977.9502221313
 21
308.6238297532
 31
0.0
  0
LINE
  5
F2
330
1F
100
AcDbEntity
  8
0
  6
Continuous
 62
     7
370
    15
100
AcDbLine
 10
947.9502221313
 20
308.6238297532
 30
0.0
 11
962.9502221313
 21
308.6238297532
 31
0.0
  0
LINE
  5
F3
330
1F
100
AcDbEntity
  8
0
  6
Continuous
 62
     7
370
    15
100
AcDbLine
 10
962.9502221313
 20
314.6238297532
 30
0.0
 11
977.9502221313
 21
314.6238297532
 31
0.0
  0
LINE
  5
F4
330
1F
100
AcDbEntity
  8
0
  6
Continuous
 62
     7
370
    15
100
AcDbLine
 10
947.9502221313
 20
314.6238297532
 30
0.0
 11
962.9502221313
 21
314.6238297532
 31
0.0
  0
LINE
  5
F5
330
1F
100
AcDbEntity
  8
0
  6
Continuous
 62
     7
370
    15
100
AcDbLine
 10
962.9502221313
 20
320.6238297532
 30
0.0
 11
970.3664206184
 21
320.6238297532
 31
0.0
  0
LINE
  5
F6
330
1F
100
AcDbEntity
  8
0
  6
Continuous
 62
     7
370
    15
100
AcDbLine
 10
955.5340236442
 20
320.6238297532
 30
0.0
 11
962.9502221313
 21
320.6238297532
 31
0.0
  0
ARC
  5
F7
330
1F
100
AcDbEntity
  8
0
  6
Continuous
 62
     7
370
    15
100
AcDbCircle
 10
498.1206051111
 20
574.7588303158
 30
0.0
 40
9.931718093782097
100
AcDbArc
 50
359.622269206
 51
61.3490230883
  0
ARC
  5
F8
330
1F
100
AcDbEntity
  8
0
  6
Continuous
 62
     7
370
    15
100
AcDbCircle
 10
498.0527087706
 20
574.7172554378
 30
0.0
 40
9.999427168495913
100
AcDbArc
 50
241.7091100552
 51
359.8630496705
  0
ARC
  5
F9
330
1F
100
AcDbEntity
  8
0
  6
Continuous
 62
     7
370
    15
100
AcDbCircle
 10
925.3285031617
 20
574.7588303158
 30
0.0
 40
9.9317180937834
100
AcDbArc
 50
118.6509769117
 51
180.377730794
  0
ARC
  5
FA
330
1F
100
AcDbEntity
  8
0
  6
Continuous
 62
     7
370
    15
100
AcDbCircle
 10
925.3963995022
 20
574.7172554378
 30
0.0
 40
9.999427168496041
100
AcDbArc
 50
180.1369503295
 51
298.2908899448
  0
ELLIPSE
  5
FB
330
1F
100
AcDbEntity
  8
0
  6
Continuous
 62
     7
370
    15
100
AcDbEllipse
 10
604.9540647658
 20
1008.3563522532
 30
0.0
 11
7.256517966689785
 21
7.323791841906427
 31
0.0
210
0.0
220
0.0
230
1.0
 40
0.9394888971
 41
3.555440268714186
 42
4.351707468595895
  0
ELLIPSE
  5
FC
330
1F
100
AcDbEntity
  8
0
  6
Continuous
 62
     7
370
    15
100
AcDbEllipse
 10
818.495043507
 20
1008.3563522532
 30
0.0
 11
-7.256517966689898
 21
7.323791841906427
 31
0.0
210
0.0
220
0.0
230
1.0
 40
0.9394888971
 41
1.931477838583695
 42
2.727745038465404
  0
ELLIPSE
  5
FD
330
1F
100
AcDbEntity
  8
0
  6
Continuous
 62
     7
370
    15
100
AcDbEllipse
 10
604.9540647658
 20
1009.9847581358
 30
0.0
 11
7.256517966689786
 21
7.323791841906655
 31
0.0
210
0.0
220
0.0
230
1.0
 40
0.9394888971
 41
2.382777541860118
 42
5.52437019544995
  0
ELLIPSE
  5
FE
330
1F
100
AcDbEntity
  8
0
  6
Continuous
 62
     7
370
    15
100
AcDbEllipse
 10
604.9540647658
 20
1020.4733548283
 30
0.0
 11
7.256517966689784
 21
-7.18986204654118
 31
0.0
210
0.0
220
0.0
230
1.0
 40
0.9569893102
 41
5.10564479486218
 42
5.836763389366574
  0
ELLIPSE
  5
FF
330
1F
100
AcDbEntity
  8
0
  6
Continuous
 62
     7
370
    15
100
AcDbEllipse
 10
818.495043507
 20
1009.9847581358
 30
0.0
 11
-7.256517966689899
 21
7.323791841906655
 31
0.0
210
0.0
220
0.0
230
1.0
 40
0.9394888971
 41
0.7588151117296471
 42
3.900407765319478
  0
ELLIPSE
  5
100
330
1F
100
AcDbEntity
  8
0
  6
Continuous
 62
     7
370
    15
100
AcDbEllipse
 10
818.495043507
 20
1020.4733548283
 30
0.0
 11
7.256517966689898
 21
7.18986204654118
 31
0.0
210
0.0
220
0.0
230
1.0
 40
0.9569893102
 41
3.588014571402852
 42
4.319133165907242
  0
LWPOLYLINE
  5
101
330
1F
100
AcDbEntity
  8
0
  6
Continuous
 62
     7
370
    15
100
AcDbPolyline
 90
       19
 70
   128
 43
0.0
 10
451.310761614
 20
330.2390951881
 10
451.345292879
 20
330.2806126848
 10
451.6821391726
 20
330.3618658665
 10
452.3662018033
 20
330.4148413585
 10
453.3727569654
 20
330.4376244884
 10
454.6654251326
 20
330.4293918146
 10
456.1974859095
 20
330.3904408874
 10
457.9135666277
 20
330.3221794947
 10
459.7516436591
 20
330.2270747812
 10
461.6452841104
 20
330.108564079
 10
463.5260468822
 20
329.9709306735
 10
465.3259563073
 20
329.8191489949
 10
466.9799589698
 20
329.6587048282
 10
468.4282749037
 20
329.4953970438
 10
469.6185581979
 20
329.3351280105
 10
470.5077889126
 20
329.1836902687
 10
471.0638279331
 20
329.046557173
 10
471.2665785604
 20
328.9286850707
 10
471.2672310301
 20
328.9202823683
  0
SPLINE
  5
102
330
1F
100
AcDbEntity
  8
0
  6
Continuous
 62
     7
370
    15
100
AcDbSpline
210
0.0
220
0.0
230
1.0
 70
     8
 71
     3
 72
     9
 73
     5
 74
     0
 42
0.000000001
 43
0.00000001
 40
0.0
 40
0.0
 40
0.0
 40
0.0
 40
0.5706425577715246
 40
1.0
 40
1.0
 40
1.0
 40
1.0
 10
564.5156655125851
 20
1032.864701177615
 30
0.0
 10
564.2310154321135
 20
1032.901245165446
 30
0.0
 10
563.7321916472504
 20
1032.965285232792
 30
0.0
 10
563.3129013460543
 20
1032.987420180195
 30
0.0
 10
563.1328759347816
 20
1032.996923984596
 30
0.0
  0
SPLINE
  5
103
330
1F
100
AcDbEntity
  8
0
  6
Continuous
 62
     7
370
    15
100
AcDbSpline
210
0.0
220
0.0
230
1.0
 70
     8
 71
     3
 72
    16
 73
    12
 74
     0
 42
0.000000001
 43
0.00000001
 40
0.0
 40
0.0
 40
0.0
 40
0.0
 40
0.0323395846602587
 40
0.1574535052621965
 40
0.2792632355154593
 40
0.4009263130444615
 40
0.5257090079820269
 40
0.6523527084166918
 40
0.7764870976557754
 40
0.8976005184819255
 40
1.0
 40
1.0
 40
1.0
 40
1.0
 10
565.5867124215828
 20
1032.744814742375
 30
0.0
 10
565.6550793483761
 20
1032.754047180671
 30
0.0
 10
565.9879411454807
 20
1032.798997658145
 30
0.0
 10
566.4565071386941
 20
1032.843405515541
 30
0.0
 10
566.8909144869787
 20
1032.847633616718
 30
0.0
 10
567.0592042352985
 20
1032.798929606288
 30
0.0
 10
566.9543179526178
 20
1032.731356688031
 30
0.0
 10
566.5729203309378
 20
1032.687404740727
 30
0.0
 10
565.9618595905928
 20
1032.702027199676
 30
0.0
 10
565.2433455323167
 20
1032.772864848716
 30
0.0
 10
564.7442976862035
 20
1032.835846820034
 30
0.0
 10
564.5156655125851
 20
1032.864701177615
 30
0.0
  0
SPLINE
  5
104
330
1F
100
AcDbEntity
  8
0
  6
Continuous
 62
     7
370
    15
100
AcDbSpline
210
0.0
220
0.0
230
1.0
 70
     8
 71
     3
 72
    18
 73
    14
 74
     0
 42
0.000000001
 43
0.00000001
 40
0.0
 40
0.0
 40
0.0
 40
0.0
 40
0.0933323571162983
 40
0.1867454217553447
 40
0.2782211540800136
 40
0.3692919201059097
 40
0.4627898361988909
 40
0.5578510049364264
 40
0.6512134831892192
 40
0.7423489260233432
 40
0.8340294117507024
 40
0.9281880899187379
 40
1.0
 40
1.0
 40
1.0
 40
1.0
 10
564.5156655125851
 20
1013.261794240127
 30
0.0
 10
564.7938485196639
 20
1013.294098801852
 30
0.0
 10
565.3504550877095
 20
1013.358735860104
 30
0.0
 10
566.0933188406024
 20
1013.379663644918
 30
0.0
 10
566.6567803706179
 20
1013.316730066525
 30
0.0
 10
566.9873134388574
 20
1013.187075220371
 30
0.0
 10
567.0529145393867
 20
1013.031609350851
 30
0.0
 10
566.8340012723021
 20
1012.902253454809
 30
0.0
 10
566.3543086410061
 20
1012.843363963425
 30
0.0
 10
565.6798907389635
 20
1012.866507015244
 30
0.0
 10
564.8862986676841
 20
1012.950619520286
 30
0.0
 10
564.0986722574143
 20
1013.056611138619
 30
0.0
 10
563.6432993080817
 20
1013.101577809909
 30
0.0
 10
563.4462692099431
 20
1013.121033923125
 30
0.0
  0
SPLINE
  5
105
330
1F
100
AcDbEntity
  8
0
  6
Continuous
 62
     7
370
    15
100
AcDbSpline
210
0.0
220
0.0
230
1.0
 70
     8
 71
     3
 72
    11
 73
     7
 74
     0
 42
0.000000001
 43
0.00000001
 40
0.0
 40
0.0
 40
0.0
 40
0.0
 40
0.1808644509228262
 40
0.4668385748168747
 40
0.7503898370667696
 40
1.0
 40
1.0
 40
1.0
 40
1.0
 10
562.2618828191581
 20
1013.02974955316
 30
0.0
 10
562.3300817270809
 20
1013.025924940579
 30
0.0
 10
562.5061134503761
 20
1013.016053035527
 30
0.0
 10
563.0568400955626
 20
1013.06649327149
 30
0.0
 10
563.766852102188
 20
1013.162091930609
 30
0.0
 10
564.2768839315806
 20
1013.230001172901
 30
0.0
 10
564.5156655125851
 20
1013.261794240128
 30
0.0
  0
SPLINE
  5
106
330
1F
100
AcDbEntity
  8
0
  6
Continuous
 62
     7
370
    15
100
AcDbSpline
210
0.0
220
0.0
230
1.0
 70
     8
 71
     3
 72
    11
 73
     7
 74
     0
 42
0.000000001
 43
0.00000001
 40
0.0
 40
0.0
 40
0.0
 40
0.0
 40
0.3251239172434502
 40
0.6505143344827005
 40
0.9696157027671753
 40
1.0
 40
1.0
 40
1.0
 40
1.0
 10
579.5252187230786
 20
997.8588467120394
 30
0.0
 10
579.8046984149441
 20
997.8239393709117
 30
0.0
 10
580.3638868846717
 20
997.7540960755468
 30
0.0
 10
581.086766303804
 20
997.6937404447734
 30
0.0
 10
581.5347169213181
 20
997.6831950672863
 30
0.0
 10
581.6495112021668
 20
997.6991369076046
 30
0.0
 10
581.6594914213691
 20
997.7005228918164
 30
0.0
  0
LWPOLYLINE
  5
107
330
1F
100
AcDbEntity
  8
0
  6
Continuous
 62
     7
370
    15
100
AcDbPolyline
 90
       13
 70
   128
 43
0.0
 10
580.595542882
 20
997.7408019605
 10
579.8949333981
 20
997.6454597087
 10
579.0565461768
 20
997.5442324394
 10
578.2626772122
 20
997.4940983439
 10
577.625940441
 20
997.5215392573
 10
577.2047100234
 20
997.619274033
 10
577.0284685725
 20
997.76032525
 10
577.1282031484
 20
997.9013951808
 10
577.5019287849
 20
997.990590186
 10
578.087981343
 20
998.0010780337
 10
578.818813395
 20
997.9427000158
 10
579.5252187231
 20
997.858846712
 10
579.5252187231
 20
997.858846712
  0
LWPOLYLINE
  5
108
330
1F
100
AcDbEntity
  8
0
  6
Continuous
 62
     7
370
    15
100
AcDbPolyline
 90
        6
 70
   128
 43
0.0
 10
451.2627087378
 20
329.5119748899
 10
450.4137187895
 20
329.6688251681
 10
449.4658413364
 20
329.8874385257
 10
448.8458006404
 20
330.0949212338
 10
448.5760065875
 20
330.2837743266
 10
448.5649394453
 20
330.3332941782
  0
ARC
  5
109
330
1F
100
AcDbEntity
  8
0
  6
Continuous
 62
     7
370
    15
100
AcDbCircle
 10
451.3387716673
 20
334.6031283056
 30
0.0
 40
5.091721582228363
100
AcDbArc
 50
236.9908503335
 51
269.1440523849
  0
ARC
  5
10A
330
1F
100
AcDbEntity
  8
0
  6
Continuous
 62
     7
370
    15
100
AcDbCircle
 10
466.0396184488
 20
331.9928821884
 30
0.0
 40
7.542901154876926
100
AcDbArc
 50
267.9517961662
 51
285.8896726309
  0
LWPOLYLINE
  5
10B
330
1F
100
AcDbEntity
  8
0
  6
Continuous
 62
     7
370
    15
100
AcDbPolyline
 90
        9
 70
   128
 43
0.0
 10
448.2646174285
 20
326.3606303236
 10
448.2741397516
 20
326.3142477837
 10
448.537598409
 20
326.1257889093
 10
449.151588521
 20
325.918572781
 10
450.0939188854
 20
325.7000887297
 10
451.3305312275
 20
325.478233338
 10
452.8167311554
 20
325.261025038
 10
454.4988035313
 20
325.0563143036
 10
456.2886545053
 20
324.8740320545
  0
LWPOLYLINE
  5
10C
330
1F
100
AcDbEntity
  8
0
  6
Continuous
 62
     7
370
    15
100
AcDbPolyline
 90
       15
 70
   128
 43
0.0
 10
461.0438133847
 20
326.1459766945
 10
462.9318872996
 20
326.0114008879
 10
464.7510636335
 20
325.8617484896
 10
466.4355926137
 20
325.7024283272
 10
467.9245909739
 20
325.5391986464
 10
469.1642424339
 20
325.3779589932
 10
470.1097427601
 20
325.2245369887
 10
470.7269191071
 20
325.0844777041
 10
470.9934651137
 20
324.9628432466
 10
470.8997471128
 20
324.8640298025
 10
470.4491523171
 20
324.7916087472
 10
469.6579663965
 20
324.7481975663
 10
468.5547848717
 20
324.7353652529
 10
467.1794795972
 20
324.7535756004
 10
465.810765769
 20
324.7938049564
  0
LWPOLYLINE
  5
10D
330
1F
100
AcDbEntity
  8
0
  6
Continuous
 62
     7
370
    15
100
AcDbPolyline
 90
       15
 70
   128
 43
0.0
 10
456.12592794
 20
325.4353995537
 10
454.8431471883
 20
325.5675838895
 10
453.4726164087
 20
325.7305565091
 10
452.3750707439
 20
325.8886029846
 10
451.5901783538
 20
326.0360111045
 10
451.1463072945
 20
326.1674531554
 10
451.0595002225
 20
326.278178479
 10
451.3328945716
 20
326.3641851737
 10
451.9566091576
 20
326.4223647333
 10
452.9081013105
 20
326.4506143971
 10
454.1529816246
 20
326.4479131486
 10
455.6462568819
 20
326.414358618
 10
457.333956224
 20
326.3511635534
 10
459.1550817993
 20
326.260611989
 10
461.0438133847
 20
326.1459766945
  0
LWPOLYLINE
  5
10E
330
1F
100
AcDbEntity
  8
0
  6
Continuous
 62
     7
370
    15
100
AcDbPolyline
 90
        3
 70
   128
 43
0.0
 10
466.6079517587
 20
325.180153188
 10
466.5682772575
 20
325.169919983
 10
466.2374035742
 20
325.1307760781
  0
LWPOLYLINE
  5
10F
330
1F
100
AcDbEntity
  8
0
  6
Continuous
 62
     7
370
    15
100
AcDbPolyline
 90
        3
 70
   128
 43
0.0
 10
455.7740296496
 20
325.8255869949
 10
455.4790987996
 20
325.9016352842
 10
455.4302799318
 20
325.9216753809
  0
LWPOLYLINE
  5
110
330
1F
100
AcDbEntity
  8
0
  6
Continuous
 62
     7
370
    15
100
AcDbPolyline
 90
       10
 70
   128
 43
0.0
 10
461.3071787348
 20
330.1311913588
 10
463.1952526497
 20
329.9966155522
 10
465.0144289836
 20
329.8469631539
 10
466.6989579638
 20
329.6876429915
 10
468.187956324
 20
329.5244133107
 10
469.427607784
 20
329.3631736575
 10
470.3731081102
 20
329.209751653
 10
470.9902844572
 20
329.0696923683
 10
471.2568304638
 20
328.9480579109
 10
471.2672169171
 20
328.9200559974
  0
LWPOLYLINE
  5
111
330
1F
100
AcDbEntity
  8
0
  6
Continuous
 62
     7
370
    15
100
AcDbPolyline
 90
       10
 70
   128
 43
0.0
 10
451.3107474665
 20
330.2388914947
 10
451.3228655726
 20
330.2633931433
 10
451.5962599217
 20
330.349399838
 10
452.2199745077
 20
330.4075793976
 10
453.1714666606
 20
330.4358290614
 10
454.4163469747
 20
330.4331278129
 10
455.909622232
 20
330.3995732823
 10
457.5973215741
 20
330.3363782177
 10
459.4184471494
 20
330.2458266533
 10
461.3071787348
 20
330.1311913588
  0
LWPOLYLINE
  5
112
330
1F
100
AcDbEntity
  8
0
  6
Continuous
 62
     7
370
    15
100
AcDbPolyline
 90
        6
 70
   128
 43
0.0
 10
972.186399535
 20
329.5119748899
 10
973.0981090783
 20
329.6815355006
 10
974.027990121
 20
329.8997212418
 10
974.6284179944
 20
330.1063324041
 10
974.8776916707
 20
330.2939015218
 10
974.8841688275
 20
330.3332941782
  0
ARC
  5
113
330
1F
100
AcDbEntity
  8
0
  6
Continuous
 62
     7
370
    15
100
AcDbCircle
 10
957.7497507591
 20
336.2451930504
 30
0.0
 40
11.79116951576525
100
AcDbArc
 50
259.2406556959
 51
269.7744067288
  0
LWPOLYLINE
  5
114
330
1F
100
AcDbEntity
  8
0
  6
Continuous
 62
     7
370
    15
100
AcDbPolyline
 90
       10
 70
   128
 43
0.0
 10
967.1644591538
 20
324.8744041709
 10
967.2069952622
 20
324.8783654108
 10
969.0200140539
 20
325.0641017389
 10
970.6954353996
 20
325.2694529536
 10
972.1727052066
 20
325.486997127
 10
973.3984310951
 20
325.708871646
 10
974.3283121378
 20
325.9270573871
 10
974.9287400112
 20
326.1336685494
 10
975.1780136875
 20
326.3212376671
 10
975.1844908443
 20
326.3606303236
  0
LINE
  5
115
330
1F
100
AcDbEntity
  8
0
  6
Continuous
 62
     7
370
    15
100
AcDbLine
 10
955.3443501168
 20
324.7381902017
 30
0.0
 11
955.5485250005
 21
324.6613127114
 31
0.0
  0
LWPOLYLINE
  5
116
330
1F
100
AcDbEntity
  8
0
  6
Continuous
 62
     7
370
    15
100
AcDbPolyline
 90
       18
 70
   128
 43
0.0
 10
952.1818913557
 20
328.9200559974
 10
952.2331439336
 20
328.9814536181
 10
952.6038139266
 20
329.1089647333
 10
953.3198739396
 20
329.2534812701
 10
954.355443698
 20
329.4097800244
 10
955.6730950126
 20
329.5722119518
 10
957.2252045319
 20
329.7349063395
 10
958.9556749737
 20
329.8919829882
 10
960.8019626277
 20
330.0377647387
 10
962.6973378475
 20
330.1669826587
 10
964.5732968344
 20
330.2749664758
 10
966.3620375428
 20
330.3578133736
 10
967.998910223
 20
330.4125290493
 10
969.4247540315
 20
330.4371359358
 10
970.5880352581
 20
330.4307446762
 10
971.4467098883
 20
330.3935862672
 10
971.9697431837
 20
330.3270037105
 10
972.1383608062
 20
330.2388914947
  0
LWPOLYLINE
  5
117
330
1F
100
AcDbEntity
  8
0
  6
Continuous
 62
     7
370
    15
100
AcDbPolyline
 90
       28
 70
   128
 43
0.0
 10
955.8419838087
 20
324.7450550738
 10
954.541532748
 20
324.7359058319
 10
953.5259562105
 20
324.7577797128
 10
952.831959778
 20
324.8098861376
 10
952.4846262901
 20
324.8903418442
 10
952.4965092837
 20
324.9962389538
 10
952.8671792767
 20
325.123750069
 10
953.5832392897
 20
325.2682666058
 10
954.6188090481
 20
325.4245653601
 10
955.9364603627
 20
325.5869972875
 10
957.488569882
 20
325.7496916752
 10
959.2190403238
 20
325.9067683239
 10
961.0653279778
 20
326.0525500744
 10
962.9607031976
 20
326.1817679944
 10
964.8366621845
 20
326.2897518115
 10
966.6254028929
 20
326.3725987093
 10
968.2622755731
 20
326.427314385
 10
969.6881193816
 20
326.4519212715
 10
970.8514006082
 20
326.4455300119
 10
971.7100752384
 20
326.4083716029
 10
972.2331085338
 20
326.3417890463
 10
972.4015967085
 20
326.248188809
 10
972.2094501607
 20
326.1309538476
 10
971.6636135674
 20
325.994321339
 10
970.7838148851
 20
325.8432295381
 10
969.6018523307
 20
325.6831392963
 10
968.1604451102
 20
325.5198366919
 10
967.3499317915
 20
325.4380006013
  0
LWPOLYLINE
  5
118
330
1F
100
AcDbEntity
  8
0
  6
Continuous
 62
     7
370
    15
100
AcDbPolyline
 90
        3
 70
   128
 43
0.0
 10
957.6030700785
 20
324.7925543388
 10
957.3803077027
 20
324.7848967612
 10
955.8419838087
 20
324.7450550738
  0
ARC
  5
119
330
1F
100
AcDbEntity
  8
0
  6
Continuous
 62
     7
370
    15
100
AcDbCircle
 10
966.0881023206
 20
270.2396293705
 30
0.0
 40
55.82633564092998
100
AcDbArc
 50
88.1944315466
 51
99.3939045456
  0
LWPOLYLINE
  5
11A
330
1F
100
AcDbEntity
  8
0
  6
Continuous
 62
     7
370
    15
100
AcDbPolyline
 90
        3
 70
   128
 43
0.0
 10
968.0120243238
 20
325.9184844746
 10
967.8475591031
 20
325.8650461773
 10
967.657222001
 20
325.8219305214
  0
LWPOLYLINE
  5
11B
330
1F
100
AcDbEntity
  8
0
  6
Continuous
 62
     7
370
    15
100
AcDbPolyline
 90
       19
 70
   128
 43
0.0
 10
972.1383466587
 20
330.2390951881
 10
972.1038153938
 20
330.2806126848
 10
971.7669691002
 20
330.3618658665
 10
971.0829064694
 20
330.4148413585
 10
970.0763513074
 20
330.4376244884
 10
968.7836831402
 20
330.4293918146
 10
967.2516223633
 20
330.3904408874
 10
965.535541645
 20
330.3221794947
 10
963.6974646137
 20
330.2270747812
 10
961.8038241623
 20
330.108564079
 10
959.9230613906
 20
329.9709306735
 10
958.1231519654
 20
329.8191489949
 10
956.469149303
 20
329.6587048282
 10
955.020833369
 20
329.4953970438
 10
953.8305500749
 20
329.3351280105
 10
952.9413193602
 20
329.1836902687
 10
952.3852803397
 20
329.046557173
 10
952.1825297124
 20
328.9286850707
 10
952.1818772427
 20
328.9202823683
  0
SPLINE
  5
11C
330
1F
100
AcDbEntity
  8
0
  6
Continuous
 62
     7
370
    15
100
AcDbSpline
210
0.0
220
0.0
230
1.0
 70
     8
 71
     3
 72
     9
 73
     5
 74
     0
 42
0.000000001
 43
0.00000001
 40
0.0
 40
0.0
 40
0.0
 40
0.0
 40
0.5706425577715392
 40
1.0
 40
1.0
 40
1.0
 40
1.0
 10
858.933442760178
 20
1032.864701177615
 30
0.0
 10
859.2180928406497
 20
1032.901245165446
 30
0.0
 10
859.7169166255128
 20
1032.965285232792
 30
0.0
 10
860.1362069267087
 20
1032.987420180195
 30
0.0
 10
860.3162323379815
 20
1032.996923984596
 30
0.0
  0
SPLINE
  5
11D
330
1F
100
AcDbEntity
  8
0
  6
Continuous
 62
     7
370
    15
100
AcDbSpline
210
0.0
220
0.0
230
1.0
 70
     8
 71
     3
 72
    16
 73
    12
 74
     0
 42
0.000000001
 43
0.00000001
 40
0.0
 40
0.0
 40
0.0
 40
0.0
 40
0.0323395846602587
 40
0.1574535052621965
 40
0.2792632355154593
 40
0.4009263130444615
 40
0.5257090079820269
 40
0.6523527084166918
 40
0.7764870976557754
 40
0.8976005184819255
 40
1.0
 40
1.0
 40
1.0
 40
1.0
 10
857.8623958511804
 20
1032.744814742375
 30
0.0
 10
857.794028924387
 20
1032.754047180671
 30
0.0
 10
857.4611671272825
 20
1032.798997658145
 30
0.0
 10
856.9926011340691
 20
1032.843405515541
 30
0.0
 10
856.5581937857845
 20
1032.847633616718
 30
0.0
 10
856.3899040374647
 20
1032.798929606288
 30
0.0
 10
856.4947903201454
 20
1032.731356688031
 30
0.0
 10
856.8761879418254
 20
1032.687404740727
 30
0.0
 10
857.4872486821704
 20
1032.702027199676
 30
0.0
 10
858.2057627404465
 20
1032.772864848716
 30
0.0
 10
858.7048105865597
 20
1032.835846820034
 30
0.0
 10
858.933442760178
 20
1032.864701177615
 30
0.0
  0
SPLINE
  5
11E
330
1F
100
AcDbEntity
  8
0
  6
Continuous
 62
     7
370
    15
100
AcDbSpline
210
0.0
220
0.0
230
1.0
 70
     8
 71
     3
 72
    18
 73
    14
 74
     0
 42
0.000000001
 43
0.00000001
 40
0.0
 40
0.0
 40
0.0
 40
0.0
 40
0.0933323571162983
 40
0.1867454217553447
 40
0.2782211540800136
 40
0.3692919201059097
 40
0.4627898361988909
 40
0.5578510049364264
 40
0.6512134831892192
 40
0.7423489260233432
 40
0.8340294117507024
 40
0.9281880899187379
 40
1.0
 40
1.0
 40
1.0
 40
1.0
 10
858.933442760178
 20
1013.261794240127
 30
0.0
 10
858.6552597530992
 20
1013.294098801852
 30
0.0
 10
858.0986531850536
 20
1013.358735860104
 30
0.0
 10
857.3557894321608
 20
1013.379663644918
 30
0.0
 10
856.7923279021453
 20
1013.316730066525
 30
0.0
 10
856.4617948339057
 20
1013.187075220371
 30
0.0
 10
856.3961937333764
 20
1013.031609350851
 30
0.0
 10
856.6151070004611
 20
1012.902253454809
 30
0.0
 10
857.094799631757
 20
1012.843363963425
 30
0.0
 10
857.7692175337996
 20
1012.866507015244
 30
0.0
 10
858.5628096050791
 20
1012.950619520286
 30
0.0
 10
859.3504360153489
 20
1013.056611138619
 30
0.0
 10
859.8058089646814
 20
1013.101577809909
 30
0.0
 10
860.00283906282
 20
1013.121033923125
 30
0.0
  0
SPLINE
  5
11F
330
1F
100
AcDbEntity
  8
0
  6
Continuous
 62
     7
370
    15
100
AcDbSpline
210
0.0
220
0.0
230
1.0
 70
     8
 71
     3
 72
    11
 73
     7
 74
     0
 42
0.000000001
 43
0.00000001
 40
0.0
 40
0.0
 40
0.0
 40
0.0
 40
0.1808644509228367
 40
0.4668385748168817
 40
0.7503898370667729
 40
1.0
 40
1.0
 40
1.0
 40
1.0
 10
861.1872254536052
 20
1013.02974955316
 30
0.0
 10
861.1190265456822
 20
1013.025924940579
 30
0.0
 10
860.942994822387
 20
1013.016053035527
 30
0.0
 10
860.3922681772005
 20
1013.06649327149
 30
0.0
 10
859.6822561705752
 20
1013.162091930609
 30
0.0
 10
859.1722243411825
 20
1013.230001172901
 30
0.0
 10
858.933442760178
 20
1013.261794240128
 30
0.0
  0
SPLINE
  5
120
330
1F
100
AcDbEntity
  8
0
  6
Continuous
 62
     7
370
    15
100
AcDbSpline
210
0.0
220
0.0
230
1.0
 70
     8
 71
     3
 72
    11
 73
     7
 74
     0
 42
0.000000001
 43
0.00000001
 40
0.0
 40
0.0
 40
0.0
 40
0.0
 40
0.3251239172434445
 40
0.6505143344826889
 40
0.9696157027671581
 40
1.0
 40
1.0
 40
1.0
 40
1.0
 10
843.9238895496845
 20
997.8588467120394
 30
0.0
 10
843.644409857819
 20
997.8239393709117
 30
0.0
 10
843.0852213880913
 20
997.7540960755468
 30
0.0
 10
842.3623419689593
 20
997.6937404447733
 30
0.0
 10
841.9143913514448
 20
997.6831950672864
 30
0.0
 10
841.7995970705964
 20
997.6991369076045
 30
0.0
 10
841.789616851394
 20
997.7005228918164
 30
0.0
  0
LWPOLYLINE
  5
121
330
1F
100
AcDbEntity
  8
0
  6
Continuous
 62
     7
370
    15
100
AcDbPolyline
 90
       13
 70
   128
 43
0.0
 10
842.8535653908
 20
997.7408019605
 10
843.5541748747
 20
997.6454597087
 10
844.392562096
 20
997.5442324394
 10
845.1864310606
 20
997.4940983439
 10
845.8231678317
 20
997.5215392573
 10
846.2443982494
 20
997.619274033
 10
846.4206397002
 20
997.76032525
 10
846.3209051244
 20
997.9013951808
 10
845.9471794878
 20
997.990590186
 10
845.3611269297
 20
998.0010780337
 10
844.6302948777
 20
997.9427000158
 10
843.9238895497
 20
997.858846712
 10
843.9238895497
 20
997.858846712
  0
LWPOLYLINE
  5
122
330
1F
100
AcDbEntity
  8
0
  6
Continuous
 62
     7
370
    15
100
AcDbPolyline
 90
        6
 70
   128
 43
0.0
 10
972.186399535
 20
329.5119748899
 10
973.0353894833
 20
329.6688251681
 10
973.9832669363
 20
329.8874385257
 10
974.6033076324
 20
330.0949212338
 10
974.8731016853
 20
330.2837743266
 10
974.8841688275
 20
330.3332941782
  0
ARC
  5
123
330
1F
100
AcDbEntity
  8
0
  6
Continuous
 62
     7
370
    15
100
AcDbCircle
 10
612.4167405418
 20
1286.5642484023
 30
0.0
 40
81.19214630358074
100
AcDbArc
 50
174.092786708
 51
186.2766575321
  0
ARC
  5
124
330
1F
100
AcDbEntity
  8
0
  6
Continuous
 62
     7
370
    15
100
AcDbCircle
 10
811.0323677313
 20
1286.5642773143
 30
0.0
 40
81.19214630326891
100
AcDbArc
 50
354.092786708
 51
6.2766575322
  0
ARC
  5
125
330
1F
100
AcDbEntity
  8
0
  6
Continuous
 62
     7
370
    15
100
AcDbCircle
 10
809.8160159916
 20
1284.5495978951
 30
0.0
 40
82.40887277237925
100
AcDbArc
 50
310.7092053504
 51
359.836720509
  0
ARC
  5
126
330
1F
100
AcDbEntity
  8
0
  6
Continuous
 62
     7
370
    15
100
AcDbCircle
 10
613.7905496592
 20
1284.6093707748
 30
0.0
 40
82.56652116145898
100
AcDbArc
 50
180.2044464258
 51
231.2275555565
  0
ARC
  5
127
330
1F
100
AcDbEntity
  8
0
  6
Continuous
 62
     7
370
    15
100
AcDbCircle
 10
809.6677490449
 20
1283.7039008484
 30
0.0
 40
82.55571518825923
100
AcDbArc
 50
308.8840904711
 51
0.1117030383
  0
ARC
  5
128
330
1F
100
AcDbEntity
  8
0
  6
Continuous
 62
     7
370
    15
100
AcDbCircle
 10
613.607866054
 20
1283.6412285678
 30
0.0
 40
82.38236862593331
100
AcDbArc
 50
179.8444741184
 51
228.65621487
  0
ARC
  5
129
330
1F
100
AcDbEntity
  8
0
  6
Continuous
 62
     7
370
    15
100
AcDbCircle
 10
891.3823513982
 20
1450.6827717581
 30
0.0
 40
426.4820373417811
100
AcDbArc
 50
272.7857798626
 51
277.9608889213
  0
LWPOLYLINE
  5
12A
330
1F
100
AcDbEntity
  8
0
  6
Continuous
 62
     7
370
    15
100
AcDbPolyline
 90
       33
 70
   128
 43
0.0
 10
954.858888134
 20
1033.7284989147
 10
953.3356776292
 20
1034.0564773114
 10
951.0455676148
 20
1034.4797314074
 10
948.4142883377
 20
1034.8975173426
 10
945.4465815411
 20
1035.3090822386
 10
942.1477952332
 20
1035.7136844275
 10
938.52387405
 20
1036.1105947888
 10
934.5813485423
 20
1036.4990980634
 10
930.3273234076
 20
1036.8784941419
 10
925.7694646867
 20
1037.2480993271
 10
920.915985949
 20
1037.6072475653
 10
915.7756334914
 20
1037.9552916473
 10
910.3576705764
 20
1038.291604374
 10
904.6718607394
 20
1038.6155796872
 10
898.7284501939
 20
1038.9266337614
 10
892.5381493676
 20
1039.2242060562
 10
886.1121136009
 20
1039.5077603263
 10
879.4619230446
 20
1039.7767855876
 10
872.5995617916
 20
1040.0307970384
 10
865.5373962807
 20
1040.269336933
 10
858.2881530115
 20
1040.4919754063
 10
850.8648956103
 20
1040.6983112488
 10
843.2810012887
 20
1040.8879726292
 10
835.5501367369
 20
1041.0606177651
 10
827.6862334953
 20
1041.2159355381
 10
819.7034628491
 20
1041.3536460553
 10
811.6162102906
 20
1041.4735011528
 10
803.4390495955
 20
1041.5752848437
 10
795.1867165601
 20
1041.6588137069
 10
786.8740824463
 20
1041.7239372178
 10
778.5161271825
 20
1041.7705380194
 10
770.1279123692
 20
1041.798532134
 10
761.7245541364
 20
1041.8078691141
  0
LWPOLYLINE
  5
12B
330
1F
100
AcDbEntity
  8
0
  6
Continuous
 62
     7
370
    15
100
AcDbPolyline
 90
       33
 70
   128
 43
0.0
 10
661.7245541364
 20
1041.8078691141
 10
653.3211959035
 20
1041.798532134
 10
644.9329810902
 20
1041.7705380195
 10
636.5750258265
 20
1041.7239372178
 10
628.2623917127
 20
1041.6588137069
 10
620.0100586772
 20
1041.5752848437
 10
611.8328979821
 20
1041.4735011528
 10
603.7456454236
 20
1041.3536460553
 10
595.7628747775
 20
1041.2159355382
 10
587.8989715359
 20
1041.0606177651
 10
580.1681069841
 20
1040.8879726292
 10
572.5842126625
 20
1040.6983112488
 10
565.1609552613
 20
1040.4919754063
 10
557.911711992
 20
1040.269336933
 10
550.8495464811
 20
1040.0307970384
 10
543.9871852281
 20
1039.7767855876
 10
537.3369946718
 20
1039.5077603263
 10
530.9109589051
 20
1039.2242060562
 10
524.7206580788
 20
1038.9266337614
 10
518.7772475334
 20
1038.6155796872
 10
513.0914376963
 20
1038.291604374
 10
507.6734747813
 20
1037.9552916473
 10
502.5331223237
 20
1037.6072475653
 10
497.6796435861
 20
1037.2480993271
 10
493.1217848652
 20
1036.8784941419
 10
488.8677597305
 20
1036.4990980634
 10
484.9252342228
 20
1036.1105947888
 10
481.3013130395
 20
1035.7136844275
 10
478.0025267317
 20
1035.3090822386
 10
475.0348199351
 20
1034.8975173426
 10
472.403540658
 20
1034.4797314074
 10
470.1134306435
 20
1034.0564773114
 10
469.5119603781
 20
1033.9324471506
  0
ARC
  5
12C
330
1F
100
AcDbEntity
  8
0
  6
Continuous
 62
     7
370
    15
100
AcDbCircle
 10
537.2888399799
 20
1516.1410511048
 30
0.0
 40
492.1212865784046
100
AcDbArc
 50
262.8626947986
 51
266.9818082358
  0
LINE
  5
12D
330
1F
100
AcDbEntity
  8
0
  6
Continuous
 62
     7
370
    15
100
AcDbLine
 10
956.4284068922
 20
1053.7436686785
 30
0.0
 11
956.4451013769
 21
1053.7313325759
 31
0.0
  0
LINE
  5
12E
330
1F
100
AcDbEntity
  8
0
  6
Continuous
 62
     7
370
    15
100
AcDbLine
 10
467.0042504588
 20
1053.7315140885
 30
0.0
 11
467.0296754897
 21
1053.7502138925
 31
0.0
  0
SPLINE
  5
12F
330
1F
100
AcDbEntity
  8
0
  6
Continuous
 62
     7
370
    15
100
AcDbSpline
210
0.0
220
0.0
230
1.0
 70
     8
 71
     3
 72
    15
 73
    11
 74
     0
 42
0.000000001
 43
0.00000001
 40
0.0
 40
0.0
 40
0.0
 40
0.0
 40
0.0664340518332997
 40
0.2100420869247867
 40
0.3536937674903201
 40
0.4973474164197199
 40
0.6410050003336177
 40
0.7846683798095757
 40
0.9283392085879777
 40
0.9999999999999999
 40
0.9999999999999999
 40
0.9999999999999999
 40
0.9999999999999999
 10
496.4379482381038
 20
2061.186378512009
 30
0.0
 10
495.9328732285056
 20
2061.19321287171
 30
0.0
 10
494.3359962333196
 20
2061.214820814246
 30
0.0
 10
491.654136300504
 20
2061.473368008716
 30
0.0
 10
488.4316134269556
 20
2062.085835089816
 30
0.0
 10
485.2837163414415
 20
2063.010008380057
 30
0.0
 10
482.2366743618151
 20
2064.227847939668
 30
0.0
 10
479.3318090754503
 20
2065.745843311388
 30
0.0
 10
477.0124795096884
 20
2067.197014692747
 30
0.0
 10
475.7443820165929
 20
2068.231181282956
 30
0.0
 10
475.3223684272163
 20
2068.575344375402
 30
0.0
  0
SPLINE
  5
130
330
1F
100
AcDbEntity
  8
0
  6
Continuous
 62
     7
370
    15
100
AcDbSpline
210
0.0
220
0.0
230
1.0
 70
     8
 71
     3
 72
    16
 73
    12
 74
     0
 42
0.000000001
 43
0.00000001
 40
0.0
 40
0.0
 40
0.0
 40
0.0
 40
0.0290196488775296
 40
0.1530868533971461
 40
0.2771634092606328
 40
0.4012488894238055
 40
0.5253425308485629
 40
0.6494432611872181
 40
0.773549737933915
 40
0.8976603986859925
 40
0.9999999999999999
 40
0.9999999999999999
 40
0.9999999999999999
 40
0.9999999999999999
 10
470.0483845371831
 20
2073.770866182766
 30
0.0
 10
469.8808558071902
 20
2073.963487795638
 30
0.0
 10
468.9970943862144
 20
2074.979621269035
 30
0.0
 10
467.640155192047
 20
2077.014984144743
 30
0.0
 10
466.010712584069
 20
2079.854261116849
 30
0.0
 10
464.6837154137349
 20
2082.852164140909
 30
0.0
 10
463.6466533487858
 20
2085.95964852755
 30
0.0
 10
462.9141163884836
 20
2089.153724778983
 30
0.0
 10
462.4980844314702
 20
2092.402470799153
 30
0.0
 10
462.3840140389352
 20
2095.487245480698
 30
0.0
 10
462.5283571481909
 20
2097.472599554542
 30
0.0
 10
462.5935900877287
 20
2098.369840045812
 30
0.0
  0
SPLINE
  5
131
330
1F
100
AcDbEntity
  8
0
  6
Continuous
 62
     7
370
    15
100
AcDbSpline
210
0.0
220
0.0
230
1.0
 70
     8
 71
     3
 72
    30
 73
    26
 74
     0
 42
0.000000001
 43
0.00000001
 40
0.0
 40
0.0
 40
0.0
 40
0.0
 40
0.026739489663456
 40
0.0726303251899695
 40
0.1185283708051702
 40
0.1644262969257733
 40
0.2103242620818122
 40
0.2562224369488409
 40
0.3021209871375841
 40
0.3480200692529685
 40
0.3939198271921052
 40
0.4398203887650092
 40
0.4857218627187982
 40
0.5316243362337734
 40
0.5775278729464963
 40
0.6234325115403339
 40
0.6693382649292624
 40
0.7152451200458444
 40
0.7611530382299825
 40
0.8070619562016144
 40
0.8529717875882847
 40
0.8988824249672667
 40
0.9447937423724285
 40
0.9882954078323412
 40
1.0
 40
1.0
 40
1.0
 40
1.0
 10
442.6854675563036
 20
2100.284691808682
 30
0.0
 10
442.619425428231
 20
2099.486164738817
 30
0.0
 10
442.4400405073318
 20
2097.317189882258
 30
0.0
 10
442.4053352898756
 20
2093.761465299594
 30
0.0
 10
442.6641564828464
 20
2089.640982664777
 30
0.0
 10
443.2420644961459
 20
2085.551851391679
 30
0.0
 10
444.1299222973083
 20
2081.518885820567
 30
0.0
 10
445.3240715484382
 20
2077.565488764683
 30
0.0
 10
446.8171148345244
 20
2073.714826891121
 30
0.0
 10
448.6004307799048
 20
2069.989404640199
 30
0.0
 10
450.6635619799864
 20
2066.411011168767
 30
0.0
 10
452.9944533983485
 20
2063.000572401475
 30
0.0
 10
455.579474979155
 20
2059.778034606503
 30
0.0
 10
458.4035136992136
 20
2056.762246452922
 30
0.0
 10
461.4500580781049
 20
2053.970849467144
 30
0.0
 10
464.7012952010388
 20
2051.420174258324
 30
0.0
 10
468.1382140880323
 20
2049.125146924848
 30
0.0
 10
471.7407168094743
 20
2047.099194224915
 30
0.0
 10
475.487734434856
 20
2045.354192141636
 30
0.0
 10
479.3573543314723
 20
2043.900293855887
 30
0.0
 10
483.3269316801354
 20
2042.746251313274
 30
0.0
 10
487.3732830225554
 20
2041.897940121193
 30
0.0
 10
491.4008598711693
 20
2041.372986813855
 30
0.0
 10
494.4314353271408
 20
2041.198632634924
 30
0.0
 10
496.0869526167085
 20
2041.188522103243
 30
0.0
 10
496.4379482381038
 20
2041.186378512008
 30
0.0
  0
LINE
  5
132
330
1F
100
AcDbEntity
  8
0
  6
Continuous
 62
     7
370
    15
100
AcDbLine
 10
496.4379482381
 20
2041.186378512
 30
0.0
 11
927.0111600347
 21
2041.186378512
 31
0.0
  0
LINE
  5
133
330
1F
100
AcDbEntity
  8
0
  6
Continuous
 62
     7
370
    15
100
AcDbLine
 10
927.0111600347
 20
2061.186378512
 30
0.0
 11
496.4379482381
 21
2061.186378512
 31
0.0
  0
SPLINE
  5
134
330
1F
100
AcDbEntity
  8
0
  6
Continuous
 62
     7
370
    15
100
AcDbSpline
210
0.0
220
0.0
230
1.0
 70
     8
 71
     3
 72
    16
 73
    12
 74
     0
 42
0.000000001
 43
0.00000001
 40
0.0
 40
0.0
 40
0.0
 40
0.0
 40
0.0573367161946832
 40
0.1814108347227844
 40
0.3055237175450706
 40
0.4296361326031283
 40
0.5537462201219647
 40
0.6778522585529023
 40
0.8019526826583171
 40
0.9260461425615463
 40
1.0
 40
1.0
 40
1.0
 40
1.0
 10
960.8555181850344
 20
2098.369840045812
 30
0.0
 10
960.8969456395469
 20
2097.867719908667
 30
0.0
 10
961.0280202737833
 20
2096.279033997508
 30
0.0
 10
961.0266448470952
 20
2093.589271142974
 30
0.0
 10
960.723540853119
 20
2090.327929281518
 30
0.0
 10
960.1035013468957
 20
2087.110099066895
 30
0.0
 10
959.1762689545642
 20
2083.96749898178
 30
0.0
 10
957.9528465216007
 20
2080.926187155856
 30
0.0
 10
956.4311154663816
 20
2078.025585796046
 30
0.0
 10
954.9130539206925
 20
2075.624811086659
 30
0.0
 10
953.8060620200018
 20
2074.278983064284
 30
0.0
 10
953.392694536372
 20
2073.776430568045
 30
0.0
  0
SPLINE
  5
135
330
1F
100
AcDbEntity
  8
0
  6
Continuous
 62
     7
370
    15
100
AcDbSpline
210
0.0
220
0.0
230
1.0
 70
     8
 71
     3
 72
    15
 73
    11
 74
     0
 42
0.000000001
 43
0.00000001
 40
0.0
 40
0.0
 40
0.0
 40
0.0
 40
0.0197101640366883
 40
0.1634119660367711
 40
0.3071031842996826
 40
0.4507844885828649
 40
0.594456909290866
 40
0.7381217979148238
 40
0.881780776767574
 40
1.0
 40
1.0
 40
1.0
 40
1.0
 10
948.1393417408862
 20
2068.558829703894
 30
0.0
 10
948.0258285738363
 20
2068.4612016221
 30
0.0
 10
947.0847197244057
 20
2067.651791981642
 30
0.0
 10
945.1265462056472
 20
2066.365280317821
 30
0.0
 10
942.282928848607
 20
2064.73823890421
 30
0.0
 10
939.2778811296703
 20
2063.417494457356
 30
0.0
 10
936.1642457812081
 20
2062.383473068256
 30
0.0
 10
932.9643272397686
 20
2061.660760933078
 30
0.0
 10
929.9014847957205
 20
2061.253377847244
 30
0.0
 10
927.9101188946322
 20
2061.207216878283
 30
0.0
 10
927.0111600346594
 20
2061.186378512009
 30
0.0
  0
SPLINE
  5
136
330
1F
100
AcDbEntity
  8
0
  6
Continuous
 62
     7
370
    15
100
AcDbSpline
210
0.0
220
0.0
230
1.0
 70
     8
 71
     3
 72
    30
 73
    26
 74
     0
 42
0.000000001
 43
0.00000001
 40
0.0
 40
0.0
 40
0.0
 40
0.0
 40
0.0267314996332913
 40
0.0726365224208534
 40
0.1185489794314009
 40
0.16446130744094
 40
0.2103733378379517
 40
0.256284912382758
 40
0.3021958832286655
 40
0.3481061163464738
 40
0.3940154946547346
 40
0.4399239207809378
 40
0.4858313193867468
 40
0.5317376389984115
 40
0.5776428532930513
 40
0.6235469618030026
 40
0.6694499900134762
 40
0.7153519888432164
 40
0.7612530335131105
 40
0.8071532218238088
 40
0.8530526718792504
 40
0.8989515193084264
 40
0.9448499140521629
 40
0.9883381530053607
 40
1.0
 40
1.0
 40
1.0
 40
1.0
 10
927.0111600346594
 20
2041.186378512009
 30
0.0
 10
927.8128266493293
 20
2041.19707060439
 30
0.0
 10
929.991165905613
 20
2041.226123834424
 30
0.0
 10
933.5377573783979
 20
2041.531594901767
 30
0.0
 10
937.619643052688
 20
2042.183041016104
 30
0.0
 10
941.6397915025929
 20
2043.148835950096
 30
0.0
 10
945.574330647846
 20
2044.417525583682
 30
0.0
 10
949.4002674197067
 20
2045.983232004798
 30
0.0
 10
953.0952022628885
 20
2047.836377638568
 30
0.0
 10
956.6375144687338
 20
2049.966226765946
 30
0.0
 10
960.0064745793825
 20
2052.360282682441
 30
0.0
 10
963.1823698418036
 20
2055.004539603039
 30
0.0
 10
966.1466186986124
 20
2057.883517212896
 30
0.0
 10
968.881879922723
 20
2060.980364510458
 30
0.0
 10
971.3721538569187
 20
2064.276955417243
 30
0.0
 10
973.6028764505473
 20
2067.753996281416
 30
0.0
 10
975.5610022992059
 20
2071.391138665711
 30
0.0
 10
977.2350879213134
 20
2075.167099846473
 30
0.0
 10
978.6153312136656
 20
2079.059783812973
 30
0.0
 10
979.6937295077875
 20
2083.04642487301
 30
0.0
 10
980.4637483990564
 20
2087.103668179495
 30
0.0
 10
980.9217683369787
 20
2091.207903199377
 30
0.0
 10
981.0593959378211
 20
2095.262442819695
 30
0.0
 10
980.9431366593465
 20
2098.290979802016
 30
0.0
 10
980.7949712607187
 20
2099.936694626905
 30
0.0
 10
980.7636407164593
 20
2100.284691808682
 30
0.0
  0
LINE
  5
137
330
1F
100
AcDbEntity
  8
0
  6
Continuous
 62
     7
370
    15
100
AcDbLine
 10
915.3970008982
 20
2570.9880080901
 30
0.0
 11
917.8416715204
 21
2545.57152247
 31
0.0
  0
LINE
  5
138
330
1F
100
AcDbEntity
  8
0
  6
Continuous
 62
     7
370
    15
100
AcDbLine
 10
920.5248480355
 20
2517.6753647246
 30
0.0
 11
934.2440179766
 21
2375.0413909027
 31
0.0
  0
LINE
  5
139
330
1F
100
AcDbEntity
  8
0
  6
Continuous
 62
     7
370
    15
100
AcDbLine
 10
950.3884878217
 20
2207.1923228379
 30
0.0
 11
960.855518185
 21
2098.3698400458
 31
0.0
  0
LINE
  5
13A
330
1F
100
AcDbEntity
  8
0
  6
Continuous
 62
     7
370
    15
100
AcDbLine
 10
980.7636407165
 20
2100.2846918087
 30
0.0
 11
938.55340175
 21
2539.1315131238
 31
0.0
  0
LINE
  5
13B
330
1F
100
AcDbEntity
  8
0
  6
Continuous
 62
     7
370
    15
100
AcDbLine
 10
935.8702252349
 20
2567.0276708692
 30
0.0
 11
935.3051234296
 21
2572.902859853
 31
0.0
  0
LINE
  5
13C
330
1F
100
AcDbEntity
  8
0
  6
Continuous
 62
     7
370
    15
100
AcDbLine
 10
488.1439848432
 20
2572.902859853
 30
0.0
 11
487.5788830379
 21
2567.0276708692
 31
0.0
  0
LINE
  5
13D
330
1F
100
AcDbEntity
  8
0
  6
Continuous
 62
     7
370
    15
100
AcDbLine
 10
484.8957065228
 20
2539.1315131238
 30
0.0
 11
442.6854675563
 21
2100.2846918087
 31
0.0
  0
LINE
  5
13E
330
1F
100
AcDbEntity
  8
0
  6
Continuous
 62
     7
370
    15
100
AcDbLine
 10
462.5935900877
 20
2098.3698400458
 30
0.0
 11
473.0606204511
 21
2207.1923228379
 31
0.0
  0
LINE
  5
13F
330
1F
100
AcDbEntity
  8
0
  6
Continuous
 62
     7
370
    15
100
AcDbLine
 10
489.2050902961
 20
2375.0413909027
 30
0.0
 11
502.9242602373
 21
2517.6753647246
 31
0.0
  0
LINE
  5
140
330
1F
100
AcDbEntity
  8
0
  6
Continuous
 62
     7
370
    15
100
AcDbLine
 10
505.6074367524
 20
2545.57152247
 30
0.0
 11
508.0521073746
 21
2570.9880080901
 31
0.0
  0
SPLINE
  5
141
330
1F
100
AcDbEntity
  8
0
  6
Continuous
 62
     7
370
    15
100
AcDbSpline
210
0.0
220
0.0
230
1.0
 70
     8
 71
     3
 72
    24
 73
    20
 74
     0
 42
0.000000001
 43
0.00000001
 40
0.0
 40
0.0
 40
0.0
 40
0.0
 40
0.0176183254210278
 40
0.0618500355226216
 40
0.1109607849980913
 40
0.1674954580011241
 40
0.2339947087337187
 40
0.3088061373801425
 40
0.3823897385709484
 40
0.4522538824955883
 40
0.5194648298181147
 40
0.5849517638719725
 40
0.649294089420551
 40
0.7128553027628101
 40
0.7758749034180968
 40
0.8385194813423059
 40
0.900911617793269
 40
0.9631471706538606
 40
1.0
 40
1.0
 40
1.0
 40
1.0
 10
810.503953312644
 20
2516.505453133281
 30
0.0
 10
810.3410788981347
 20
2516.695829049198
 30
0.0
 10
809.7692999076583
 20
2517.364153471684
 30
0.0
 10
808.636724598596
 20
2518.328504909306
 30
0.0
 10
807.0657818806162
 20
2519.471475874343
 30
0.0
 10
805.1758954850076
 20
2520.559283457544
 30
0.0
 10
802.8864053001324
 20
2521.623191583486
 30
0.0
 10
800.2082421431159
 20
2522.614652794564
 30
0.0
 10
797.2508747338585
 20
2523.496321238938
 30
0.0
 10
794.1618223180292
 20
2524.24918061013
 30
0.0
 10
790.9775869129759
 20
2524.890116612994
 30
0.0
 10
787.6888454243651
 20
2525.437224507007
 30
0.0
 10
784.2928357433696
 20
2525.900505572117
 30
0.0
 10
780.7957344705222
 20
2526.284940494441
 30
0.0
 10
777.2098461110988
 20
2526.592753381202
 30
0.0
 10
773.5514415945713
 20
2526.825310606437
 30
0.0
 10
769.8396243408314
 20
2526.981565690993
 30
0.0
 10
766.6019764029776
 20
2527.055252445086
 30
0.0
 10
764.6092089999493
 20
2527.062317135789
 30
0.0
 10
763.8680613962158
 20
2527.064944626874
 30
0.0
  0
LINE
  5
142
330
1F
100
AcDbEntity
  8
0
  6
Continuous
 62
     7
370
    15
100
AcDbLine
 10
710.6990730265
 20
2527.0649446269
 30
0.0
 11
659.5810468765
 21
2527.0649446269
 31
0.0
  0
LINE
  5
143
330
1F
100
AcDbEntity
  8
0
  6
Continuous
 62
     7
370
    15
100
AcDbLine
 10
763.8680613962
 20
2527.0649446269
 30
0.0
 11
712.7834673415
 21
2527.0649446269
 31
0.0
  0
SPLINE
  5
144
330
1F
100
AcDbEntity
  8
0
  6
Continuous
 62
     7
370
    15
100
AcDbSpline
210
0.0
220
0.0
230
1.0
 70
     8
 71
     3
 72
    24
 73
    20
 74
     0
 42
0.000000001
 43
0.00000001
 40
0.0
 40
0.0
 40
0.0
 40
0.0
 40
0.0327209188736643
 40
0.0948739924823438
 40
0.1570936953422463
 40
0.2194401730101511
 40
0.2819977703243268
 40
0.3448688127467694
 40
0.4081852333304233
 40
0.4721264779144668
 40
0.5369488317765619
 40
0.6030357471142613
 40
0.6709861703752719
 40
0.7417593540419423
 40
0.8167780616180393
 40
0.8813132816223365
 40
0.9349417462840173
 40
0.9820801931293669
 40
1.0
 40
1.0
 40
1.0
 40
1.0
 10
659.5810468765474
 20
2527.064944626874
 30
0.0
 10
658.9231012869374
 20
2527.062857980788
 30
0.0
 10
657.0153943193098
 20
2527.056807770346
 30
0.0
 10
653.8644983005779
 20
2526.989557351488
 30
0.0
 10
650.1603993784126
 20
2526.838873488979
 30
0.0
 10
646.5147937148901
 20
2526.61289237054
 30
0.0
 10
642.9486056926194
 20
2526.313220449411
 30
0.0
 10
639.4805877573974
 20
2525.939545297508
 30
0.0
 10
636.1271001425984
 20
2525.491354894241
 30
0.0
 10
632.9010075457095
 20
2524.966733703342
 30
0.0
 10
629.8101877558728
 20
2524.361333009962
 30
0.0
 10
626.855114991391
 20
2523.666189634618
 30
0.0
 10
624.0252391465675
 20
2522.863140371265
 30
0.0
 10
621.2940857254613
 20
2521.917021079558
 30
0.0
 10
618.812379763026
 20
2520.838710670134
 30
0.0
 10
616.6716046968586
 20
2519.662824979465
 30
0.0
 10
614.9317136426674
 20
2518.427000883127
 30
0.0
 10
613.7160385208929
 20
2517.406220524694
 30
0.0
 10
613.1155495563806
 20
2516.701687416275
 30
0.0
 10
612.9501493856509
 20
2516.507629068322
 30
0.0
  0
LINE
  5
145
330
1F
100
AcDbEntity
  8
0
  6
Continuous
 62
     7
370
    15
100
AcDbLine
 10
511.199223178
 20
2091.4773792807
 30
0.0
 11
539.6220161271
 21
2115.294249375
 31
0.0
  0
LINE
  5
146
330
1F
100
AcDbEntity
  8
0
  6
Continuous
 62
     7
370
    15
100
AcDbLine
 10
524.1994962183
 20
2128.4643220146
 30
0.0
 11
498.3538186147
 21
2106.8069448847
 31
0.0
  0
LINE
  5
147
330
1F
100
AcDbEntity
  8
0
  6
Continuous
 62
     7
370
    15
100
AcDbLine
 10
539.5550792108
 20
2505.1697428307
 30
0.0
 11
539.0771694086
 21
2505.7385130049
 31
0.0
  0
LINE
  5
148
330
1F
100
AcDbEntity
  8
0
  6
Continuous
 62
     7
370
    15
100
AcDbLine
 10
523.7649663704
 20
2492.872416545
 30
0.0
 11
531.2245541364
 21
2483.9946094486
 31
0.0
  0
LINE
  5
149
330
1F
100
AcDbEntity
  8
0
  6
Continuous
 62
     7
370
    15
100
AcDbLine
 10
556.7158163632
 20
2453.6569398894
 30
0.0
 11
562.1532632582
 21
2447.1857237654
 31
0.0
  0
LINE
  5
14A
330
1F
100
AcDbEntity
  8
0
  6
Continuous
 62
     7
370
    15
100
AcDbLine
 10
539.0771694086
 20
2505.7385130049
 30
0.0
 11
514.5524777774
 21
2534.9258472423
 31
0.0
  0
LINE
  5
14B
330
1F
100
AcDbEntity
  8
0
  6
Continuous
 62
     7
370
    15
100
AcDbLine
 10
499.2402747392
 20
2522.0597507824
 30
0.0
 11
523.7649663704
 21
2492.872416545
 31
0.0
  0
LINE
  5
14C
330
1F
100
AcDbEntity
  8
0
  6
Continuous
 62
     7
370
    15
100
AcDbLine
 10
480.0839261868
 20
2065.4043263014
 30
0.0
 11
511.1992231779
 21
2091.4773792807
 31
0.0
  0
LINE
  5
14D
330
1F
100
AcDbEntity
  8
0
  6
Continuous
 62
     7
370
    15
100
AcDbLine
 10
498.353818615
 20
2106.806944885
 30
0.0
 11
466.1123167034
 21
2079.7901888593
 31
0.0
  0
LINE
  5
14E
330
1F
100
AcDbEntity
  8
0
  6
Continuous
 62
     7
370
    15
100
AcDbLine
 10
450.8803851861
 20
2579.6138387725
 30
0.0
 11
499.2402747392
 21
2522.0597507824
 31
0.0
  0
LINE
  5
14F
330
1F
100
AcDbEntity
  8
0
  6
Continuous
 62
     7
370
    15
100
AcDbLine
 10
514.5524777774
 20
2534.9258472423
 30
0.0
 11
466.1925882243
 21
2592.4799352324
 31
0.0
  0
LINE
  5
150
330
1F
100
AcDbEntity
  8
0
  6
Continuous
 62
     7
370
    15
100
AcDbLine
 10
466.1925882243
 20
2592.4799352324
 30
0.0
 11
465.8922662075
 21
2592.8373545719
 31
0.0
  0
LINE
  5
151
330
1F
100
AcDbEntity
  8
0
  6
Continuous
 62
     7
370
    15
100
AcDbLine
 10
450.5800631693
 20
2579.9712581119
 30
0.0
 11
450.8803851861
 21
2579.6138387725
 31
0.0
  0
LINE
  5
152
330
1F
100
AcDbEntity
  8
0
  6
Continuous
 62
     7
370
    15
100
AcDbLine
 10
972.5687230867
 20
2579.6138387725
 30
0.0
 11
972.8690451035
 21
2579.9712581119
 31
0.0
  0
LINE
  5
153
330
1F
100
AcDbEntity
  8
0
  6
Continuous
 62
     7
370
    15
100
AcDbLine
 10
957.5568420653
 20
2592.8373545719
 30
0.0
 11
957.2565200485
 21
2592.4799352324
 31
0.0
  0
LINE
  5
154
330
1F
100
AcDbEntity
  8
0
  6
Continuous
 62
     7
370
    15
100
AcDbLine
 10
883.8270921457
 20
2115.294249375
 30
0.0
 11
912.2498850948
 21
2091.4773792807
 31
0.0
  0
LINE
  5
155
330
1F
100
AcDbEntity
  8
0
  6
Continuous
 62
     7
370
    15
100
AcDbLine
 10
925.095289658
 20
2106.8069448847
 30
0.0
 11
899.2496120544
 21
2128.4643220146
 31
0.0
  0
LINE
  5
156
330
1F
100
AcDbEntity
  8
0
  6
Continuous
 62
     7
370
    15
100
AcDbLine
 10
861.2966261213
 20
2447.1866533764
 30
0.0
 11
866.7858870735
 21
2453.7195344636
 31
0.0
  0
LINE
  5
157
330
1F
100
AcDbEntity
  8
0
  6
Continuous
 62
     7
370
    15
100
AcDbLine
 10
892.2245541364
 20
2483.9946094486
 30
0.0
 11
899.6841419024
 21
2492.872416545
 31
0.0
  0
LINE
  5
158
330
1F
100
AcDbEntity
  8
0
  6
Continuous
 62
     7
370
    15
100
AcDbLine
 10
884.3719388642
 20
2505.7385130049
 30
0.0
 11
883.8871576724
 21
2505.1615650503
 31
0.0
  0
LINE
  5
159
330
1F
100
AcDbEntity
  8
0
  6
Continuous
 62
     7
370
    15
100
AcDbLine
 10
908.8966304954
 20
2534.9258472423
 30
0.0
 11
884.3719388642
 21
2505.7385130049
 31
0.0
  0
LINE
  5
15A
330
1F
100
AcDbEntity
  8
0
  6
Continuous
 62
     7
370
    15
100
AcDbLine
 10
899.6841419024
 20
2492.872416545
 30
0.0
 11
924.2088335336
 21
2522.0597507824
 31
0.0
  0
LINE
  5
15B
330
1F
100
AcDbEntity
  8
0
  6
Continuous
 62
     7
370
    15
100
AcDbLine
 10
912.2498850949
 20
2091.4773792807
 30
0.0
 11
943.3588433394
 21
2065.409637852
 31
0.0
  0
LINE
  5
15C
330
1F
100
AcDbEntity
  8
0
  6
Continuous
 62
     7
370
    15
100
AcDbLine
 10
957.3109863369
 20
2079.8118123455
 30
0.0
 11
925.0952896577
 21
2106.806944885
 31
0.0
  0
LINE
  5
15D
330
1F
100
AcDbEntity
  8
0
  6
Continuous
 62
     7
370
    15
100
AcDbLine
 10
957.2565200485
 20
2592.4799352324
 30
0.0
 11
908.8966304954
 21
2534.9258472423
 31
0.0
  0
LINE
  5
15E
330
1F
100
AcDbEntity
  8
0
  6
Continuous
 62
     7
370
    15
100
AcDbLine
 10
924.2088335336
 20
2522.0597507824
 30
0.0
 11
972.5687230867
 21
2579.6138387725
 31
0.0
  0
SPLINE
  5
15F
330
1F
100
AcDbEntity
  8
0
  6
Continuous
 62
     7
370
    15
100
AcDbSpline
210
0.0
220
0.0
230
1.0
 70
     8
 71
     3
 72
    26
 73
    22
 74
     0
 42
0.000000001
 43
0.00000001
 40
0.0
 40
0.0
 40
0.0
 40
0.0
 40
0.002787066690737
 40
0.0589479819038852
 40
0.1147435845261907
 40
0.1701799195110844
 40
0.2252701996081625
 40
0.280039898509476
 40
0.3345357522900794
 40
0.3888418404371562
 40
0.4431077933552486
 40
0.4975957055996595
 40
0.5527508673231193
 40
0.6092894440202749
 40
0.6682438889918411
 40
0.7306872565105095
 40
0.7962294939884168
 40
0.8598189215131126
 40
0.9195000794629584
 40
0.9763605823658911
 40
0.9999999999999999
 40
0.9999999999999999
 40
0.9999999999999999
 40
0.9999999999999999
 10
537.1663980746166
 20
2468.589413465124
 30
0.0
 10
537.222752267178
 20
2468.530409311722
 30
0.0
 10
538.4146742022916
 20
2467.282439258287
 30
0.0
 10
540.9055767395713
 20
2465.024315007379
 30
0.0
 10
544.6295178123626
 20
2461.845677014385
 30
0.0
 10
548.5056167089582
 20
2458.906690609708
 30
0.0
 10
552.4932137075282
 20
2456.183271227142
 30
0.0
 10
556.5862155286704
 20
2453.682914594722
 30
0.0
 10
560.7714022684415
 20
2451.402395735879
 30
0.0
 10
565.0413385176107
 20
2449.338558018943
 30
0.0
 10
569.3941887928609
 20
2447.484896468392
 30
0.0
 10
573.8391534461347
 20
2445.831960207028
 30
0.0
 10
578.4030350760895
 20
2444.367241547148
 30
0.0
 10
583.1377207763757
 20
2443.076764431382
 30
0.0
 10
588.1187002731211
 20
2441.950235764713
 30
0.0
 10
593.3989364017289
 20
2440.993228307504
 30
0.0
 10
598.8661029546745
 20
2440.240048657552
 30
0.0
 10
604.3143853023959
 20
2439.708792086931
 30
0.0
 10
609.5612853720718
 20
2439.388484630365
 30
0.0
 10
613.6694092836154
 20
2439.266449343446
 30
0.0
 10
616.0310424781021
 20
2439.257055086684
 30
0.0
 10
616.7245541363822
 20
2439.254296391303
 30
0.0
  0
SPLINE
  5
160
330
1F
100
AcDbEntity
  8
0
  6
Continuous
 62
     7
370
    15
100
AcDbSpline
210
0.0
220
0.0
230
1.0
 70
     8
 71
     3
 72
    25
 73
    21
 74
     0
 42
0.000000001
 43
0.00000001
 40
0.0
 40
0.0
 40
0.0
 40
0.0
 40
0.0307077216059583
 40
0.0868212771832759
 40
0.1445518592499379
 40
0.2058790868265626
 40
0.273450968583094
 40
0.341128482818213
 40
0.4047087840107909
 40
0.4652998583231166
 40
0.524304200041568
 40
0.5825381278096582
 40
0.640441257543822
 40
0.6982308235570761
 40
0.7560037443471888
 40
0.8137978882541678
 40
0.8716246304012919
 40
0.9294846019184589
 40
0.9873747574064112
 40
1.0
 40
1.0
 40
1.0
 40
1.0
 10
806.7245541363816
 20
2439.254296391303
 30
0.0
 10
807.6254530362183
 20
2439.258871234007
 30
0.0
 10
810.1726036877881
 20
2439.271805885802
 30
0.0
 10
814.4065808538477
 20
2439.414115637333
 30
0.0
 10
819.5051855512395
 20
2439.740750125709
 30
0.0
 10
824.8874414580475
 20
2440.276250764907
 30
0.0
 10
830.4944319843557
 20
2441.059958646249
 30
0.0
 10
836.1047407510554
 20
2442.103408135774
 30
0.0
 10
841.4660720443933
 20
2443.364357656384
 30
0.0
 10
846.5348565657833
 20
2444.814184469748
 30
0.0
 10
851.3982124152583
 20
2446.463131416948
 30
0.0
 10
856.1175428128461
 20
2448.32730163849
 30
0.0
 10
860.7178763617239
 20
2450.417914964051
 30
0.0
 10
865.2029486780164
 20
2452.740936754615
 30
0.0
 10
869.5659500267374
 20
2455.29714727257
 30
0.0
 10
873.7931333803182
 20
2458.08565988411
 30
0.0
 10
877.8761283563568
 20
2461.095840798078
 30
0.0
 10
881.7796550825669
 20
2464.34187488607
 30
0.0
 10
884.5804911451633
 20
2466.851419380282
 30
0.0
 10
886.0144048997578
 20
2468.336583290993
 30
0.0
 10
886.2711361882787
 20
2468.60249052791
 30
0.0
  0
SPLINE
  5
161
330
1F
100
AcDbEntity
  8
0
  6
Continuous
 62
     7
370
    15
100
AcDbSpline
210
0.0
220
0.0
230
1.0
 70
     8
 71
     3
 72
    15
 73
    11
 74
     0
 42
0.000000001
 43
0.00000001
 40
0.0
 40
0.0
 40
0.0
 40
0.0
 40
0.0508391758556554
 40
0.2134610233032139
 40
0.3660100448462368
 40
0.5118229855347297
 40
0.6532734875763969
 40
0.8074156065336838
 40
0.9567397581289853
 40
1.0
 40
1.0
 40
1.0
 40
1.0
 10
886.2098953449324
 20
2468.543652648243
 30
0.0
 10
886.378305973247
 20
2468.698859904471
 30
0.0
 10
887.0854202104495
 20
2469.350536474375
 30
0.0
 10
888.2002152586077
 20
2470.682331227855
 30
0.0
 10
889.4972224360702
 20
2472.520577417425
 30
0.0
 10
890.5577532561166
 20
2474.488029546608
 30
0.0
 10
891.4150614868008
 20
2476.636191397442
 30
0.0
 10
891.9816861114836
 20
2478.950199997702
 30
0.0
 10
892.2434478418699
 20
2480.826759264099
 30
0.0
 10
892.2007519270463
 20
2481.872621625854
 30
0.0
 10
892.1911611415785
 20
2482.107553740128
 30
0.0
  0
SPLINE
  5
162
330
1F
100
AcDbEntity
  8
0
  6
Continuous
 62
     7
370
    15
100
AcDbSpline
210
0.0
220
0.0
230
1.0
 70
     8
 71
     3
 72
    15
 73
    11
 74
     0
 42
0.000000001
 43
0.00000001
 40
0.0
 40
0.0
 40
0.0
 40
0.0
 40
0.1023858172977137
 40
0.2458125165636837
 40
0.3882766946454885
 40
0.531526245691108
 40
0.6775783770365492
 40
0.8289194007421661
 40
0.9887479933922213
 40
1.0
 40
1.0
 40
1.0
 40
1.0
 10
531.2579471311846
 20
2482.108381483378
 30
0.0
 10
531.2599611288089
 20
2481.551130113067
 30
0.0
 10
531.2647964257031
 20
2480.213255734467
 30
0.0
 10
531.6329098245498
 20
2478.137576152723
 30
0.0
 10
532.2781333124093
 20
2475.946592149498
 30
0.0
 10
533.1818827339671
 20
2473.894264324133
 30
0.0
 10
534.2993436663975
 20
2471.979511416713
 30
0.0
 10
535.6280757265267
 20
2470.22109075991
 30
0.0
 10
536.6236269705544
 20
2469.072469585048
 30
0.0
 10
537.1942979357459
 20
2468.559669771642
 30
0.0
 10
537.2318310838589
 20
2468.525942821223
 30
0.0
  0
LINE
  5
163
330
1F
100
AcDbEntity
  8
0
  6
Continuous
 62
     7
370
    15
100
AcDbLine
 10
892.2245541364
 20
2482.1079676118
 30
0.0
 11
892.2245541364
 21
2491.8516682596
 31
0.0
  0
LINE
  5
164
330
1F
100
AcDbEntity
  8
0
  6
Continuous
 62
     7
370
    15
100
AcDbLine
 10
531.2245541364
 20
2491.8516682596
 30
0.0
 11
531.2245541364
 21
2482.1079676118
 31
0.0
  0
SPLINE
  5
165
330
1F
100
AcDbEntity
  8
0
  6
Continuous
 62
     7
370
    15
100
AcDbSpline
210
0.0
220
0.0
230
1.0
 70
     8
 71
     3
 72
    34
 73
    30
 74
     0
 42
0.000000001
 43
0.00000001
 40
0.0
 40
0.0
 40
0.0
 40
0.0
 40
0.0205159947578751
 40
0.05950918801566
 40
0.0985083292096602
 40
0.1375111299565167
 40
0.1765198517062295
 40
0.2155369648200144
 40
0.2545652492181103
 40
0.2936079189752563
 40
0.3326687802141283
 40
0.3717524368426431
 40
0.4108645644625122
 40
0.4500122811827277
 40
0.4892046559749356
 40
0.5284534111726854
 40
0.5677738944120125
 40
0.6071864083343812
 40
0.6467179620195886
 40
0.6864043407758674
 40
0.7262917427327872
 40
0.7664350409292203
 40
0.8068828061675055
 40
0.8476194826393176
 40
0.8882607380699731
 40
0.9232546851617208
 40
0.9561113232587596
 40
0.991054001048568
 40
1.0
 40
1.0
 40
1.0
 40
1.0
 10
616.7245541363816
 20
2512.635081297318
 30
0.0
 10
615.8191901409269
 20
2512.633092596956
 30
0.0
 10
613.1930695523824
 20
2512.627324124835
 30
0.0
 10
608.8516587418821
 20
2512.56321667537
 30
0.0
 10
603.7253102891208
 20
2512.419536141134
 30
0.0
 10
598.6468460875536
 20
2512.204223064907
 30
0.0
 10
593.6352768336044
 20
2511.919262954549
 30
0.0
 10
588.7089957967652
 20
2511.565313535718
 30
0.0
 10
583.886075973313
 20
2511.143676388628
 30
0.0
 10
579.1841399014402
 20
2510.655754930106
 30
0.0
 10
574.6202909841579
 20
2510.103179487726
 30
0.0
 10
570.2110266559228
 20
2509.487746869708
 30
0.0
 10
565.9721537871875
 20
2508.811400554662
 30
0.0
 10
561.9186995423113
 20
2508.07618714052
 30
0.0
 10
558.0648178721464
 20
2507.284200421822
 30
0.0
 10
554.4236897528796
 20
2506.437500666633
 30
0.0
 10
551.0074166410453
 20
2505.537997292649
 30
0.0
 10
547.8269081748806
 20
2504.587273519539
 30
0.0
 10
544.891776505223
 20
2503.586318907679
 30
0.0
 10
542.2102597025482
 20
2502.53511664081
 30
0.0
 10
539.7893039292347
 20
2501.432012151875
 30
0.0
 10
537.6349163780832
 20
2500.272807730284
 30
0.0
 10
535.7539294459737
 20
2499.04973127631
 30
0.0
 10
534.1581884971264
 20
2497.752777992535
 30
0.0
 10
532.9228001594946
 20
2496.42677523981
 30
0.0
 10
532.0307627545536
 20
2495.090041788833
 30
0.0
 10
531.4701967981835
 20
2493.726910399496
 30
0.0
 10
531.2066956604162
 20
2492.64624705186
 30
0.0
 10
531.2479732042704
 20
2492.023948276738
 30
0.0
 10
531.2563869658931
 20
2491.897102707378
 30
0.0
  0
SPLINE
  5
166
330
1F
100
AcDbEntity
  8
0
  6
Continuous
 62
     7
370
    15
100
AcDbSpline
210
0.0
220
0.0
230
1.0
 70
     8
 71
     3
 72
    34
 73
    30
 74
     0
 42
0.000000001
 43
0.00000001
 40
0.0
 40
0.0
 40
0.0
 40
0.0
 40
0.024289850406282
 40
0.0571304024944247
 40
0.09068002983246
 40
0.1261136927082133
 40
0.1638974916660103
 40
0.2035360161261486
 40
0.2439982742198989
 40
0.2844445182626548
 40
0.3246195090783764
 40
0.3645218930405568
 40
0.4041989913125636
 40
0.4437005385163949
 40
0.4830674698371094
 40
0.522331184329355
 40
0.5615152790092913
 40
0.6006374673016891
 40
0.6397111449527554
 40
0.6787465606956725
 40
0.7177516657147647
 40
0.7567327256983493
 40
0.7956947635099828
 40
0.8346418825778389
 40
0.8735775066231267
 40
0.9125045608157105
 40
0.9514256121113944
 40
0.988297163757819
 40
1.0
 40
1.0
 40
1.0
 40
1.0
 10
892.1927213068701
 20
2491.806233811834
 30
0.0
 10
892.1910789945255
 20
2492.152651410969
 30
0.0
 10
892.1872162302966
 20
2492.967435221438
 30
0.0
 10
891.8118599263349
 20
2494.222460991437
 30
0.0
 10
891.15158177142
 20
2495.542917891107
 30
0.0
 10
890.186402517988
 20
2496.826549254863
 30
0.0
 10
888.9076558656059
 20
2498.089799987471
 30
0.0
 10
887.2954109409751
 20
2499.330781300685
 30
0.0
 10
885.3596957701961
 20
2500.535630473667
 30
0.0
 10
883.1254986826382
 20
2501.691573265618
 30
0.0
 10
880.6170874859349
 20
2502.793245913294
 30
0.0
 10
877.8487448458181
 20
2503.840993675862
 30
0.0
 10
874.8302362983253
 20
2504.835947439065
 30
0.0
 10
871.5708310284715
 20
2505.778348158252
 30
0.0
 10
868.0804959528269
 20
2506.667557760235
 30
0.0
 10
864.3702649192934
 20
2507.50231101449
 30
0.0
 10
860.4522961522258
 20
2508.280956717073
 30
0.0
 10
856.3398175298121
 20
2509.001640766327
 30
0.0
 10
852.0470371440294
 20
2509.662436654774
 30
0.0
 10
847.5890458925521
 20
2510.261437533273
 30
0.0
 10
842.9817212230466
 20
2510.796820883002
 30
0.0
 10
838.2416339611652
 20
2511.266897258501
 30
0.0
 10
833.3859596363451
 20
2511.67013744383
 30
0.0
 10
828.4323885717596
 20
2512.005223972097
 30
0.0
 10
823.3990530563465
 20
2512.270972015438
 30
0.0
 10
818.3043999967173
 20
2512.46670859185
 30
0.0
 10
813.2572797096393
 20
2512.588743727729
 30
0.0
 10
809.3900756489986
 20
2512.63163271508
 30
0.0
 10
807.2420657207651
 20
2512.634411754323
 30
0.0
 10
806.7245541363816
 20
2512.635081297318
 30
0.0
  0
LINE
  5
167
330
1F
100
AcDbEntity
  8
0
  6
Continuous
 62
     7
370
    15
100
AcDbLine
 10
806.7245541364
 20
2512.6350812973
 30
0.0
 11
616.7245541364
 21
2512.6350812973
 31
0.0
  0
LINE
  5
168
330
1F
100
AcDbEntity
  8
0
  6
Continuous
 62
     7
370
    15
100
AcDbLine
 10
711.7245041364
 20
2439.2542963913
 30
0.0
 11
806.7245541364
 21
2439.2542963913
 31
0.0
  0
LINE
  5
169
330
1F
100
AcDbEntity
  8
0
  6
Continuous
 62
     7
370
    15
100
AcDbLine
 10
616.7245541364
 20
2439.2542963913
 30
0.0
 11
711.7246041364
 21
2439.2542963913
 31
0.0
  0
SPLINE
  5
16A
330
1F
100
AcDbEntity
  8
0
  6
Continuous
 62
     7
370
    15
100
AcDbSpline
210
0.0
220
0.0
230
1.0
 70
     8
 71
     3
 72
    10
 73
     6
 74
     0
 42
0.000000001
 43
0.00000001
 40
0.0
 40
0.0
 40
0.0
 40
0.0
 40
0.0479905944785995
 40
0.7424708309525783
 40
1.0
 40
1.0
 40
1.0
 40
1.0
 10
891.8949958169017
 20
2493.763382709069
 30
0.0
 10
891.9086209548926
 20
2493.795295553257
 30
0.0
 10
892.1194178336535
 20
2494.289024714142
 30
0.0
 10
892.2428006141971
 20
2495.013091000883
 30
0.0
 10
892.197290257315
 20
2495.690914649139
 30
0.0
 10
892.1849791978623
 20
2495.874273510809
 30
0.0
  0
SPLINE
  5
16B
330
1F
100
AcDbEntity
  8
0
  6
Continuous
 62
     7
370
    15
100
AcDbSpline
210
0.0
220
0.0
230
1.0
 70
     8
 71
     3
 72
     9
 73
     5
 74
     0
 42
0.000000001
 43
0.00000001
 40
0.0
 40
0.0
 40
0.0
 40
0.0
 40
0.4762109469333515
 40
1.0
 40
1.0
 40
1.0
 40
1.0
 10
531.2641290749009
 20
2495.624023526684
 30
0.0
 10
531.2622273839918
 20
2495.333858149124
 30
0.0
 10
531.2582340047522
 20
2494.724537050085
 30
0.0
 10
531.4524068467961
 20
2494.142367898117
 30
0.0
 10
531.5541124558614
 20
2493.837434069284
 30
0.0
  0
LINE
  5
16C
330
1F
100
AcDbEntity
  8
0
  6
Continuous
 62
     7
370
    15
100
AcDbLine
 10
806.7245541364
 20
2516.5325615565
 30
0.0
 11
616.7245541364
 21
2516.5325615565
 31
0.0
  0
SPLINE
  5
16D
330
1F
100
AcDbEntity
  8
0
  6
Continuous
 62
     7
370
    15
100
AcDbSpline
210
0.0
220
0.0
230
1.0
 70
     8
 71
     3
 72
    34
 73
    30
 74
     0
 42
0.000000001
 43
0.00000001
 40
0.0
 40
0.0
 40
0.0
 40
0.0
 40
0.0203682272580236
 40
0.0533407737395125
 40
0.0870252454216729
 40
0.1226013250516507
 40
0.1605369865484129
 40
0.2003348281532503
 40
0.2409597141832152
 40
0.281568521797709
 40
0.3219049859505961
 40
0.3619677475748104
 40
0.4018043180293135
 40
0.4414646318319816
 40
0.4809897886966381
 40
0.5204113138785686
 40
0.5597528992362452
 40
0.599032329389129
 40
0.6382630539242787
 40
0.677455362767102
 40
0.7166172390597203
 40
0.7557549736738188
 40
0.7948736096610954
 40
0.8339772669424339
 40
0.8730693829998337
 40
0.9121528947601488
 40
0.9512303794964164
 40
0.9882501271316908
 40
1.0
 40
1.0
 40
1.0
 40
1.0
 10
892.1849791978623
 20
2495.874273510809
 30
0.0
 10
892.1824806000076
 20
2496.163482028775
 30
0.0
 10
892.1759372154926
 20
2496.920867829949
 30
0.0
 10
891.8101323905275
 20
2498.119762346956
 30
0.0
 10
891.1520770180923
 20
2499.440449437997
 30
0.0
 10
890.1862569592442
 20
2500.724014439939
 30
0.0
 10
888.907698082163
 20
2501.987284618559
 30
0.0
 10
887.2953991337122
 20
2503.228260337066
 30
0.0
 10
885.3596989607682
 20
2504.433111063223
 30
0.0
 10
883.125497834044
 20
2505.589053436879
 30
0.0
 10
880.617087711001
 20
2506.690726195744
 30
0.0
 10
877.8487447860545
 20
2507.738473928813
 30
0.0
 10
874.8302363142244
 20
2508.733427699852
 30
0.0
 10
871.5708310242358
 20
2509.675828416954
 30
0.0
 10
868.0804959539578
 20
2510.565038019493
 30
0.0
 10
864.3702649189918
 20
2511.3997912736
 30
0.0
 10
860.4522961523069
 20
2512.178436976223
 30
0.0
 10
856.3398175297913
 20
2512.899121025466
 30
0.0
 10
852.0470371440359
 20
2513.559916913915
 30
0.0
 10
847.5890458925514
 20
2514.158917792414
 30
0.0
 10
842.9817212230477
 20
2514.694301142143
 30
0.0
 10
838.241633961166
 20
2515.164377517642
 30
0.0
 10
833.385959636346
 20
2515.56761770297
 30
0.0
 10
828.4323885717608
 20
2515.902704231237
 30
0.0
 10
823.3990530563475
 20
2516.168452274579
 30
0.0
 10
818.3043999967184
 20
2516.364188850991
 30
0.0
 10
813.2572797096404
 20
2516.48622398687
 30
0.0
 10
809.3900756489995
 20
2516.52911297422
 30
0.0
 10
807.2420657207655
 20
2516.531892013463
 30
0.0
 10
806.7245541363816
 20
2516.532561556459
 30
0.0
  0
SPLINE
  5
16E
330
1F
100
AcDbEntity
  8
0
  6
Continuous
 62
     7
370
    15
100
AcDbSpline
210
0.0
220
0.0
230
1.0
 70
     8
 71
     3
 72
    34
 73
    30
 74
     0
 42
0.000000001
 43
0.00000001
 40
0.0
 40
0.0
 40
0.0
 40
0.0
 40
0.0204340227388268
 40
0.0592714180049371
 40
0.0981147374421783
 40
0.1369617018104678
 40
0.1758145635241417
 40
0.2146757830740435
 40
0.2535481292731938
 40
0.2924348033544409
 40
0.3313395962330238
 40
0.3702670934218688
 40
0.4092229478457221
 40
0.4482142491730423
 40
0.4872500301402382
 40
0.5263419662440723
 40
0.5655053437988274
 40
0.6047603843264113
 40
0.6441339889913565
 40
0.6836618001210704
 40
0.723389831259683
 40
0.7633727361998617
 40
0.8036588916784625
 40
0.8442328040406512
 40
0.8847116766181321
 40
0.9195658047768253
 40
0.95229116359661
 40
0.9870942273007731
 40
1.0
 40
1.0
 40
1.0
 40
1.0
 10
616.7245541363816
 20
2516.532561556459
 30
0.0
 10
615.8191901409268
 20
2516.530572856096
 30
0.0
 10
613.1930695523823
 20
2516.524804383977
 30
0.0
 10
608.8516587418821
 20
2516.460696934511
 30
0.0
 10
603.7253102891207
 20
2516.317016400276
 30
0.0
 10
598.6468460875536
 20
2516.101703324048
 30
0.0
 10
593.6352768336044
 20
2515.81674321369
 30
0.0
 10
588.7089957967655
 20
2515.462793794859
 30
0.0
 10
583.8860759733129
 20
2515.041156647768
 30
0.0
 10
579.184139901441
 20
2514.553235189246
 30
0.0
 10
574.6202909841555
 20
2514.000659746867
 30
0.0
 10
570.2110266559326
 20
2513.385227128849
 30
0.0
 10
565.9721537871526
 20
2512.708880813804
 30
0.0
 10
561.918699542443
 20
2511.973667399659
 30
0.0
 10
558.0648178716554
 20
2511.181680680975
 30
0.0
 10
554.4236897547177
 20
2510.334980925733
 30
0.0
 10
551.0074166341676
 20
2509.435477551944
 30
0.0
 10
547.8269082006483
 20
2508.484753778104
 30
0.0
 10
544.8917764085826
 20
2507.483799168982
 30
0.0
 10
542.2102600655259
 20
2506.432596891829
 30
0.0
 10
539.789302563437
 20
2505.329492441575
 30
0.0
 10
537.6349215272735
 20
2504.170287874216
 30
0.0
 10
535.7539100124667
 20
2502.947211970261
 30
0.0
 10
534.1582615088265
 20
2501.650256618091
 30
0.0
 10
532.9225444102641
 20
2500.324261221162
 30
0.0
 10
532.0315503448645
 20
2498.98750442619
 30
0.0
 10
531.4673701347696
 20
2497.624453903264
 30
0.0
 10
531.2012202720476
 20
2496.487054413823
 30
0.0
 10
531.2507348334394
 20
2495.807775935992
 30
0.0
 10
531.2641290749009
 20
2495.624023526684
 30
0.0
  0
SPLINE
  5
16F
330
1F
100
AcDbEntity
  8
0
  6
Continuous
 62
     7
370
    15
100
AcDbSpline
210
0.0
220
0.0
230
1.0
 70
     8
 71
     3
 72
    21
 73
    17
 74
     0
 42
0.000000001
 43
0.00000001
 40
0.0
 40
0.0
 40
0.0
 40
0.0
 40
0.0167295056868785
 40
0.093017312282458
 40
0.1693054251343512
 40
0.245593857262504
 40
0.3218826196479537
 40
0.3981717211673038
 40
0.474461168540923
 40
0.5507509662950594
 40
0.6270411167381695
 40
0.7033316199512538
 40
0.7796224737923599
 40
0.855913673914928
 40
0.9322052137998987
 40
1.0
 40
1.0
 40
1.0
 40
1.0
 10
932.3608111071982
 20
2378.13854852845
 30
0.0
 10
932.0649785034766
 20
2378.637985788605
 30
0.0
 10
930.4201269341147
 20
2381.414894590507
 30
0.0
 10
927.1612737585715
 20
2386.307432138001
 30
0.0
 10
922.5802889515876
 20
2392.795119668888
 30
0.0
 10
917.7223189234583
 20
2399.081413643259
 30
0.0
 10
912.6241032392363
 20
2405.173858477696
 30
0.0
 10
907.2859021256279
 20
2411.058146450034
 30
0.0
 10
901.7182390928822
 20
2416.726249956548
 30
0.0
 10
895.9293222827969
 20
2422.16883479635
 30
0.0
 10
889.9285364464665
 20
2427.37756269788
 30
0.0
 10
883.724970581673
 20
2432.343552832436
 30
0.0
 10
877.3297289054274
 20
2437.061314752365
 30
0.0
 10
870.7480696093081
 20
2441.514633059053
 30
0.0
 10
864.2586582286486
 20
2445.572703711968
 30
0.0
 10
859.8881506840457
 20
2448.007471025382
 30
0.0
 10
857.8317610694106
 20
2449.153065711183
 30
0.0
  0
SPLINE
  5
170
330
1F
100
AcDbEntity
  8
0
  6
Continuous
 62
     7
370
    15
100
AcDbSpline
210
0.0
220
0.0
230
1.0
 70
     8
 71
     3
 72
    20
 73
    16
 74
     0
 42
0.000000001
 43
0.00000001
 40
0.0
 40
0.0
 40
0.0
 40
0.0
 40
0.07541906999263
 40
0.1568384865634657
 40
0.2382575819723511
 40
0.319676341687301
 40
0.4010947532715884
 40
0.4825128064662773
 40
0.5639304932593169
 40
0.6453478079409939
 40
0.7267647471451089
 40
0.8081813098755177
 40
0.8895974975177332
 40
0.9710133138353961
 40
1.0
 40
1.0
 40
1.0
 40
1.0
 10
565.5920299863025
 20
2449.144730381292
 30
0.0
 10
563.4501723954496
 20
2447.947407693815
 30
0.0
 10
558.9960508713223
 20
2445.457503240602
 30
0.0
 10
552.4276858369172
 20
2441.33734439592
 30
0.0
 10
545.8534607023489
 20
2436.872816007424
 30
0.0
 10
539.4657601728311
 20
2432.144693505561
 30
0.0
 10
533.270240336017
 20
2427.168491883507
 30
0.0
 10
527.2778453890717
 20
2421.949935244843
 30
0.0
 10
521.4978369684424
 20
2416.497769783413
 30
0.0
 10
515.9389955302389
 20
2410.820735947686
 30
0.0
 10
510.6116957974161
 20
2404.926788661436
 30
0.0
 10
505.518317215909
 20
2398.829162493496
 30
0.0
 10
500.6894433289737
 20
2392.522805831877
 30
0.0
 10
497.0447573371485
 20
2387.457078102278
 30
0.0
 10
495.1031122965534
 20
2384.437769092679
 30
0.0
 10
494.5933244369544
 20
2383.645035588208
 30
0.0
  0
LINE
  5
171
330
1F
100
AcDbEntity
  8
0
  6
Continuous
 62
     7
370
    15
100
AcDbLine
 10
461.7245541364
 20
2274.0018203228
 30
0.0
 11
461.7245541364
 21
2273.4784607604
 31
0.0
  0
LINE
  5
172
330
1F
100
AcDbEntity
  8
0
  6
Continuous
 62
     7
370
    15
100
AcDbLine
 10
961.7245541364
 20
2273.4784607604
 30
0.0
 11
961.7245541364
 21
2274.0018203228
 31
0.0
  0
LINE
  5
173
330
1F
100
AcDbEntity
  8
0
  6
Continuous
 62
     7
370
    15
100
AcDbLine
 10
661.7245541364
 20
2073.749812879
 30
0.0
 11
761.7245541364
 21
2073.749812879
 31
0.0
  0
ARC
  5
174
330
1F
100
AcDbEntity
  8
0
  6
Continuous
 62
     7
370
    15
100
AcDbCircle
 10
965.813587618
 20
2587.1191450208
 30
0.0
 40
15.00000000000009
100
AcDbArc
 50
271.7716193064
 51
188.1509895148
  0
ARC
  5
175
330
1F
100
AcDbEntity
  8
0
  6
Continuous
 62
     7
370
    15
100
AcDbCircle
 10
460.4988861415
 20
2062.0397320541
 30
0.0
 40
15.00000000000001
100
AcDbArc
 50
144.8406008701
 51
300.7478659132
  0
ARC
  5
176
330
1F
100
AcDbEntity
  8
0
  6
Continuous
 62
     7
370
    15
100
AcDbCircle
 10
457.6355206548
 20
2587.1191450208
 30
0.0
 40
15.00000000000004
100
AcDbArc
 50
351.8490104852
 51
268.2283806936
  0
ARC
  5
177
330
1F
100
AcDbEntity
  8
0
  6
Continuous
 62
     7
370
    15
100
AcDbCircle
 10
962.9502221313
 20
2062.0397320541
 30
0.0
 40
15.00000000000023
100
AcDbArc
 50
270.0
 51
35.3730619528
  0
ARC
  5
178
330
1F
100
AcDbEntity
  8
0
  6
Continuous
 62
     7
370
    15
100
AcDbCircle
 10
962.9502221313
 20
2062.0397320541
 30
0.0
 40
15.00000000000053
100
AcDbArc
 50
239.2260945257
 51
270.0
  0
LWPOLYLINE
  5
179
330
1F
100
AcDbEntity
  8
0
  6
Continuous
 62
     7
370
    15
100
AcDbPolyline
 90
       18
 70
   128
 43
0.0
 10
915.3970008982
 20
2570.9880080901
 10
915.5674442345
 20
2571.1034497801
 10
916.0914930137
 20
2571.2493229725
 10
916.9502067476
 20
2571.4203554302
 10
918.1125492845
 20
2571.6103655944
 10
919.5365105366
 20
2571.8124860027
 10
921.1706248341
 20
2572.0194114971
 10
922.9558310288
 20
2572.2236632509
 10
924.8276071174
 20
2572.4178590737
 10
926.7183022353
 20
2572.5949802223
 10
928.5595817346
 20
2572.7486250771
 10
930.284896977
 20
2572.8732405127
 10
931.8318905742
 20
2572.9643226024
 10
933.144650147
 20
2573.0185794024
 10
934.1757291442
 20
2573.0340499304
 10
934.8878616842
 20
2573.0101750414
 10
935.2553094417
 20
2572.9478176359
 10
935.3051234296
 20
2572.902859853
  0
LWPOLYLINE
  5
17A
330
1F
100
AcDbEntity
  8
0
  6
Continuous
 62
     7
370
    15
100
AcDbPolyline
 90
       18
 70
   128
 43
0.0
 10
508.0521073746
 20
2570.9880080901
 10
507.8816640383
 20
2571.1034497801
 10
507.3576152591
 20
2571.2493229725
 10
506.4989015252
 20
2571.4203554302
 10
505.3365589883
 20
2571.6103655944
 10
503.9125977362
 20
2571.8124860027
 10
502.2784834386
 20
2572.0194114971
 10
500.493277244
 20
2572.2236632509
 10
498.6215011553
 20
2572.4178590737
 10
496.7308060375
 20
2572.5949802223
 10
494.8895265381
 20
2572.7486250771
 10
493.1642112958
 20
2572.8732405127
 10
491.6172176986
 20
2572.9643226024
 10
490.3044581257
 20
2573.0185794024
 10
489.2733791286
 20
2573.0340499304
 10
488.5612465886
 20
2573.0101750414
 10
488.1937988311
 20
2572.9478176359
 10
488.1439848432
 20
2572.902859853
  0
SPLINE
  5
17B
330
1F
100
AcDbEntity
  8
0
  6
Continuous
 62
     7
370
    15
100
AcDbSpline
210
0.0
220
0.0
230
1.0
 70
     8
 71
     3
 72
    11
 73
     7
 74
     0
 42
0.000000001
 43
0.00000001
 40
0.0
 40
0.0
 40
0.0
 40
0.0
 40
0.3504930628620038
 40
0.5066739929922781
 40
0.887646510466943
 40
1.0
 40
1.0
 40
1.0
 40
1.0
 10
712.7834673415152
 20
2527.064615137618
 30
0.0
 10
712.5466229958978
 20
2527.063794648272
 30
0.0
 10
712.2042399845715
 20
2527.062608546014
 30
0.0
 10
711.5637225203158
 20
2527.060701829729
 30
0.0
 10
711.0753648731198
 20
2527.065530623182
 30
0.0
 10
710.7688751285705
 20
2527.063702120184
 30
0.0
 10
710.6990730264777
 20
2527.063285684217
 30
0.0
  0
ARC
  5
17C
330
1F
100
AcDbEntity
  8
0
  6
Continuous
 62
     7
370
    15
100
AcDbCircle
 10
461.3293842148
 20
2062.7363735621
 30
0.0
 40
10.01817480375799
100
AcDbArc
 50
166.8862399411
 51
278.4582573035
  0
ARC
  5
17D
330
1F
100
AcDbEntity
  8
0
  6
Continuous
 62
     7
370
    15
100
AcDbCircle
 10
458.5682377518
 20
2586.0090994361
 30
0.0
 40
10.0001218007146
100
AcDbArc
 50
40.3214831779
 51
219.7559080008
  0
ARC
  5
17E
330
1F
100
AcDbEntity
  8
0
  6
Continuous
 62
     7
370
    15
100
AcDbCircle
 10
458.2679124417
 20
2586.3665226951
 30
0.0
 40
10.00012177544908
100
AcDbArc
 50
40.3214538466
 51
219.7559373322
  0
LINE
  5
17F
330
1F
100
AcDbEntity
  8
0
  6
Continuous
 62
     7
370
    15
100
AcDbLine
 10
461.3071787348
 20
2052.717040986
 30
0.0
 11
462.8101501308
 21
2052.8282465757
 31
0.0
  0
ARC
  5
180
330
1F
100
AcDbEntity
  8
0
  6
Continuous
 62
     7
370
    15
100
AcDbCircle
 10
461.3319088
 20
2062.7373406479
 30
0.0
 40
10.0203301786584
100
AcDbArc
 50
166.3694116259
 51
269.8585944998
  0
LWPOLYLINE
  5
181
330
1F
100
AcDbEntity
  8
0
  6
Continuous
 62
     7
370
    15
100
AcDbPolyline
 90
        3
 70
   128
 43
0.0
 10
461.0438133847
 20
2052.4963539409
 10
462.9318872996
 20
2052.6733477024
 10
462.989838035
 20
2052.6846004954
  0
ARC
  5
182
330
1F
100
AcDbEntity
  8
0
  6
Continuous
 62
     7
370
    15
100
AcDbCircle
 10
461.0681321384
 20
2062.516005807
 30
0.0
 40
10.01968137815159
100
AcDbArc
 50
164.0285807042
 51
269.8609373628
  0
ARC
  5
183
330
1F
100
AcDbEntity
  8
0
  6
Continuous
 62
     7
370
    15
100
AcDbCircle
 10
964.8808824924
 20
2586.0091136836
 30
0.0
 40
10.00012170888503
100
AcDbArc
 50
320.2439853785
 51
139.6786234427
  0
ARC
  5
184
330
1F
100
AcDbEntity
  8
0
  6
Continuous
 62
     7
370
    15
100
AcDbCircle
 10
965.1812045092
 20
2586.366533023
 30
0.0
 40
10.00012170888541
100
AcDbArc
 50
320.2439853785
 51
139.6786234427
  0
ARC
  5
185
330
1F
100
AcDbEntity
  8
0
  6
Continuous
 62
     7
370
    15
100
AcDbCircle
 10
962.1196231369
 20
2062.7366001162
 30
0.0
 40
10.01822877497497
100
AcDbArc
 50
260.8438035221
 51
13.0591017584
  0
ARC
  5
186
330
1F
100
AcDbEntity
  8
0
  6
Continuous
 62
     7
370
    15
100
AcDbCircle
 10
962.384044432
 20
2062.5150992524
 30
0.0
 40
10.01704281026094
100
AcDbArc
 50
258.4610071559
 51
15.5938677604
  0
ARC
  5
187
330
1F
100
AcDbEntity
  8
0
  6
Continuous
 62
     7
370
    15
100
AcDbCircle
 10
962.1196860077
 20
2062.7364078135
 30
0.0
 40
10.0182200530177
100
AcDbArc
 50
261.6215709816
 51
12.9896393744
  0
ARC
  5
188
330
1F
100
AcDbEntity
  8
0
  6
Continuous
 62
     7
370
    15
100
AcDbCircle
 10
964.8808705209
 20
2586.0090994361
 30
0.0
 40
10.00012180071483
100
AcDbArc
 50
320.2440919992
 51
139.6785168221
  0
ARC
  5
189
330
1F
100
AcDbEntity
  8
0
  6
Continuous
 62
     7
370
    15
100
AcDbCircle
 10
762.2217780684
 20
2274.0012549016
 30
0.0
 40
199.5015405448446
100
AcDbArc
 50
326.6599773136
 51
31.4653263067
  0
ARC
  5
18A
330
1F
100
AcDbEntity
  8
0
  6
Continuous
 62
     7
370
    15
100
AcDbCircle
 10
661.2273302044
 20
2274.002385744
 30
0.0
 40
199.5015405448426
100
AcDbArc
 50
146.6599773136
 51
211.4653263067
  0
ARC
  5
18B
330
1F
100
AcDbEntity
  8
0
  6
Continuous
 62
     7
370
    15
100
AcDbCircle
 10
661.5856902396
 20
2273.6136874187
 30
0.0
 40
199.8611818506415
100
AcDbArc
 50
180.0387664944
 51
270.0398092105
  0
ARC
  5
18C
330
1F
100
AcDbEntity
  8
0
  6
Continuous
 62
     7
370
    15
100
AcDbCircle
 10
761.8634180331
 20
2273.6136874187
 30
0.0
 40
199.861181850641
100
AcDbArc
 50
269.9601907895
 51
359.9612335056
  0
LINE
  5
18D
330
1F
100
AcDbEntity
  8
0
  6
Continuous
 62
     7
370
    15
100
AcDbLine
 10
761.7245541364
 20
2073.7525538095
 30
0.0
 11
761.7245541364
 21
2073.749812879
 31
0.0
  0
LINE
  5
18E
330
1F
100
AcDbEntity
  8
0
  6
Continuous
 62
     7
370
    15
100
AcDbLine
 10
661.7245541364
 20
2073.749812879
 30
0.0
 11
661.7245541364
 21
2073.7525538095
 31
0.0
  0
LINE
  5
18F
330
1F
100
AcDbEntity
  8
0
  6
Continuous
 62
     7
370
    15
100
AcDbLine
 10
2459.5704937929
 20
314.6614821821
 30
0.0
 11
2459.5704937929
 21
308.6614821821
 31
0.0
  0
LINE
  5
190
330
1F
100
AcDbEntity
  8
0
  6
Continuous
 62
     7
370
    15
100
AcDbLine
 10
2489.5704937929
 20
308.6614821821
 30
0.0
 11
2489.5704937929
 21
314.6614821821
 31
0.0
  0
LINE
  5
191
330
1F
100
AcDbEntity
  8
0
  6
Continuous
 62
     7
370
    15
100
AcDbLine
 10
2489.5704937929
 20
314.6614821821
 30
0.0
 11
2481.98669228
 21
320.6614821821
 31
0.0
  0
LINE
  5
192
330
1F
100
AcDbEntity
  8
0
  6
Continuous
 62
     7
370
    15
100
AcDbLine
 10
2467.1542953058
 20
320.6614821821
 30
0.0
 11
2459.5704937929
 21
314.6614821821
 31
0.0
  0
LINE
  5
193
330
1F
100
AcDbEntity
  8
0
  6
Continuous
 62
     7
370
    15
100
AcDbLine
 10
1964.4910808262
 20
314.6238297532
 30
0.0
 11
1956.9072793133
 21
320.6238297532
 31
0.0
  0
LINE
  5
194
330
1F
100
AcDbEntity
  8
0
  6
Continuous
 62
     7
370
    15
100
AcDbLine
 10
1942.0748823391
 20
320.6238297532
 30
0.0
 11
1934.4910808262
 21
314.6238297532
 31
0.0
  0
LINE
  5
195
330
1F
100
AcDbEntity
  8
0
  6
Continuous
 62
     7
370
    15
100
AcDbLine
 10
1934.4910808262
 20
314.6238297532
 30
0.0
 11
1934.4910808262
 21
308.6238297532
 31
0.0
  0
LINE
  5
196
330
1F
100
AcDbEntity
  8
0
  6
Continuous
 62
     7
370
    15
100
AcDbLine
 10
1964.4910808262
 20
308.6238297532
 30
0.0
 11
1964.4910808262
 21
314.6238297532
 31
0.0
  0
LINE
  5
197
330
1F
100
AcDbEntity
  8
0
  6
Continuous
 62
     7
370
    15
100
AcDbLine
 10
1987.3019742618
 20
609.4485184717
 30
0.0
 11
1939.1610868465
 21
611.9714754738
 31
0.0
  0
LINE
  5
198
330
1F
100
AcDbEntity
  8
0
  6
Continuous
 62
     7
370
    15
100
AcDbLine
 10
1938.1143677217
 20
591.9988847787
 30
0.0
 11
1986.2552551369
 21
589.4759277766
 31
0.0
  0
LINE
  5
199
330
1F
100
AcDbEntity
  8
0
  6
Continuous
 62
     7
370
    15
100
AcDbLine
 10
2440.4145897439
 20
585.7018925291
 30
0.0
 11
1987.3019742618
 21
609.4485184717
 31
0.0
  0
LINE
  5
19A
330
1F
100
AcDbEntity
  8
0
  6
Continuous
 62
     7
370
    15
100
AcDbLine
 10
1986.2552551369
 20
589.4759277766
 30
0.0
 11
2442.2249891905
 21
565.5795665945
 31
0.0
  0
LINE
  5
19B
330
1F
100
AcDbEntity
  8
0
  6
Continuous
 62
     7
370
    15
100
AcDbLine
 10
2327.3572132335
 20
997.6834648657
 30
0.0
 11
2330.8696939005
 21
997.4993835542
 31
0.0
  0
LINE
  5
19C
330
1F
100
AcDbEntity
  8
0
  6
Continuous
 62
     7
370
    15
100
AcDbLine
 10
2331.9211152308
 20
1017.4717278172
 30
0.0
 11
2328.3463786556
 21
1017.6590718226
 31
0.0
  0
SPLINE
  5
19D
330
1F
100
AcDbEntity
  8
0
  6
Continuous
 62
     7
370
    15
100
AcDbSpline
210
0.0
220
0.0
230
1.0
 70
     8
 71
     3
 72
    25
 73
    21
 74
     0
 42
0.000000001
 43
0.00000001
 40
0.0
 40
0.0
 40
0.0
 40
0.0
 40
0.0274148340347606
 40
0.0876362340842902
 40
0.1478793333832086
 40
0.2081225838088104
 40
0.2683647439739416
 40
0.3286047652022296
 40
0.3888416924402695
 40
0.449074705033316
 40
0.5093031512324567
 40
0.5695265748539506
 40
0.6297447330943503
 40
0.6899576049817105
 40
0.7501653904011032
 40
0.8103685000434236
 40
0.8705675369711968
 40
0.9307632707677039
 40
0.9877977608531693
 40
1.0
 40
1.0
 40
1.0
 40
1.0
 10
2379.870265282323
 20
1048.945156281151
 30
0.0
 10
2379.901613171246
 20
1048.479979747697
 30
0.0
 10
2380.001822092015
 20
1046.992962918612
 30
0.0
 10
2379.950557207752
 20
1044.473212918971
 30
0.0
 10
2379.586778078048
 20
1041.417400868198
 30
0.0
 10
2378.907234738595
 20
1038.41438703805
 30
0.0
 10
2377.924025607218
 20
1035.496780046661
 30
0.0
 10
2376.646191609027
 20
1032.695158445481
 30
0.0
 10
2375.087551003276
 20
1030.039084319253
 30
0.0
 10
2373.264438614672
 20
1027.556525492032
 30
0.0
 10
2371.196098151651
 20
1025.273630122174
 30
0.0
 10
2368.904325379526
 20
1023.214432742801
 30
0.0
 10
2366.413275661855
 20
1021.400599975379
 30
0.0
 10
2363.749198905565
 20
1019.851224364327
 30
0.0
 10
2360.940152614117
 20
1018.582540402599
 30
0.0
 10
2358.015744933494
 20
1017.608071899336
 30
0.0
 10
2355.006668395668
 20
1016.937311952218
 30
0.0
 10
2351.998504870572
 20
1016.586279730658
 30
0.0
 10
2349.788817060967
 20
1016.544458353392
 30
0.0
 10
2348.610072102983
 20
1016.598465688892
 30
0.0
 10
2348.402330806855
 20
1016.607983908929
 30
0.0
  0
SPLINE
  5
19E
330
1F
100
AcDbEntity
  8
0
  6
Continuous
 62
     7
370
    15
100
AcDbSpline
210
0.0
220
0.0
230
1.0
 70
     8
 71
     3
 72
    17
 73
    13
 74
     0
 42
0.000000001
 43
0.00000001
 40
0.0
 40
0.0
 40
0.0
 40
0.0
 40
0.0956051401419497
 40
0.1977912002365521
 40
0.2999748170982559
 40
0.4021561399332711
 40
0.5043353764465845
 40
0.6065127876497519
 40
0.7086886812569734
 40
0.8108634038381055
 40
0.913037331934422
 40
1.0
 40
1.0
 40
1.0
 40
1.0
 10
2388.311900042447
 20
1014.46758856646
 30
0.0
 10
2389.090010468919
 20
1015.432102460502
 30
0.0
 10
2390.69979206581
 20
1017.427521958495
 30
0.0
 10
2392.825736999082
 20
1020.688142074786
 30
0.0
 10
2394.747946637534
 20
1024.166554705525
 30
0.0
 10
2396.381727898633
 20
1027.790666691704
 30
0.0
 10
2397.723833397984
 20
1031.531840936886
 30
0.0
 10
2398.763426923614
 20
1035.367934212092
 30
0.0
 10
2399.496348707713
 20
1039.274465248261
 30
0.0
 10
2399.910747733415
 20
1043.22624155011
 30
0.0
 10
2400.024587968926
 20
1047.003377445523
 30
0.0
 10
2399.873362794934
 20
1049.44932574298
 30
0.0
 10
2399.803831329972
 20
1050.573942523729
 30
0.0
  0
LINE
  5
19F
330
1F
100
AcDbEntity
  8
0
  6
Continuous
 62
     7
370
    15
100
AcDbLine
 10
2399.80383133
 20
1050.5739425237
 30
0.0
 11
2387.6921703887
 21
1198.8000184868
 31
0.0
  0
LINE
  5
1A0
330
1F
100
AcDbEntity
  8
0
  6
Continuous
 62
     7
370
    15
100
AcDbLine
 10
2367.758604341
 20
1197.1712322442
 30
0.0
 11
2379.8702652823
 21
1048.9451562812
 31
0.0
  0
SPLINE
  5
1A1
330
1F
100
AcDbEntity
  8
0
  6
Continuous
 62
     7
370
    15
100
AcDbSpline
210
0.0
220
0.0
230
1.0
 70
     8
 71
     3
 72
    12
 73
     8
 74
     0
 42
0.000000001
 43
0.00000001
 40
0.0
 40
0.0
 40
0.0
 40
0.0
 40
0.1516953388352829
 40
0.4096720879804809
 40
0.6676937137780907
 40
0.9257179707765719
 40
1.0
 40
1.0
 40
1.0
 40
1.0
 10
2368.871382352706
 20
1212.457909477881
 30
0.0
 10
2368.707030269647
 20
1211.697475877371
 30
0.0
 10
2368.263177073184
 20
1209.643830569059
 30
0.0
 10
2367.794571325428
 20
1206.247005492306
 30
0.0
 10
2367.552070813128
 20
1202.282008055957
 30
0.0
 10
2367.603697317536
 20
1199.250752691521
 30
0.0
 10
2367.730303458761
 20
1197.551152160194
 30
0.0
 10
2367.758604341026
 20
1197.171232244229
 30
0.0
  0
SPLINE
  5
1A2
330
1F
100
AcDbEntity
  8
0
  6
Continuous
 62
     7
370
    15
100
AcDbSpline
210
0.0
220
0.0
230
1.0
 70
     8
 71
     3
 72
    11
 73
     7
 74
     0
 42
0.000000001
 43
0.00000001
 40
0.0
 40
0.0
 40
0.0
 40
0.0
 40
0.1517126474224495
 40
0.4849270490481107
 40
0.8182724019545522
 40
1.0
 40
1.0
 40
1.0
 40
1.0
 10
2387.692170388675
 20
1198.800018486807
 30
0.0
 10
2387.66075410578
 20
1199.265239886593
 30
0.0
 10
2387.560336601933
 20
1200.752251315006
 30
0.0
 10
2387.614539719292
 20
1203.270760737873
 30
0.0
 10
2387.912166031239
 20
1205.865116062345
 30
0.0
 10
2388.242304482414
 20
1207.412826513343
 30
0.0
 10
2388.358783648411
 20
1207.958888391005
 30
0.0
  0
LINE
  5
1A3
330
1F
100
AcDbEntity
  8
0
  6
Continuous
 62
     7
370
    15
100
AcDbLine
 10
2399.580253006
 20
1256.5644121875
 30
0.0
 11
2405.7570360875
 21
1283.3189990856
 31
0.0
  0
LINE
  5
1A4
330
1F
100
AcDbEntity
  8
0
  6
Continuous
 62
     7
370
    15
100
AcDbLine
 10
2388.3587836484
 20
1207.958888391
 30
0.0
 11
2398.4646853454
 21
1251.7323577792
 31
0.0
  0
LINE
  5
1A5
330
1F
100
AcDbEntity
  8
0
  6
Continuous
 62
     7
370
    15
100
AcDbLine
 10
2405.7570360875
 20
1283.3189990856
 30
0.0
 11
2414.2599940468
 21
1320.1493563465
 31
0.0
  0
LINE
  5
1A6
330
1F
100
AcDbEntity
  8
0
  6
Continuous
 62
     7
370
    15
100
AcDbLine
 10
2414.516293399
 20
1322.6559452482
 30
0.0
 11
2414.5129686197
 21
1322.656712834
 31
0.0
  0
LINE
  5
1A7
330
1F
100
AcDbEntity
  8
0
  6
Continuous
 62
     7
370
    15
100
AcDbLine
 10
2284.2311405667
 20
1019.9710534834
 30
0.0
 11
2084.0967934145
 21
1030.4596501759
 31
0.0
  0
LINE
  5
1A8
330
1F
100
AcDbEntity
  8
0
  6
Continuous
 62
     7
370
    15
100
AcDbLine
 10
2083.0500742896
 20
1010.4870594808
 30
0.0
 11
2283.1844214419
 21
999.9984627883
 31
0.0
  0
SPLINE
  5
1A9
330
1F
100
AcDbEntity
  8
0
  6
Continuous
 62
     7
370
    15
100
AcDbSpline
210
0.0
220
0.0
230
1.0
 70
     8
 71
     3
 72
    10
 73
     6
 74
     0
 42
0.000000001
 43
0.00000001
 40
0.0
 40
0.0
 40
0.0
 40
0.0
 40
0.4438559941304476
 40
0.775971949039034
 40
1.0
 40
1.0
 40
1.0
 40
1.0
 10
2469.309812723558
 20
324.1529622727824
 30
0.0
 10
2469.299184067321
 20
324.0163952476673
 30
0.0
 10
2469.280602502118
 20
323.7776417283855
 30
0.0
 10
2469.122820075229
 20
323.5227819061101
 30
0.0
 10
2469.038208091159
 20
323.4445265190993
 30
0.0
 10
2469.004124368816
 20
323.4130033854428
 30
0.0
  0
SPLINE
  5
1AA
330
1F
100
AcDbEntity
  8
0
  6
Continuous
 62
     7
370
    15
100
AcDbSpline
210
0.0
220
0.0
230
1.0
 70
     8
 71
     3
 72
    10
 73
     6
 74
     0
 42
0.000000001
 43
0.00000001
 40
0.0
 40
0.0
 40
0.0
 40
0.0
 40
0.4211407755929463
 40
0.7362605039644302
 40
1.0
 40
1.0
 40
1.0
 40
1.0
 10
1945.228672679855
 20
324.8824276180835
 30
0.0
 10
1945.207662190265
 20
324.7441513806436
 30
0.0
 10
1945.170930544813
 20
324.5024095732385
 30
0.0
 10
1944.976060064021
 20
324.236976551056
 30
0.0
 10
1944.858198097847
 20
324.148971005534
 30
0.0
 10
1944.804497898819
 20
324.1088739711504
 30
0.0
  0
LINE
  5
1AB
330
1F
100
AcDbEntity
  8
0
  6
Continuous
 62
     7
370
    15
100
AcDbLine
 10
2463.5384644405
 20
328.6833961967
 30
0.0
 11
2463.89588378
 21
324.7107323421
 31
0.0
  0
LINE
  5
1AC
330
1F
100
AcDbEntity
  8
0
  6
Continuous
 62
     7
370
    15
100
AcDbLine
 10
2483.815426448
 20
326.5028874408
 30
0.0
 11
2483.4580071085
 21
330.4755512954
 31
0.0
  0
LWPOLYLINE
  5
1AD
330
1F
100
AcDbEntity
  8
0
  6
Continuous
 62
     7
370
    15
100
AcDbPolyline
 90
        3
 70
   128
 43
0.0
 10
2469.0250538686
 20
323.4275983833
 10
2467.9339899037
 20
322.1287874246
 10
2467.1542953058
 20
320.6614821821
  0
ARC
  5
1AE
330
1F
100
AcDbEntity
  8
0
  6
Continuous
 62
     7
370
    15
100
AcDbCircle
 10
2474.5704937929
 20
317.6614821821
 30
0.0
 40
8.000000000000412
100
AcDbArc
 50
22.024312837
 51
56.3997210294
  0
SPLINE
  5
1AF
330
1F
100
AcDbEntity
  8
0
  6
Continuous
 62
     7
370
    15
100
AcDbSpline
210
0.0
220
0.0
230
1.0
 70
     8
 71
     3
 72
    16
 73
    12
 74
     0
 42
0.000000001
 43
0.00000001
 40
0.0
 40
0.0
 40
0.0
 40
0.0
 40
0.0930306139049793
 40
0.2347033499864116
 40
0.3858764627972356
 40
0.5342071881619351
 40
0.6540996352469418
 40
0.7588270855994217
 40
0.8580382705620136
 40
0.9783530401614091
 40
0.9999999999999999
 40
0.9999999999999999
 40
0.9999999999999999
 40
0.9999999999999999
 10
2478.981507172136
 20
324.3424322721547
 30
0.0
 10
2478.933491976715
 20
324.3770748738229
 30
0.0
 10
2478.812356290917
 20
324.4644733582842
 30
0.0
 10
2478.629302402579
 20
324.7413667597471
 30
0.0
 10
2478.553679739126
 20
325.1145927026648
 30
0.0
 10
2478.624936662892
 20
325.4695980163529
 30
0.0
 10
2478.778358709643
 20
325.7203491867232
 30
0.0
 10
2478.925679856071
 20
325.8581345304128
 30
0.0
 10
2479.019335846137
 20
325.9187409237936
 30
0.0
 10
2479.058572996231
 20
325.93489354653
 30
0.0
 10
2479.046195852831
 20
325.9303960245005
 30
0.0
 10
2479.044308530613
 20
325.9297102222133
 30
0.0
  0
SPLINE
  5
1B0
330
1F
100
AcDbEntity
  8
0
  6
Continuous
 62
     7
370
    15
100
AcDbSpline
210
0.0
220
0.0
230
1.0
 70
     8
 71
     3
 72
    15
 73
    11
 74
     0
 42
0.000000001
 43
0.00000001
 40
0.0
 40
0.0
 40
0.0
 40
0.0
 40
0.0397925774209912
 40
0.1969844336528514
 40
0.3127109823057349
 40
0.4426414234008768
 40
0.5922589179234485
 40
0.7472571718667532
 40
0.887898130687798
 40
1.0
 40
1.0
 40
1.0
 40
1.0
 10
2468.698546079153
 20
324.9972918332322
 30
0.0
 10
2468.694757338762
 20
324.9979287377638
 30
0.0
 10
2468.676002009791
 20
325.0010815940643
 30
0.0
 10
2468.747603476202
 20
324.985508579383
 30
0.0
 10
2468.922321526056
 20
324.8933944461832
 30
0.0
 10
2469.13864432029
 20
324.6940861522861
 30
0.0
 10
2469.301036018601
 20
324.3703358520713
 30
0.0
 10
2469.327638530997
 20
323.9937060723749
 30
0.0
 10
2469.222691768931
 20
323.6661623990543
 30
0.0
 10
2469.113659996847
 20
323.5309391884312
 30
0.0
 10
2469.065299908629
 20
323.470962116887
 30
0.0
  0
LINE
  5
1B1
330
1F
100
AcDbEntity
  8
0
  6
Continuous
 62
     7
370
    15
100
AcDbLine
 10
1940.168439544
 20
330.1323911315
 30
0.0
 11
1939.9477524989
 21
326.1471764672
 31
0.0
  0
LINE
  5
1B2
330
1F
100
AcDbEntity
  8
0
  6
Continuous
 62
     7
370
    15
100
AcDbLine
 10
1959.9171573338
 20
325.0413416964
 30
0.0
 11
1960.1378443789
 21
329.0265563607
 31
0.0
  0
ARC
  5
1B3
330
1F
100
AcDbEntity
  8
0
  6
Continuous
 62
     7
370
    15
100
AcDbCircle
 10
1949.4910808262
 20
317.6238297532
 30
0.0
 40
8.000000000000075
100
AcDbArc
 50
125.6184039371
 51
157.975687163
  0
ARC
  5
1B4
330
1F
100
AcDbEntity
  8
0
  6
Continuous
 62
     7
370
    15
100
AcDbCircle
 10
1949.4910808262
 20
317.6238297532
 30
0.0
 40
8.00000000000004
100
AcDbArc
 50
22.024312837
 51
48.0423967317
  0
SPLINE
  5
1B5
330
1F
100
AcDbEntity
  8
0
  6
Continuous
 62
     7
370
    15
100
AcDbSpline
210
0.0
220
0.0
230
1.0
 70
     8
 71
     3
 72
    16
 73
    12
 74
     0
 42
0.000000001
 43
0.00000001
 40
0.0
 40
0.0
 40
0.0
 40
0.0
 40
0.1268876436576605
 40
0.2721601298960863
 40
0.4218400583224912
 40
0.5565513446629087
 40
0.6685404095614236
 40
0.7664761827210431
 40
0.8604884749896963
 40
0.9779094916907832
 40
1.0
 40
1.0
 40
1.0
 40
1.0
 10
1954.802590625882
 20
323.6086856298276
 30
0.0
 10
1954.742140435776
 20
323.6801089092755
 30
0.0
 10
1954.612481383743
 20
323.8333040388546
 30
0.0
 10
1954.506263411973
 20
324.1854407963025
 30
0.0
 10
1954.539772881967
 20
324.5551342235883
 30
0.0
 10
1954.689879910796
 20
324.8555801768906
 30
0.0
 10
1954.876490571318
 20
325.04463952176
 30
0.0
 10
1955.032002486086
 20
325.1394556504499
 30
0.0
 10
1955.125888532026
 20
325.1779091398693
 30
0.0
 10
1955.164150210418
 20
325.1864714006668
 30
0.0
 10
1955.151962325436
 20
325.1842392988094
 30
0.0
 10
1955.150032473587
 20
325.1838858637464
 30
0.0
  0
SPLINE
  5
1B6
330
1F
100
AcDbEntity
  8
0
  6
Continuous
 62
     7
370
    15
100
AcDbSpline
210
0.0
220
0.0
230
1.0
 70
     8
 71
     3
 72
    15
 73
    11
 74
     0
 42
0.000000001
 43
0.00000001
 40
0.0
 40
0.0
 40
0.0
 40
0.0
 40
0.1211276626503483
 40
0.2422130044670145
 40
0.3846286182984501
 40
0.5475737008590017
 40
0.7160672799896727
 40
0.8692094196472111
 40
0.9960388829955913
 40
1.0
 40
1.0
 40
1.0
 40
1.0
 10
1944.732388521721
 20
325.7459666416399
 30
0.0
 10
1944.750681557333
 20
325.7381858716072
 30
0.0
 10
1944.787261237148
 20
325.7226270500676
 30
0.0
 10
1944.953126338861
 20
325.6020162102348
 30
0.0
 10
1945.134051339272
 20
325.3710041064602
 30
0.0
 10
1945.246644935553
 20
325.0297648503032
 30
0.0
 10
1945.218490884462
 20
324.6540520199493
 30
0.0
 10
1945.075316912214
 20
324.3577906045049
 30
0.0
 10
1944.932461900439
 20
324.1988328709513
 30
0.0
 10
1944.876093229967
 20
324.1612970998298
 30
0.0
 10
1944.87438605122
 20
324.1601602933345
 30
0.0
  0
LINE
  5
1B7
330
1F
100
AcDbEntity
  8
0
  6
Continuous
 62
     7
370
    15
100
AcDbLine
 10
2483.4580071085
 20
330.4755512954
 30
0.0
 11
2425.9039191185
 21
970.1808492644
 31
0.0
  0
LINE
  5
1B8
330
1F
100
AcDbEntity
  8
0
  6
Continuous
 62
     7
370
    15
100
AcDbLine
 10
2405.9843764505
 20
968.3886941657
 30
0.0
 11
2463.5384644405
 21
328.6833961967
 31
0.0
  0
LINE
  5
1B9
330
1F
100
AcDbEntity
  8
0
  6
Continuous
 62
     7
370
    15
100
AcDbLine
 10
1976.6088084373
 20
988.1807450121
 30
0.0
 11
1955.7276033816
 21
611.1032611317
 31
0.0
  0
LINE
  5
1BA
330
1F
100
AcDbEntity
  8
0
  6
Continuous
 62
     7
370
    15
100
AcDbLine
 10
1954.621764178
 20
591.1337687887
 30
0.0
 11
1940.1684395439
 21
330.1323911298
 31
0.0
  0
LINE
  5
1BB
330
1F
100
AcDbEntity
  8
0
  6
Continuous
 62
     7
370
    15
100
AcDbLine
 10
1960.1378443791
 20
329.0265563646
 30
0.0
 11
1974.5944423724
 21
590.0870450782
 31
0.0
  0
LINE
  5
1BC
330
1F
100
AcDbEntity
  8
0
  6
Continuous
 62
     7
370
    15
100
AcDbLine
 10
1975.700281576
 20
610.0565374212
 30
0.0
 11
1996.5782132725
 21
987.0749102469
 31
0.0
  0
SPLINE
  5
1BD
330
1F
100
AcDbEntity
  8
0
  6
Continuous
 62
     7
370
    15
100
AcDbSpline
210
0.0
220
0.0
230
1.0
 70
     8
 71
     3
 72
    27
 73
    23
 74
     0
 42
0.000000001
 43
0.00000001
 40
0.0
 40
0.0
 40
0.0
 40
0.0
 40
0.0261614316109338
 40
0.0750496178476361
 40
0.1238639401105253
 40
0.1727850464504691
 40
0.2220453896450552
 40
0.2718475025116695
 40
0.3223468433079589
 40
0.3736350826641804
 40
0.4257282450558467
 40
0.4785656925914048
 40
0.5320240292044429
 40
0.585943994629472
 40
0.6401618464736768
 40
0.6945349564331366
 40
0.7489391233027466
 40
0.8033057148221339
 40
0.8576070049400772
 40
0.9118380692869229
 40
0.9660098814905231
 40
1.0
 40
1.0
 40
1.0
 40
1.0
 10
2013.572886357174
 20
1034.144563211064
 30
0.0
 10
2013.057281069221
 20
1034.166827033006
 30
0.0
 10
2011.578157892913
 20
1034.23069553047
 30
0.0
 10
2009.134643542459
 20
1034.06342230988
 30
0.0
 10
2006.275410427141
 20
1033.580720749513
 30
0.0
 10
2003.468447007162
 20
1032.784782407582
 30
0.0
 10
2000.727861836825
 20
1031.691154805947
 30
0.0
 10
1998.065262849274
 20
1030.302032064309
 30
0.0
 10
1995.492771339354
 20
1028.622378540312
 30
0.0
 10
1993.023624746845
 20
1026.656941422368
 30
0.0
 10
1990.672637220863
 20
1024.412872796968
 30
0.0
 10
1988.455962282704
 20
1021.900846098441
 30
0.0
 10
1986.390246534659
 20
1019.135980264796
 30
0.0
 10
1984.49143026973
 20
1016.137740685135
 30
0.0
 10
1982.773615971693
 20
1012.929016639942
 30
0.0
 10
1981.248599644568
 20
1009.535094260312
 30
0.0
 10
1979.925284288961
 20
1005.982088053476
 30
0.0
 10
1978.810643610665
 20
1002.295760831768
 30
0.0
 10
1977.907455005543
 20
998.5009904896796
 30
0.0
 10
1977.225206983174
 20
994.6210186754099
 30
0.0
 10
1976.802208565402
 20
991.1700430328771
 30
0.0
 10
1976.667922303112
 20
989.0121643066568
 30
0.0
 10
1976.616149322047
 20
988.180211636836
 30
0.0
  0
SPLINE
  5
1BE
330
1F
100
AcDbEntity
  8
0
  6
Continuous
 62
     7
370
    15
100
AcDbSpline
210
0.0
220
0.0
230
1.0
 70
     8
 71
     3
 72
    24
 73
    20
 74
     0
 42
0.000000001
 43
0.00000001
 40
0.0
 40
0.0
 40
0.0
 40
0.0
 40
0.0311605929229072
 40
0.0923000264361241
 40
0.1533086942146691
 40
0.2141002667120171
 40
0.2746175318326246
 40
0.3348167087810097
 40
0.3946760835962289
 40
0.4542091170463582
 40
0.5134840117098398
 40
0.5726527334345857
 40
0.6319099374778061
 40
0.6916375458952115
 40
0.7524895629168152
 40
0.8155219552857828
 40
0.8824575696877527
 40
0.9561204725364417
 40
1.0
 40
1.0
 40
1.0
 40
1.0
 10
1996.56224560029
 20
986.770357751634
 30
0.0
 10
1996.592729335401
 20
987.290356510978
 30
0.0
 10
1996.683024457948
 20
988.830632055572
 30
0.0
 10
1996.967102271562
 20
991.3598157474942
 30
0.0
 10
1997.470862935719
 20
994.3032981010782
 30
0.0
 10
1998.140523260094
 20
997.1301263245269
 30
0.0
 10
1998.960109418702
 20
999.8079488856956
 30
0.0
 10
1999.914203778714
 20
1002.306856156393
 30
0.0
 10
2000.983153456303
 20
1004.600210158215
 30
0.0
 10
2002.144630394491
 20
1006.66539742865
 30
0.0
 10
2003.373786146307
 20
1008.484812093589
 30
0.0
 10
2004.643608218211
 20
1010.046122921469
 30
0.0
 10
2005.926269817494
 20
1011.343868067907
 30
0.0
 10
2007.195581349265
 20
1012.380893468151
 30
0.0
 10
2008.431471717205
 20
1013.168705921784
 30
0.0
 10
2009.626014506948
 20
1013.727268295464
 30
0.0
 10
2010.7946386917
 20
1014.074658307521
 30
0.0
 10
2011.774054684643
 20
1014.206739071548
 30
0.0
 10
2012.392117006709
 20
1014.185328992101
 30
0.0
 10
2012.622844604932
 20
1014.177336438547
 30
0.0
  0
SPLINE
  5
1BF
330
1F
100
AcDbEntity
  8
0
  6
Continuous
 62
     7
370
    15
100
AcDbSpline
210
0.0
220
0.0
230
1.0
 70
     8
 71
     3
 72
    25
 73
    21
 74
     0
 42
0.000000001
 43
0.00000001
 40
0.0
 40
0.0
 40
0.0
 40
0.0
 40
0.0321430790772579
 40
0.0900213839308729
 40
0.1479586771964926
 40
0.2059375919434189
 40
0.2639516568727743
 40
0.3219809142002084
 40
0.3799963358982391
 40
0.4379557543596987
 40
0.4958036647613897
 40
0.5534731613744666
 40
0.6108906118552726
 40
0.667983111465617
 40
0.724687868139091
 40
0.7809618003868916
 40
0.8367892685463588
 40
0.8921862800021976
 40
0.9472005168888512
 40
1.0
 40
1.0
 40
1.0
 40
1.0
 10
2425.903919118487
 20
970.180849264403
 30
0.0
 10
2425.829543199301
 20
970.9180235675485
 30
0.0
 10
2425.621242583169
 20
972.9825877870471
 30
0.0
 10
2425.075593978583
 20
976.3403554260823
 30
0.0
 10
2424.194590065601
 20
980.2129011441176
 30
0.0
 10
2423.05960121514
 20
983.9909345355932
 30
0.0
 10
2421.68051055646
 20
987.650244455154
 30
0.0
 10
2420.062812152812
 20
991.1664760845158
 30
0.0
 10
2418.215303174134
 20
994.5155987626438
 30
0.0
 10
2416.148282276115
 20
997.6739465093523
 30
0.0
 10
2413.874324310164
 20
1000.618506444618
 30
0.0
 10
2411.408299604446
 20
1003.327318136626
 30
0.0
 10
2408.767443868192
 20
1005.780035072061
 30
0.0
 10
2405.971184323222
 20
1007.958454457028
 30
0.0
 10
2403.040776139401
 20
1009.847326188615
 30
0.0
 10
2399.998701416106
 20
1011.433822703272
 30
0.0
 10
2396.868158532308
 20
1012.711123267763
 30
0.0
 10
2393.671882530484
 20
1013.665640957269
 30
0.0
 10
2390.471026814937
 20
1014.315793069217
 30
0.0
 10
2388.329124397867
 20
1014.486756711913
 30
0.0
 10
2387.280173109495
 20
1014.570482530532
 30
0.0
  0
SPLINE
  5
1C0
330
1F
100
AcDbEntity
  8
0
  6
Continuous
 62
     7
370
    15
100
AcDbSpline
210
0.0
220
0.0
230
1.0
 70
     8
 71
     3
 72
    22
 73
    18
 74
     0
 42
0.000000001
 43
0.00000001
 40
0.0
 40
0.0
 40
0.0
 40
0.0
 40
0.0325022944802825
 40
0.1136222553442595
 40
0.1928637580436906
 40
0.268981076330212
 40
0.342280072513189
 40
0.4134898891111687
 40
0.4832888794643753
 40
0.5521922425361517
 40
0.6205620629798106
 40
0.6886412287058035
 40
0.7565849838827877
 40
0.8244817634520454
 40
0.8923695526303778
 40
0.9602744746731747
 40
1.0
 40
1.0
 40
1.0
 40
1.0
 10
2386.233453984637
 20
994.5978918354401
 30
0.0
 10
2386.507171776158
 20
994.578412575907
 30
0.0
 10
2387.464040615663
 20
994.5103165403505
 30
0.0
 10
2389.095495369927
 20
994.1920987439329
 30
0.0
 10
2391.11186775915
 20
993.4962125919587
 30
0.0
 10
2393.0680509148
 20
992.5025904718527
 30
0.0
 10
2394.940146472997
 20
991.2369823010544
 30
0.0
 10
2396.716385349067
 20
989.7139327865472
 30
0.0
 10
2398.385781675378
 20
987.9460419781949
 30
0.0
 10
2399.934875410275
 20
985.9459175433938
 30
0.0
 10
2401.347993438375
 20
983.7287640567179
 30
0.0
 10
2402.608648250296
 20
981.3131399637512
 30
0.0
 10
2403.700289160403
 20
978.7211019381103
 30
0.0
 10
2404.608999603999
 20
975.9783037560742
 30
0.0
 10
2405.317940305667
 20
973.1123960168807
 30
0.0
 10
2405.760631028476
 20
970.5651452573969
 30
0.0
 10
2405.924057182352
 20
968.9754410846165
 30
0.0
 10
2405.98437645049
 20
968.3886941656797
 30
0.0
  0
LINE
  5
1C1
330
1F
100
AcDbEntity
  8
0
  6
Continuous
 62
     7
370
    15
100
AcDbLine
 10
2330.8696939005
 20
997.4993835542
 30
0.0
 11
2386.2334539846
 21
994.5978918354
 31
0.0
  0
LINE
  5
1C2
330
1F
100
AcDbEntity
  8
0
  6
Continuous
 62
     7
370
    15
100
AcDbLine
 10
2283.1844214419
 20
999.9984627883
 30
0.0
 11
2327.0793415121
 21
997.6980275056
 31
0.0
  0
LINE
  5
1C3
330
1F
100
AcDbEntity
  8
0
  6
Continuous
 62
     7
370
    15
100
AcDbLine
 10
2328.1399730907
 20
1017.6698890799
 30
0.0
 11
2284.2311405667
 21
1019.9710534834
 31
0.0
  0
LINE
  5
1C4
330
1F
100
AcDbEntity
  8
0
  6
Continuous
 62
     7
370
    15
100
AcDbLine
 10
2387.2801731095
 20
1014.5704825305
 30
0.0
 11
2331.9211152308
 21
1017.4717278172
 31
0.0
  0
LINE
  5
1C5
330
1F
100
AcDbEntity
  8
0
  6
Continuous
 62
     7
370
    15
100
AcDbLine
 10
2037.7185701523
 20
1012.8627829442
 30
0.0
 11
2083.0500742896
 21
1010.4870594808
 31
0.0
  0
LINE
  5
1C6
330
1F
100
AcDbEntity
  8
0
  6
Continuous
 62
     7
370
    15
100
AcDbLine
 10
2012.5302605903
 20
1014.1828463122
 30
0.0
 11
2034.5385822437
 21
1013.0294390486
 31
0.0
  0
LINE
  5
1C7
330
1F
100
AcDbEntity
  8
0
  6
Continuous
 62
     7
370
    15
100
AcDbLine
 10
2035.5922003271
 20
1033.0016681846
 30
0.0
 11
2013.5769797151
 21
1034.1554370073
 31
0.0
  0
LINE
  5
1C8
330
1F
100
AcDbEntity
  8
0
  6
Continuous
 62
     7
370
    15
100
AcDbLine
 10
2084.0967934145
 20
1030.4596501759
 30
0.0
 11
2038.7799714908
 21
1032.8346041771
 31
0.0
  0
LINE
  5
1C9
330
1F
100
AcDbEntity
  8
0
  6
Continuous
 62
     7
370
    15
100
AcDbLine
 10
2459.7619884398
 20
308.6614821821
 30
0.0
 11
2489.5704937929
 21
308.6614821821
 31
0.0
  0
LINE
  5
1CA
330
1F
100
AcDbEntity
  8
0
  6
Continuous
 62
     7
370
    15
100
AcDbLine
 10
2459.5704937929
 20
308.6614821821
 30
0.0
 11
2459.7619884398
 21
308.6614821821
 31
0.0
  0
LINE
  5
1CB
330
1F
100
AcDbEntity
  8
0
  6
Continuous
 62
     7
370
    15
100
AcDbLine
 10
2459.7619884398
 20
314.6614821821
 30
0.0
 11
2489.5704937929
 21
314.6614821821
 31
0.0
  0
LINE
  5
1CC
330
1F
100
AcDbEntity
  8
0
  6
Continuous
 62
     7
370
    15
100
AcDbLine
 10
2459.5704937929
 20
314.6614821821
 30
0.0
 11
2459.7619884398
 21
314.6614821821
 31
0.0
  0
LINE
  5
1CD
330
1F
100
AcDbEntity
  8
0
  6
Continuous
 62
     7
370
    15
100
AcDbLine
 10
2467.1542953058
 20
320.6614821821
 30
0.0
 11
2481.98669228
 21
320.6614821821
 31
0.0
  0
LINE
  5
1CE
330
1F
100
AcDbEntity
  8
0
  6
Continuous
 62
     7
370
    15
100
AcDbLine
 10
1934.4910808262
 20
314.6238297532
 30
0.0
 11
1964.4910808262
 21
314.6238297532
 31
0.0
  0
LINE
  5
1CF
330
1F
100
AcDbEntity
  8
0
  6
Continuous
 62
     7
370
    15
100
AcDbLine
 10
1942.0748823391
 20
320.6238297532
 30
0.0
 11
1956.9072793133
 21
320.6238297532
 31
0.0
  0
LINE
  5
1D0
330
1F
100
AcDbEntity
  8
0
  6
Continuous
 62
     7
370
    15
100
AcDbLine
 10
1934.4910808262
 20
308.6238297532
 30
0.0
 11
1964.4910808262
 21
308.6238297532
 31
0.0
  0
ARC
  5
1D1
330
1F
100
AcDbEntity
  8
0
  6
Continuous
 62
     7
370
    15
100
AcDbCircle
 10
1938.6377272841
 20
601.9851801263
 30
0.0
 40
10.00000000000008
100
AcDbArc
 50
87.0
 51
267.0
  0
SPLINE
  5
1D2
330
1F
100
AcDbEntity
  8
0
  6
Continuous
 62
     7
370
    15
100
AcDbSpline
210
0.0
220
0.0
230
1.0
 70
     8
 71
     3
 72
    17
 73
    13
 74
     0
 42
0.000000001
 43
0.00000001
 40
0.0
 40
0.0
 40
0.0
 40
0.0
 40
0.1029987413266021
 40
0.2059351177322967
 40
0.3106167715756036
 40
0.4173313483348552
 40
0.5224453811490922
 40
0.6247192817653067
 40
0.7273888528706386
 40
0.8329938382576261
 40
0.9395976038665192
 40
1.0
 40
1.0
 40
1.0
 40
1.0
 10
2378.969870182022
 20
1256.1950601158
 30
0.0
 10
2378.978776865226
 20
1256.220299789022
 30
0.0
 10
2378.99658483871
 20
1256.270763853043
 30
0.0
 10
2379.175927504705
 20
1256.654376017179
 30
0.0
 10
2379.422339478032
 20
1257.230151076241
 30
0.0
 10
2379.688586659738
 20
1257.974124352819
 30
0.0
 10
2379.907437791288
 20
1258.796468719396
 30
0.0
 10
2380.045117507923
 20
1259.595963855353
 30
0.0
 10
2380.105662199479
 20
1260.296499019717
 30
0.0
 10
2380.11337091403
 20
1260.809090748726
 30
0.0
 10
2380.100806084317
 20
1261.076987899806
 30
0.0
 10
2380.095394152547
 20
1261.041401560928
 30
0.0
 10
2380.093436777782
 20
1261.028530777506
 30
0.0
  0
SPLINE
  5
1D3
330
1F
100
AcDbEntity
  8
0
  6
Continuous
 62
     7
370
    15
100
AcDbSpline
210
0.0
220
0.0
230
1.0
 70
     8
 71
     3
 72
    17
 73
    13
 74
     0
 42
0.000000001
 43
0.00000001
 40
0.0
 40
0.0
 40
0.0
 40
0.0
 40
0.1051322342069231
 40
0.2101901435384105
 40
0.317194994572292
 40
0.425758659023323
 40
0.5321271717414918
 40
0.6359399111924158
 40
0.7408266357698066
 40
0.8486958108826483
 40
0.9569029282101922
 40
1.0
 40
1.0
 40
1.0
 40
1.0
 10
2399.580253006016
 20
1256.564412187496
 30
0.0
 10
2399.570967332617
 20
1256.554719524194
 30
0.0
 10
2399.552402550469
 20
1256.53534104997
 30
0.0
 10
2399.374270399319
 20
1256.191543614797
 30
0.0
 10
2399.134228210326
 20
1255.644412983192
 30
0.0
 10
2398.880147991865
 20
1254.915781619341
 30
0.0
 10
2398.675509915539
 20
1254.096342799511
 30
0.0
 10
2398.546771495055
 20
1253.286092639884
 30
0.0
 10
2398.485845330963
 20
1252.559173754999
 30
0.0
 10
2398.467316682565
 20
1252.015701813391
 30
0.0
 10
2398.463553733639
 20
1251.723682761397
 30
0.0
 10
2398.458163120632
 20
1251.73188520281
 30
0.0
 10
2398.456627673153
 20
1251.734221563809
 30
0.0
  0
ARC
  5
1D4
330
1F
100
AcDbEntity
  8
0
  6
Continuous
 62
     7
370
    15
100
AcDbCircle
 10
2404.516293399
 20
1322.39886689
 30
0.0
 40
10.00000000000026
100
AcDbArc
 50
0.0
 51
167.0
  0
LWPOLYLINE
  5
1D5
330
1F
100
AcDbEntity
  8
0
  6
Continuous
 62
     7
370
    15
100
AcDbPolyline
 90
        3
 70
   128
 43
0.0
 10
2414.2599940468
 20
1320.1493563465
 10
2414.3355803716
 20
1320.5063544464
 10
2414.516293399
 20
1322.39886689
  0
ELLIPSE
  5
1D6
330
1F
100
AcDbEntity
  8
0
  6
Continuous
 62
     7
370
    15
100
AcDbEllipse
 10
2083.5734338521
 20
1020.4733548283
 30
0.0
 11
0.5233595624295049
 21
9.986295347545706
 31
0.0
210
0.0
220
0.0
230
1.0
 40
0.8390996312
 41
0.0
 42
3.141592653589793
  0
ELLIPSE
  5
1D7
330
1F
100
AcDbEntity
  8
0
  6
Continuous
 62
     7
370
    15
100
AcDbEllipse
 10
2283.7077810043
 20
1009.9847581358
 30
0.0
 11
11.90120335714437
 21
-0.6237156387438745
 31
0.0
210
0.0
220
0.0
230
1.0
 40
0.8390996312
 41
0.0
 42
1.570796326794933
  0
ELLIPSE
  5
1D8
330
1F
100
AcDbEntity
  8
0
  6
Continuous
 62
     7
370
    15
100
AcDbEllipse
 10
2283.7077810043
 20
1009.9847581358
 30
0.0
 11
11.90120335714437
 21
-0.6237156387438745
 31
0.0
210
0.0
220
0.0
230
1.0
 40
0.8390996312
 41
4.7123889803847
 42
6.283185307179586
  0
LWPOLYLINE
  5
1D9
330
1F
100
AcDbEntity
  8
0
  6
Continuous
 62
     7
370
    15
100
AcDbPolyline
 90
       19
 70
   128
 43
0.0
 10
2463.5384644405
 20
328.6833961967
 10
2463.5383239116
 20
328.6916208188
 10
2463.7261773146
 20
328.8510292654
 10
2464.2672183712
 20
329.0367655935
 10
2465.1418924479
 20
329.2421168083
 10
2466.3185865447
 20
329.4596609817
 10
2467.7547718711
 20
329.6815355006
 10
2469.3985409473
 20
329.8997212418
 10
2471.1904836763
 20
330.1063324041
 10
2473.0658345789
 20
330.2939015218
 10
2474.9568135873
 20
330.4556493582
 10
2476.7950757933
 20
330.5857299252
 10
2478.5141816112
 20
330.679441772
 10
2480.0519980776
 20
330.7333979085
 10
2481.3529444987
 20
330.7456482192
 10
2482.3700012813
 20
330.7157499461
 10
2483.0664093433
 20
330.6447836905
 10
2483.4169986829
 20
330.5353143579
 10
2483.4580071085
 20
330.4755512954
  0
LWPOLYLINE
  5
1DA
330
1F
100
AcDbEntity
  8
0
  6
Continuous
 62
     7
370
    15
100
AcDbPolyline
 90
       30
 70
   128
 43
0.0
 10
2469.1257255211
 20
324.520282789
 10
2468.0444876279
 20
324.4747376866
 10
2466.6186498804
 20
324.4414838873
 10
2465.4543763579
 20
324.4503480059
 10
2464.5937469389
 20
324.5010096702
 10
2464.0678670131
 20
324.5916378356
 10
2463.8957432511
 20
324.7189569642
 10
2464.083596654
 20
324.8783654108
 10
2464.6246377106
 20
325.0641017389
 10
2465.4993117874
 20
325.2694529536
 10
2466.6760058842
 20
325.486997127
 10
2468.1121912105
 20
325.708871646
 10
2469.7559602868
 20
325.9270573871
 10
2471.5479030158
 20
326.1336685494
 10
2473.4232539184
 20
326.3212376671
 10
2475.3142329268
 20
326.4829855035
 10
2477.1524951328
 20
326.6130660705
 10
2478.8716009506
 20
326.7067779174
 10
2480.409417417
 20
326.7607340539
 10
2481.7103638382
 20
326.7729843646
 10
2482.7274206207
 20
326.7430860914
 10
2483.4238286828
 20
326.6721198359
 10
2483.7744180224
 20
326.5626505033
 10
2483.7665174274
 20
326.4186346005
 10
2483.4004124459
 20
326.2452772376
 10
2482.6893350658
 20
326.0488440013
 10
2481.6589854763
 20
325.8364345006
 10
2480.3466031962
 20
325.6157257682
 10
2478.7996211403
 20
325.3946947927
 10
2478.6986719763
 20
325.381354097
  0
ARC
  5
1DB
330
1F
100
AcDbEntity
  8
0
  6
Continuous
 62
     7
370
    15
100
AcDbCircle
 10
2477.7069203366
 20
283.4800782095
 30
0.0
 40
42.77365369655195
100
AcDbArc
 50
88.1189435046
 51
102.5337752274
  0
LWPOLYLINE
  5
1DC
330
1F
100
AcDbEntity
  8
0
  6
Continuous
 62
     7
370
    15
100
AcDbPolyline
 90
        3
 70
   128
 43
0.0
 10
1957.4132710463
 20
324.7450550738
 10
1956.0265468928
 20
324.7359058319
 10
1954.6843358518
 20
324.75230812
  0
LWPOLYLINE
  5
1DD
330
1F
100
AcDbEntity
  8
0
  6
Continuous
 62
     7
370
    15
100
AcDbPolyline
 90
       28
 70
   128
 43
0.0
 10
1945.0617186918
 20
325.2871741531
 10
1943.6828039708
 20
325.4245653601
 10
1942.3220426289
 20
325.5869972875
 10
1941.2363414159
 20
325.7496916752
 10
1940.4649404023
 20
325.9067683239
 10
1940.0357200306
 20
326.0525500744
 10
1939.9641934433
 20
326.1817679944
 10
1940.2529457977
 20
326.2897518115
 10
1940.8915408314
 20
326.3725987093
 10
1941.856898056
 20
326.427314385
 10
1943.1141269462
 20
326.4519212715
 10
1944.6177879742
 20
326.4455300119
 10
1946.3135349128
 20
326.4083716029
 10
1948.1400790492
 20
326.3417890463
 10
1950.0314043195
 20
326.248188809
 10
1951.9191533006
 20
326.1309538476
 10
1953.7350978257
 20
325.994321339
 10
1955.4136049285
 20
325.8432295381
 10
1956.8940089887
 20
325.6831392963
 10
1958.1228043467
 20
325.5198366919
 10
1959.0555791365
 20
325.3592239065
 10
1959.6586204469
 20
325.2071059048
 10
1959.9101327938
 20
325.0689806276
 10
1959.8010258656
 20
324.9498402824
 10
1959.3352430709
 20
324.8539909116
 10
1958.5296190137
 20
324.7848967612
 10
1957.4132710463
 20
324.7450550738
 10
1957.4132710463
 20
324.7450550738
  0
LINE
  5
1DE
330
1F
100
AcDbEntity
  8
0
  6
Continuous
 62
     7
370
    15
100
AcDbLine
 10
1944.7320183816
 20
325.7354246253
 30
0.0
 11
1944.3618707796
 21
325.8397546765
 31
0.0
  0
ARC
  5
1DF
330
1F
100
AcDbEntity
  8
0
  6
Continuous
 62
     7
370
    15
100
AcDbCircle
 10
1947.289508734
 20
278.0735191331
 30
0.0
 40
48.00910254375901
100
AcDbArc
 50
80.3350802103
 51
93.2675207315
  0
LWPOLYLINE
  5
1E0
330
1F
100
AcDbEntity
  8
0
  6
Continuous
 62
     7
370
    15
100
AcDbPolyline
 90
       19
 70
   128
 43
0.0
 10
1940.168439544
 20
330.1323911315
 10
1940.1848804884
 20
330.1669826587
 10
1940.4736328428
 20
330.2749664758
 10
1941.1122278765
 20
330.3578133736
 10
1942.0775851011
 20
330.4125290493
 10
1943.3348139913
 20
330.4371359358
 10
1944.8384750193
 20
330.4307446762
 10
1946.5342219578
 20
330.3935862672
 10
1948.3607660943
 20
330.3270037105
 10
1950.2520913646
 20
330.2334034733
 10
1952.1398403457
 20
330.1161685119
 10
1953.9557848708
 20
329.9795360033
 10
1955.6342919735
 20
329.8284442024
 10
1957.1146960338
 20
329.6683539606
 10
1958.3434913918
 20
329.5050513562
 10
1959.2762661816
 20
329.3444385708
 10
1959.879307492
 20
329.1923205691
 10
1960.1308198389
 20
329.0541952919
 10
1960.1378443789
 20
329.0265563607
  0
LWPOLYLINE
  5
1E1
330
1F
100
AcDbEntity
  8
0
  6
Continuous
 62
     7
370
    15
100
AcDbPolyline
 90
       18
 70
   128
 43
0.0
 10
2463.5384644405
 20
328.6833961967
 10
2463.705718047
 20
328.8411086616
 10
2464.2268987582
 20
329.0255075644
 10
2465.0831697455
 20
329.2299282483
 10
2466.2435831443
 20
329.4469824173
 10
2467.6661985909
 20
329.6688251681
 10
2469.2995990566
 20
329.8874385257
 10
2471.0847491927
 20
330.0949212338
 10
2472.9571290222
 20
330.2837743266
 10
2474.8490658595
 20
330.4471721615
 10
2476.6921801781
 20
330.5792091149
 10
2478.4198570241
 20
330.6751130272
 10
2479.969653655
 20
330.7314176813
 10
2481.2855563826
 20
330.7460880802
 10
2482.3200050538
 20
330.7185939975
 10
2483.0356119983
 20
330.6499291409
 10
2483.4065133167
 20
330.5425752373
 10
2483.4580071085
 20
330.4755512954
  0
LWPOLYLINE
  5
1E2
330
1F
100
AcDbEntity
  8
0
  6
Continuous
 62
     7
370
    15
100
AcDbPolyline
 90
       18
 70
   128
 43
0.0
 10
1960.1378557276
 20
329.0267709291
 10
1960.0571561962
 20
329.1171064811
 10
1959.6383351431
 20
329.2624722506
 10
1958.876694495
 20
329.4192952801
 10
1957.7997619293
 20
329.5819075767
 10
1956.446460595
 20
329.7444319084
 10
1954.8657023281
 20
329.9009942222
 10
1953.1146198511
 20
330.0459359483
 10
1951.2565018471
 20
330.1740185151
 10
1949.3585055421
 20
330.2806126848
 10
1947.4892294677
 20
330.3618658665
 10
1945.7162341315
 20
330.4148413585
 10
1944.1036002046
 20
330.4376244884
 10
1942.7096124787
 20
330.4293918146
 10
1941.5846533023
 20
330.3904408874
 10
1940.7693816309
 20
330.3221794947
 10
1940.2932635071
 20
330.2270747812
 10
1940.1684466644
 20
330.1325164271
  0
SPLINE
  5
1E3
330
1F
100
AcDbEntity
  8
0
  6
Continuous
 62
     7
370
    15
100
AcDbSpline
210
0.0
220
0.0
230
1.0
 70
     8
 71
     3
 72
    15
 73
    11
 74
     0
 42
0.000000001
 43
0.00000001
 40
0.0
 40
0.0
 40
0.0
 40
0.0
 40
0.1386822018193272
 40
0.2774471778052039
 40
0.4136743450002047
 40
0.5470070965156745
 40
0.6822456332804848
 40
0.8212059791172229
 40
0.9600146554726119
 40
1.0
 40
1.0
 40
1.0
 40
1.0
 10
2327.527069448877
 20
1017.571869667827
 30
0.0
 10
2327.552735380497
 20
1017.534059492728
 30
0.0
 10
2327.60408256276
 20
1017.458416575067
 30
0.0
 10
2328.030424930002
 20
1017.358213957272
 30
0.0
 10
2328.659011009009
 20
1017.319044362542
 30
0.0
 10
2329.433763925744
 20
1017.342164175792
 30
0.0
 10
2330.277041981593
 20
1017.40528355649
 30
0.0
 10
2331.088797013789
 20
1017.463782480597
 30
0.0
 10
2331.670283424868
 20
1017.488963661935
 30
0.0
 10
2331.874907601019
 20
1017.469118997772
 30
0.0
 10
2331.920669579757
 20
1017.464680953761
 30
0.0
  0
SPLINE
  5
1E4
330
1F
100
AcDbEntity
  8
0
  6
Continuous
 62
     7
370
    15
100
AcDbSpline
210
0.0
220
0.0
230
1.0
 70
     8
 71
     3
 72
    12
 73
     8
 74
     0
 42
0.000000001
 43
0.00000001
 40
0.0
 40
0.0
 40
0.0
 40
0.0
 40
0.1853113837960154
 40
0.4027963226401867
 40
0.6159190310498499
 40
0.8242884365879062
 40
1.0
 40
1.0
 40
1.0
 40
1.0
 10
2330.014832588696
 20
1017.387168878163
 30
0.0
 10
2329.775245666357
 20
1017.430842786752
 30
0.0
 10
2329.254475008375
 20
1017.525773219059
 30
0.0
 10
2328.528184172285
 20
1017.642831844459
 30
0.0
 10
2327.941043659863
 20
1017.689100525362
 30
0.0
 10
2327.590005544664
 20
1017.656614618235
 30
0.0
 10
2327.546824267219
 20
1017.598470000748
 30
0.0
 10
2327.527069448877
 20
1017.571869667827
 30
0.0
  0
SPLINE
  5
1E5
330
1F
100
AcDbEntity
  8
0
  6
Continuous
 62
     7
370
    15
100
AcDbSpline
210
0.0
220
0.0
230
1.0
 70
     8
 71
     3
 72
    12
 73
     8
 74
     0
 42
0.000000001
 43
0.00000001
 40
0.0
 40
0.0
 40
0.0
 40
0.0
 40
0.2133799396735884
 40
0.4269347842065577
 40
0.6363621043852685
 40
0.8449526669838885
 40
1.0
 40
1.0
 40
1.0
 40
1.0
 10
2326.493953692809
 20
997.8588467120394
 30
0.0
 10
2326.519124658421
 20
997.8241522422135
 30
0.0
 10
2326.569487221969
 20
997.7547348639401
 30
0.0
 10
2326.989714710104
 20
997.6912034460637
 30
0.0
 10
2327.610016529211
 20
997.6879963313539
 30
0.0
 10
2328.309778611779
 20
997.7317003843607
 30
0.0
 10
2328.786959200824
 20
997.7671637576174
 30
0.0
 10
2328.990418682333
 20
997.7822845728831
 30
0.0
  0
SPLINE
  5
1E6
330
1F
100
AcDbEntity
  8
0
  6
Continuous
 62
     7
370
    15
100
AcDbSpline
210
0.0
220
0.0
230
1.0
 70
     8
 71
     3
 72
    15
 73
    11
 74
     0
 42
0.000000001
 43
0.00000001
 40
0.0
 40
0.0
 40
0.0
 40
0.0
 40
0.0671410062864893
 40
0.2006770704062696
 40
0.3362483970220548
 40
0.4753029184233443
 40
0.6139852918442548
 40
0.748725683293863
 40
0.8822059622393534
 40
1.0
 40
1.0
 40
1.0
 40
1.0
 10
2330.870141780766
 20
997.5079817132114
 30
0.0
 10
2330.787117436244
 20
997.5106491380385
 30
0.0
 10
2330.53896681783
 20
997.5186217769586
 30
0.0
 10
2329.921403258091
 20
997.6151353081842
 30
0.0
 10
2329.117227890912
 20
997.7613819935218
 30
0.0
 10
2328.276584244059
 20
997.9106540522517
 30
0.0
 10
2327.512638064321
 20
998.0039740352122
 30
0.0
 10
2326.923896853683
 20
998.0134518545876
 30
0.0
 10
2326.561501635925
 20
997.9517083096667
 30
0.0
 10
2326.515512693644
 20
997.8884849684897
 30
0.0
 10
2326.493953692809
 20
997.8588467120394
 30
0.0
  0
SPLINE
  5
1E7
330
1F
100
AcDbEntity
  8
0
  6
Continuous
 62
     7
370
    15
100
AcDbSpline
210
0.0
220
0.0
230
1.0
 70
     8
 71
     3
 72
    20
 73
    16
 74
     0
 42
0.000000001
 43
0.00000001
 40
0.0
 40
0.0
 40
0.0
 40
0.0
 40
0.0359284872971341
 40
0.1208869958274771
 40
0.2069378877363951
 40
0.295264603332565
 40
0.3836208867973144
 40
0.4695165229234533
 40
0.5543595444480667
 40
0.6411292386609894
 40
0.729843665345905
 40
0.8175365521927448
 40
0.9029135177658151
 40
0.9881876938116089
 40
1.0
 40
1.0
 40
1.0
 40
1.0
 10
2035.591806682911
 20
1032.99328609784
 30
0.0
 10
2035.674812635388
 20
1032.990979463857
 30
0.0
 10
2035.954099100966
 20
1032.983218434276
 30
0.0
 10
2036.596591450303
 20
1032.889949538939
 30
0.0
 10
2037.417768087624
 20
1032.745061422952
 30
0.0
 10
2038.23381716814
 20
1032.594915183115
 30
0.0
 10
2038.933052708273
 20
1032.499473366267
 30
0.0
 10
2039.430992650286
 20
1032.488977595439
 30
0.0
 10
2039.681739729784
 20
1032.555885566486
 30
0.0
 10
2039.664004971553
 20
1032.667703061885
 30
0.0
 10
2039.366388064008
 20
1032.778840783207
 30
0.0
 10
2038.816587246987
 20
1032.844794653711
 30
0.0
 10
2038.092373906432
 20
1032.847083748973
 30
0.0
 10
2037.506767692117
 20
1032.813636796379
 30
0.0
 10
2037.199489770145
 20
1032.790962183404
 30
0.0
 10
2037.162103917699
 20
1032.788203411379
 30
0.0
  0
SPLINE
  5
1E8
330
1F
100
AcDbEntity
  8
0
  6
Continuous
 62
     7
370
    15
100
AcDbSpline
210
0.0
220
0.0
230
1.0
 70
     8
 71
     3
 72
    12
 73
     8
 74
     0
 42
0.000000001
 43
0.00000001
 40
0.0
 40
0.0
 40
0.0
 40
0.0
 40
0.0642238996390772
 40
0.3038426677748242
 40
0.5391795811132482
 40
0.7689028512501087
 40
1.0
 40
1.0
 40
1.0
 40
1.0
 10
2036.132771750048
 20
1013.077137291114
 30
0.0
 10
2036.207501203602
 20
1013.063615109377
 30
0.0
 10
2036.56104554857
 20
1012.999641794202
 30
0.0
 10
2037.187296421414
 20
1012.90244231061
 30
0.0
 10
2037.884243790566
 20
1012.843645496678
 30
0.0
 10
2038.402355202955
 20
1012.865230030708
 30
0.0
 10
2038.537318939606
 20
1012.924842633947
 30
0.0
 10
2038.605001996707
 20
1012.954737799339
 30
0.0
  0
SPLINE
  5
1E9
330
1F
100
AcDbEntity
  8
0
  6
Continuous
 62
     7
370
    15
100
AcDbSpline
210
0.0
220
0.0
230
1.0
 70
     8
 71
     3
 72
    15
 73
    11
 74
     0
 42
0.000000001
 43
0.00000001
 40
0.0
 40
0.0
 40
0.0
 40
0.0
 40
0.0834180777385729
 40
0.2335173902868808
 40
0.3798980618029867
 40
0.5234785585100596
 40
0.6694816220202489
 40
0.8193544150761404
 40
0.9686216922600388
 40
1.0
 40
1.0
 40
1.0
 40
1.0
 10
2038.599940818245
 20
1013.000281126084
 30
0.0
 10
2038.6059830611
 20
1013.019997079015
 30
0.0
 10
2038.622897485662
 20
1013.075189166874
 30
0.0
 10
2038.337121839093
 20
1013.150607705264
 30
0.0
 10
2037.803852494874
 20
1013.17932699085
 30
0.0
 10
2037.083847293078
 20
1013.148573959867
 30
0.0
 10
2036.257731394611
 20
1013.082798823997
 30
0.0
 10
2035.421184985642
 20
1013.028369303243
 30
0.0
 10
2034.812526494449
 20
1013.008887992548
 30
0.0
 10
2034.579464560031
 20
1013.031235642893
 30
0.0
 10
2034.538981483161
 20
1013.035117450744
 30
0.0
  0
ARC
  5
1EA
330
1F
100
AcDbEntity
  8
0
  6
Continuous
 62
     7
370
    15
100
AcDbCircle
 10
2385.6433167694
 20
1356.2317224905
 30
0.0
 40
13.99999999999928
100
AcDbArc
 50
77.0
 51
120.6028189727
  0
ARC
  5
1EB
330
1F
100
AcDbEntity
  8
0
  6
Continuous
 62
     7
370
    15
100
AcDbCircle
 10
2353.4753159983
 20
1216.8968032262
 30
0.0
 40
13.99999999999966
100
AcDbArc
 50
213.3971810273
 51
257.0
  0
ARC
  5
1EC
330
1F
100
AcDbEntity
  8
0
  6
Continuous
 62
     7
370
    15
100
AcDbCircle
 10
2398.0864300694
 20
1365.6746527244
 30
0.0
 40
1.999999999999929
100
AcDbArc
 50
347.0
 51
77.0
  0
LINE
  5
1ED
330
1F
100
AcDbEntity
  8
0
  6
Continuous
 62
     7
370
    15
100
AcDbLine
 10
2400.035170199
 20
1365.2247506158
 30
0.0
 11
2362.4683441236
 21
1202.5049497966
 31
0.0
  0
ARC
  5
1EE
330
1F
100
AcDbEntity
  8
0
  6
Continuous
 62
     7
370
    15
100
AcDbCircle
 10
2360.519603994
 20
1202.9548519053
 30
0.0
 40
2.000000000000577
100
AcDbArc
 50
257.0
 51
347.0
  0
LINE
  5
1EF
330
1F
100
AcDbEntity
  8
0
  6
Continuous
 62
     7
370
    15
100
AcDbLine
 10
2388.7926315303
 20
1369.8729033975
 30
0.0
 11
2398.5363321781
 21
1367.623392854
 31
0.0
  0
LINE
  5
1F0
330
1F
100
AcDbEntity
  8
0
  6
Continuous
 62
     7
370
    15
100
AcDbLine
 10
2350.3260012375
 20
1203.2556223192
 30
0.0
 11
2360.0697018853
 21
1201.0061117757
 31
0.0
  0
LINE
  5
1F1
330
1F
100
AcDbEntity
  8
0
  6
Continuous
 62
     7
370
    15
100
AcDbLine
 10
2329.0465125797
 20
1280.0096669192
 30
0.0
 11
2336.0199952644
 21
1310.2151389276
 31
0.0
  0
ARC
  5
1F2
330
1F
100
AcDbEntity
  8
0
  6
Continuous
 62
     7
370
    15
100
AcDbCircle
 10
2425.0124611814
 20
1289.6696092975
 30
0.0
 40
91.33333333333312
100
AcDbArc
 50
120.6028189727
 51
167.0
  0
ARC
  5
1F3
330
1F
100
AcDbEntity
  8
0
  6
Continuous
 62
     7
370
    15
100
AcDbCircle
 10
2418.0389784967
 20
1259.4641372891
 30
0.0
 40
91.33333333333401
100
AcDbArc
 50
167.0
 51
213.3971810273
  0
LINE
  5
1F4
330
1F
100
AcDbEntity
  8
0
  6
Continuous
 62
     7
370
    15
100
AcDbLine
 10
2403.9326504581
 20
1364.3249463984
 30
0.0
 11
2366.3658243827
 21
1201.6051455792
 31
0.0
  0
ARC
  5
1F5
330
1F
100
AcDbEntity
  8
0
  6
Continuous
 62
     7
370
    15
100
AcDbCircle
 10
2364.4170842531
 20
1202.0550476879
 30
0.0
 40
2.000000000000475
100
AcDbArc
 50
257.0
 51
347.0
  0
ARC
  5
1F6
330
1F
100
AcDbEntity
  8
0
  6
Continuous
 62
     7
370
    15
100
AcDbCircle
 10
2401.9839103286
 20
1364.7748485071
 30
0.0
 40
2.000000000000134
100
AcDbArc
 50
347.0
 51
77.0
  0
ARC
  5
1F7
330
1F
100
AcDbEntity
  8
0
  6
Continuous
 62
     7
370
    15
100
AcDbCircle
 10
2401.9839103286
 20
1364.7748485071
 30
0.0
 40
2.000000000000423
100
AcDbArc
 50
77.0
 51
167.0
  0
ARC
  5
1F8
330
1F
100
AcDbEntity
  8
0
  6
Continuous
 62
     7
370
    15
100
AcDbCircle
 10
2364.4170842531
 20
1202.0550476879
 30
0.0
 40
2.000000000000475
100
AcDbArc
 50
167.0
 51
257.0
  0
ARC
  5
1F9
330
1F
100
AcDbEntity
  8
0
  6
Continuous
 62
     7
370
    15
100
AcDbCircle
 10
2349.1955216288
 20
1033.5897444214
 30
0.0
 40
11.99999999999974
100
AcDbArc
 50
357.0
 51
50.1301023542
  0
ARC
  5
1FA
330
1F
100
AcDbEntity
  8
0
  6
Continuous
 62
     7
370
    15
100
AcDbCircle
 10
1973.7108165611
 20
1053.2680639687
 30
0.0
 40
12.00000000000061
100
AcDbArc
 50
123.8698976458
 51
177.0
  0
LINE
  5
1FB
330
1F
100
AcDbEntity
  8
0
  6
Continuous
 62
     7
370
    15
100
AcDbLine
 10
2361.1790760458
 20
1032.9617129465
 30
0.0
 11
2360.6557164834
 21
1022.9754175989
 31
0.0
  0
LINE
  5
1FC
330
1F
100
AcDbEntity
  8
0
  6
Continuous
 62
     7
370
    15
100
AcDbLine
 10
1961.727262144
 20
1053.8960954436
 30
0.0
 11
1961.2039025816
 21
1043.9098000961
 31
0.0
  0
ARC
  5
1FD
330
1F
100
AcDbEntity
  8
0
  6
Continuous
 62
     7
370
    15
100
AcDbCircle
 10
2358.6584574139
 20
1023.0800895114
 30
0.0
 40
2.000000000000105
100
AcDbArc
 50
267.0
 51
357.0
  0
LINE
  5
1FE
330
1F
100
AcDbEntity
  8
0
  6
Continuous
 62
     7
370
    15
100
AcDbLine
 10
2358.5537855014
 20
1021.0828304419
 30
0.0
 11
1963.0964897386
 21
1041.8078691141
 31
0.0
  0
ARC
  5
1FF
330
1F
100
AcDbEntity
  8
0
  6
Continuous
 62
     7
370
    15
100
AcDbCircle
 10
1963.2011616511
 20
1043.8051281836
 30
0.0
 40
2.000000000000105
100
AcDbArc
 50
177.0
 51
267.0
  0
LINE
  5
200
330
1F
100
AcDbEntity
  8
0
  6
Continuous
 62
     7
370
    15
100
AcDbLine
 10
2053.5926866091
 20
1087.1337817024
 30
0.0
 11
2273.2911842552
 21
1075.619871329
 31
0.0
  0
ARC
  5
201
330
1F
100
AcDbEntity
  8
0
  6
Continuous
 62
     7
370
    15
100
AcDbCircle
 10
2265.8594784687
 20
933.8144773938
 30
0.0
 40
142.0000000000003
100
AcDbArc
 50
50.1301023542
 51
87.0
  0
ARC
  5
202
330
1F
100
AcDbEntity
  8
0
  6
Continuous
 62
     7
370
    15
100
AcDbCircle
 10
2046.1609808227
 20
945.3283877673
 30
0.0
 40
142.0000000000007
100
AcDbArc
 50
87.0
 51
123.8698976458
  0
ENDSEC
  0
SECTION
  2
OBJECTS
  0
DICTIONARY
  5
C
330
0
100
AcDbDictionary
281
     1
  3
ACAD_DETAILVIEWSTYLE
350
20A
  3
ACAD_GROUP
350
D
  3
ACAD_LAYOUT
350
1A
  3
ACAD_MATERIAL
350
43
  3
ACAD_MLEADERSTYLE
350
6B
  3
ACAD_MLINESTYLE
350
17
  3
ACAD_PLOTSETTINGS
350
19
  3
ACAD_PLOTSTYLENAME
350
E
  3
ACAD_SCALELIST
350
47
  3
ACAD_SECTIONVIEWSTYLE
350
20B
  3
ACAD_TABLESTYLE
350
69
  3
ACAD_VISUALSTYLE
350
2A
  3
ACDB_RECOMPOSE_DATA
350
207
  3
AcDbVariableDictionary
350
203
  0
SUN
  5
6D
330
29
100
AcDbSun
 90
        1
290
     0
 63
     7
421
 16777215
 40
1.0
291
     1
 91
  2455826
 92
 54000000
292
     0
 70
     2
 71
   256
280
     1
  0
DICTIONARY
  5
20A
102
{ACAD_REACTORS
330
C
102
}
330
C
100
AcDbDictionary
281
     1
  0
DICTIONARY
  5
D
102
{ACAD_REACTORS
330
C
102
}
330
C
100
AcDbDictionary
281
     1
  0
DICTIONARY
  5
1A
102
{ACAD_REACTORS
330
C
102
}
330
C
100
AcDbDictionary
281
     1
  3
Layout1
350
1E
  3
Layout2
350
26
  3
Model
350
22
  0
DICTIONARY
  5
43
102
{ACAD_REACTORS
330
C
102
}
330
C
100
AcDbDictionary
281
     1
  3
ByBlock
350
45
  3
ByLayer
350
44
  3
Global
350
46
  0
DICTIONARY
  5
6B
102
{ACAD_REACTORS
330
C
102
}
330
C
100
AcDbDictionary
281
     1
  3
Standard
350
6C
  0
DICTIONARY
  5
17
102
{ACAD_REACTORS
330
C
102
}
330
C
100
AcDbDictionary
281
     1
  3
Standard
350
18
  0
DICTIONARY
  5
19
102
{ACAD_REACTORS
330
C
102
}
330
C
100
AcDbDictionary
281
     1
  0
ACDBDICTIONARYWDFLT
  5
E
102
{ACAD_REACTORS
330
C
102
}
330
C
100
AcDbDictionary
281
     1
  3
Normal
350
F
100
AcDbDictionaryWithDefault
340
F
  0
DICTIONARY
  5
47
102
{ACAD_REACTORS
330
C
102
}
330
C
100
AcDbDictionary
281
     1
  3
A0
350
48
  3
A1
350
49
  3
A2
350
4A
  3
A3
350
4B
  3
A4
350
4C
  3
A5
350
4D
  3
A6
350
4E
  3
A7
350
4F
  3
A8
350
50
  3
A9
350
51
  3
B0
350
52
  3
B1
350
53
  3
B2
350
54
  3
B3
350
55
  3
B4
350
56
  3
B5
350
57
  3
B6
350
58
  3
B7
350
59
  3
B8
350
5A
  3
B9
350
5B
  3
C0
350
5C
  3
C1
350
5D
  3
C2
350
5E
  3
C3
350
5F
  3
C4
350
60
  3
C5
350
61
  3
C6
350
62
  3
C7
350
63
  3
C8
350
64
  3
C9
350
65
  3
D0
350
66
  3
D1
350
67
  3
D2
350
68
  0
DICTIONARY
  5
20B
102
{ACAD_REACTORS
330
C
102
}
330
C
100
AcDbDictionary
281
     1
  0
DICTIONARY
  5
69
102
{ACAD_REACTORS
330
C
102
}
330
C
100
AcDbDictionary
281
     1
  3
Standard
350
6A
  0
DICTIONARY
  5
2A
102
{ACAD_REACTORS
330
C
102
}
330
C
100
AcDbDictionary
281
     1
  3
2dWireframe
350
2F
  3
Basic
350
32
  3
Brighten
350
36
  3
ColorChange
350
3A
  3
Conceptual
350
34
  3
Dim
350
35
  3
EdgeColorOff
350
3D
  3
Facepattern
350
39
  3
Flat
350
2B
  3
FlatWithEdges
350
2C
  3
Gouraud
350
2D
  3
GouraudWithEdges
350
2E
  3
Hidden
350
31
  3
JitterOff
350
3B
  3
Linepattern
350
38
  3
OverhangOff
350
3C
  3
Realistic
350
33
  3
Shaded
350
42
  3
Shaded with edges
350
41
  3
Shades of Gray
350
3E
  3
Sketchy
350
3F
  3
Thicken
350
37
  3
Wireframe
350
30
  3
X-Ray
350
40
  0
XRECORD
  5
207
102
{ACAD_REACTORS
330
C
102
}
330
C
100
AcDbXrecord
280
     1
 90
        1
330
6A
  0
DICTIONARY
  5
203
102
{ACAD_REACTORS
330
C
102
}
330
C
100
AcDbDictionary
281
     1
  3
CANNOSCALE
350
204
  3
CMLEADERSTYLE
350
209
  3
CTABLESTYLE
350
208
  0
LAYOUT
  5
1E
102
{ACAD_REACTORS
330
1A
102
}
330
1A
100
AcDbPlotSettings
  1

  2
none_device
  4

  6

 40
0.0
 41
0.0
 42
0.0
 43
0.0
 44
0.0
 45
0.0
 46
0.0
 47
0.0
 48
0.0
 49
0.0
140
0.0
141
0.0
142
1.0
143
1.0
 70
   688
 72
     1
 73
     0
 74
     5
  7

 75
    16
 76
     0
 77
     2
 78
   300
147
1.0
148
0.0
149
0.0
100
AcDbLayout
  1
Layout1
 70
     1
 71
     1
 10
0.0
 20
0.0
 11
420.0
 21
297.0
 12
0.0
 22
0.0
 32
0.0
 14
1.0000000000E+20
 24
1.0000000000E+20
 34
1.0000000000E+20
 15
-1.0000000000E+20
 25
-1.0000000000E+20
 35
-1.0000000000E+20
146
0.0
 13
0.0
 23
0.0
 33
0.0
 16
1.0
 26
0.0
 36
0.0
 17
0.0
 27
1.0
 37
0.0
 76
     0
330
1B
  0
LAYOUT
  5
26
102
{ACAD_REACTORS
330
1A
102
}
330
1A
100
AcDbPlotSettings
  1

  2
none_device
  4

  6

 40
0.0
 41
0.0
 42
0.0
 43
0.0
 44
0.0
 45
0.0
 46
0.0
 47
0.0
 48
0.0
 49
0.0
140
0.0
141
0.0
142
1.0
143
1.0
 70
   688
 72
     1
 73
     0
 74
     5
  7

 75
    16
 76
     0
 77
     2
 78
   300
147
1.0
148
0.0
149
0.0
100
AcDbLayout
  1
Layout2
 70
     1
 71
     2
 10
0.0
 20
0.0
 11
0.0
 21
0.0
 12
0.0
 22
0.0
 32
0.0
 14
0.0
 24
0.0
 34
0.0
 15
0.0
 25
0.0
 35
0.0
146
0.0
 13
0.0
 23
0.0
 33
0.0
 16
1.0
 26
0.0
 36
0.0
 17
0.0
 27
1.0
 37
0.0
 76
     0
330
23
  0
LAYOUT
  5
22
102
{ACAD_REACTORS
330
1A
102
}
330
1A
100
AcDbPlotSettings
  1

  2
none_device
  4
Letter_(8.50_x_11.00_Inches)
  6

 40
6.35
 41
6.35
 42
6.35000508
 43
6.35000508
 44
215.9
 45
279.4
 46
0.0
 47
0.0
 48
0.0
 49
0.0
140
0.0
141
0.0
142
1.0
143
1.0
 70
  1712
 72
     1
 73
     0
 74
     0
  7

 75
     0
 76
     0
 77
     2
 78
   300
147
1.0
148
0.0
149
0.0
100
AcDbLayout
  1
Model
 70
     1
 71
     0
 10
0.0
 20
0.0
 11
3000.0
 21
3000.0
 12
0.0
 22
0.0
 32
0.0
 14
0.0
 24
0.0
 34
0.0
 15
3000.0
 25
3000.0
 35
0.0
146
0.0
 13
0.0
 23
0.0
 33
0.0
 16
1.0
 26
0.0
 36
0.0
 17
0.0
 27
1.0
 37
0.0
 76
     0
330
1F
331
29
  0
MATERIAL
  5
45
102
{ACAD_REACTORS
330
43
102
}
330
43
100
AcDbMaterial
  1
ByBlock
 72
     1
 94
      127
  0
MATERIAL
  5
44
102
{ACAD_REACTORS
330
43
102
}
330
43
100
AcDbMaterial
  1
ByLayer
 72
     1
 94
      127
  0
MATERIAL
  5
46
102
{ACAD_REACTORS
330
43
102
}
330
43
100
AcDbMaterial
  1
Global
 72
     1
 94
      127
  0
MLEADERSTYLE
  5
6C
102
{ACAD_REACTORS
330
6B
102
}
330
6B
100
AcDbMLeaderStyle
179
     2
170
     2
171
     1
172
     0
 90
        2
 40
0.0
 41
0.0
173
     1
 91
-1056964608
340
14
 92
       -2
290
     1
 42
2.0
291
     1
 43
8.0
  3
Standard
341
0
 44
4.0
300

342
11
174
     1
178
     6
175
     1
176
     0
 93
-1056964608
 45
4.0
292
     0
297
     0
 46
4.0
343
0
 94
-1056964608
 47
1.0
 49
1.0
140
1.0
293
     1
141
0.0
294
     1
177
     0
142
1.0
295
     0
296
     0
143
3.75
271
     0
272
     9
273
     9
  0
MLINESTYLE
  5
18
102
{ACAD_REACTORS
330
17
102
}
330
17
100
AcDbMlineStyle
  2
Standard
 70
     0
  3

 62
   256
 51
90.0
 52
90.0
 71
     2
 49
0.5
 62
   256
  6
BYLAYER
 49
-0.5
 62
   256
  6
BYLAYER
  0
ACDBPLACEHOLDER
  5
F
102
{ACAD_REACTORS
330
E
102
}
330
E
  0
SCALE
  5
48
102
{ACAD_REACTORS
330
47
102
}
330
47
100
AcDbScale
 70
     0
300
1:1
140
1.0
141
1.0
290
     1
  0
SCALE
  5
49
102
{ACAD_REACTORS
330
47
102
}
330
47
100
AcDbScale
 70
     0
300
1:2
140
1.0
141
2.0
290
     0
  0
SCALE
  5
4A
102
{ACAD_REACTORS
330
47
102
}
330
47
100
AcDbScale
 70
     0
300
1:4
140
1.0
141
4.0
290
     0
  0
SCALE
  5
4B
102
{ACAD_REACTORS
330
47
102
}
330
47
100
AcDbScale
 70
     0
300
1:5
140
1.0
141
5.0
290
     0
  0
SCALE
  5
4C
102
{ACAD_REACTORS
330
47
102
}
330
47
100
AcDbScale
 70
     0
300
1:8
140
1.0
141
8.0
290
     0
  0
SCALE
  5
4D
102
{ACAD_REACTORS
330
47
102
}
330
47
100
AcDbScale
 70
     0
300
1:10
140
1.0
141
10.0
290
     0
  0
SCALE
  5
4E
102
{ACAD_REACTORS
330
47
102
}
330
47
100
AcDbScale
 70
     0
300
1:16
140
1.0
141
16.0
290
     0
  0
SCALE
  5
4F
102
{ACAD_REACTORS
330
47
102
}
330
47
100
AcDbScale
 70
     0
300
1:20
140
1.0
141
20.0
290
     0
  0
SCALE
  5
50
102
{ACAD_REACTORS
330
47
102
}
330
47
100
AcDbScale
 70
     0
300
1:30
140
1.0
141
30.0
290
     0
  0
SCALE
  5
51
102
{ACAD_REACTORS
330
47
102
}
330
47
100
AcDbScale
 70
     0
300
1:40
140
1.0
141
40.0
290
     0
  0
SCALE
  5
52
102
{ACAD_REACTORS
330
47
102
}
330
47
100
AcDbScale
 70
     0
300
1:50
140
1.0
141
50.0
290
     0
  0
SCALE
  5
53
102
{ACAD_REACTORS
330
47
102
}
330
47
100
AcDbScale
 70
     0
300
1:100
140
1.0
141
100.0
290
     0
  0
SCALE
  5
54
102
{ACAD_REACTORS
330
47
102
}
330
47
100
AcDbScale
 70
     0
300
2:1
140
2.0
141
1.0
290
     0
  0
SCALE
  5
55
102
{ACAD_REACTORS
330
47
102
}
330
47
100
AcDbScale
 70
     0
300
4:1
140
4.0
141
1.0
290
     0
  0
SCALE
  5
56
102
{ACAD_REACTORS
330
47
102
}
330
47
100
AcDbScale
 70
     0
300
8:1
140
8.0
141
1.0
290
     0
  0
SCALE
  5
57
102
{ACAD_REACTORS
330
47
102
}
330
47
100
AcDbScale
 70
     0
300
10:1
140
10.0
141
1.0
290
     0
  0
SCALE
  5
58
102
{ACAD_REACTORS
330
47
102
}
330
47
100
AcDbScale
 70
     0
300
100:1
140
100.0
141
1.0
290
     0
  0
SCALE
  5
59
102
{ACAD_REACTORS
330
47
102
}
330
47
100
AcDbScale
 70
     0
300
1/128" = 1'-0"
140
0.0078125
141
12.0
290
     0
  0
SCALE
  5
5A
102
{ACAD_REACTORS
330
47
102
}
330
47
100
AcDbScale
 70
     0
300
1/64" = 1'-0"
140
0.015625
141
12.0
290
     0
  0
SCALE
  5
5B
102
{ACAD_REACTORS
330
47
102
}
330
47
100
AcDbScale
 70
     0
300
1/32" = 1'-0"
140
0.03125
141
12.0
290
     0
  0
SCALE
  5
5C
102
{ACAD_REACTORS
330
47
102
}
330
47
100
AcDbScale
 70
     0
300
1/16" = 1'-0"
140
0.0625
141
12.0
290
     0
  0
SCALE
  5
5D
102
{ACAD_REACTORS
330
47
102
}
330
47
100
AcDbScale
 70
     0
300
3/32" = 1'-0"
140
0.09375
141
12.0
290
     0
  0
SCALE
  5
5E
102
{ACAD_REACTORS
330
47
102
}
330
47
100
AcDbScale
 70
     0
300
1/8" = 1'-0"
140
0.125
141
12.0
290
     0
  0
SCALE
  5
5F
102
{ACAD_REACTORS
330
47
102
}
330
47
100
AcDbScale
 70
     0
300
3/16" = 1'-0"
140
0.1875
141
12.0
290
     0
  0
SCALE
  5
60
102
{ACAD_REACTORS
330
47
102
}
330
47
100
AcDbScale
 70
     0
300
1/4" = 1'-0"
140
0.25
141
12.0
290
     0
  0
SCALE
  5
61
102
{ACAD_REACTORS
330
47
102
}
330
47
100
AcDbScale
 70
     0
300
3/8" = 1'-0"
140
0.375
141
12.0
290
     0
  0
SCALE
  5
62
102
{ACAD_REACTORS
330
47
102
}
330
47
100
AcDbScale
 70
     0
300
1/2" = 1'-0"
140
0.5
141
12.0
290
     0
  0
SCALE
  5
63
102
{ACAD_REACTORS
330
47
102
}
330
47
100
AcDbScale
 70
     0
300
3/4" = 1'-0"
140
0.75
141
12.0
290
     0
  0
SCALE
  5
64
102
{ACAD_REACTORS
330
47
102
}
330
47
100
AcDbScale
 70
     0
300
1" = 1'-0"
140
1.0
141
12.0
290
     0
  0
SCALE
  5
65
102
{ACAD_REACTORS
330
47
102
}
330
47
100
AcDbScale
 70
     0
300
1-1/2" = 1'-0"
140
1.5
141
12.0
290
     0
  0
SCALE
  5
66
102
{ACAD_REACTORS
330
47
102
}
330
47
100
AcDbScale
 70
     0
300
3" = 1'-0"
140
3.0
141
12.0
290
     0
  0
SCALE
  5
67
102
{ACAD_REACTORS
330
47
102
}
330
47
100
AcDbScale
 70
     0
300
6" = 1'-0"
140
6.0
141
12.0
290
     0
  0
SCALE
  5
68
102
{ACAD_REACTORS
330
47
102
}
330
47
100
AcDbScale
 70
     0
300
1'-0" = 1'-0"
140
12.0
141
12.0
290
     0
  0
TABLESTYLE
  5
6A
102
{ACAD_REACTORS
330
69
102
}
102
{ACAD_XDICTIONARY
360
205
102
}
330
69
100
AcDbTableStyle
  3
Standard
 70
     0
 71
     0
 40
0.06
 41
0.06
280
     0
281
     0
  7
Standard
140
4.5
170
     2
 62
     0
 63
   257
283
     0
 90
        4
 91
        0
  1

274
    -2
284
     1
 64
     0
275
    -2
285
     1
 65
     0
276
    -2
286
     1
 66
     0
277
    -2
287
     1
 67
     0
278
    -2
288
     1
 68
     0
279
    -2
289
     1
 69
     0
  7
Standard
140
6.0
170
     5
 62
     0
 63
   257
283
     0
 90
        4
 91
        0
  1

274
    -2
284
     1
 64
     0
275
    -2
285
     1
 65
     0
276
    -2
286
     1
 66
     0
277
    -2
287
     1
 67
     0
278
    -2
288
     1
 68
     0
279
    -2
289
     1
 69
     0
  7
Standard
140
4.5
170
     5
 62
     0
 63
   257
283
     0
 90
        4
 91
        0
  1

274
    -2
284
     1
 64
     0
275
    -2
285
     1
 65
     0
276
    -2
286
     1
 66
     0
277
    -2
287
     1
 67
     0
278
    -2
288
     1
 68
     0
279
    -2
289
     1
 69
     0
  0
VISUALSTYLE
  5
2F
102
{ACAD_REACTORS
330
2A
102
}
330
2A
100
AcDbVisualStyle
  2
2dWireframe
 70
     4
177
     2
291
     0
 71
     0
176
     1
 72
     2
176
     1
 73
     0
176
     1
 90
        0
176
     1
 40
0.6
176
     1
 41
30.0
176
     1
 62
     5
 63
     7
421
 16777215
176
     1
 74
     1
176
     1
 91
        4
176
     1
 64
     7
176
     1
 65
   257
176
     1
 75
     1
176
     1
175
     1
176
     1
 42
1.0
176
     1
 92
        0
176
     1
 66
   257
176
     1
 43
1.0
176
     1
 76
     1
176
     1
 77
     6
176
     1
 78
     2
176
     1
 67
     7
176
     1
 79
     5
176
     1
170
     0
176
     1
171
     0
176
     1
290
     0
176
     1
 93
        1
176
     1
 44
0.0
176
     1
173
     0
176
     1
  0
VISUALSTYLE
  5
32
102
{ACAD_REACTORS
330
2A
102
}
330
2A
100
AcDbVisualStyle
  2
Basic
 70
     7
177
     2
291
     1
 71
     1
176
     1
 72
     0
176
     1
 73
     1
176
     1
 90
        0
176
     1
 40
0.6
176
     1
 41
30.0
176
     1
 62
     5
 63
     7
421
 16777215
176
     1
 74
     0
176
     1
 91
        4
176
     1
 64
     7
176
     1
 65
   257
176
     1
 75
     1
176
     1
175
     1
176
     1
 42
1.0
176
     1
 92
        8
176
     1
 66
     7
176
     1
 43
1.0
176
     1
 76
     1
176
     1
 77
     6
176
     1
 78
     2
176
     1
 67
     7
176
     1
 79
     5
176
     1
170
     0
176
     1
171
     0
176
     1
290
     0
176
     1
 93
        1
176
     1
 44
0.0
176
     1
173
     0
176
     1
  0
VISUALSTYLE
  5
36
102
{ACAD_REACTORS
330
2A
102
}
330
2A
100
AcDbVisualStyle
  2
Brighten
 70
    12
177
     2
291
     1
 71
     2
176
     1
 72
     2
176
     1
 73
     0
176
     1
 90
        0
176
     1
 40
0.6
176
     1
 41
30.0
176
     1
 62
     5
 63
     7
421
 16777215
176
     1
 74
     1
176
     1
 91
        4
176
     1
 64
     7
176
     1
 65
   257
176
     1
 75
     1
176
     1
175
     1
176
     1
 42
1.0
176
     1
 92
        8
176
     1
 66
     7
176
     1
 43
1.0
176
     1
 76
     1
176
     1
 77
     6
176
     1
 78
     2
176
     1
 67
     7
176
     1
 79
     5
176
     1
170
     0
176
     1
171
     0
176
     1
290
     0
176
     1
 93
        1
176
     1
 44
50.0
176
     1
173
     0
176
     1
  0
VISUALSTYLE
  5
3A
102
{ACAD_REACTORS
330
2A
102
}
330
2A
100
AcDbVisualStyle
  2
ColorChange
 70
    16
177
     2
291
     1
 71
     2
176
     1
 72
     2
176
     1
 73
     3
176
     1
 90
        0
176
     1
 40
0.6
176
     1
 41
30.0
176
     1
 62
     5
 63
     8
421
  8421504
176
     1
 74
     1
176
     1
 91
        4
176
     1
 64
     7
176
     1
 65
   257
176
     1
 75
     1
176
     1
175
     1
176
     1
 42
1.0
176
     1
 92
        8
176
     1
 66
     8
424
  8421504
176
     1
 43
1.0
176
     1
 76
     1
176
     1
 77
     6
176
     1
 78
     2
176
     1
 67
     7
176
     1
 79
     5
176
     1
170
     0
176
     1
171
     0
176
     1
290
     0
176
     1
 93
        1
176
     1
 44
0.0
176
     1
173
     0
176
     1
  0
VISUALSTYLE
  5
34
102
{ACAD_REACTORS
330
2A
102
}
330
2A
100
AcDbVisualStyle
  2
Conceptual
 70
     9
177
     2
291
     0
 71
     3
176
     1
 72
     2
176
     1
 73
     0
176
     1
 90
        0
176
     1
 40
0.6
176
     1
 41
30.0
176
     1
 62
     5
 63
     7
421
 16777215
176
     1
 74
     2
176
     1
 91
        2
176
     1
 64
     7
176
     1
 65
   257
176
     1
 75
     1
176
     1
175
     1
176
     1
 42
179.0
176
     1
 92
        8
176
     1
 66
     7
176
     1
 43
1.0
176
     1
 76
     1
176
     1
 77
     6
176
     1
 78
     2
176
     1
 67
     7
176
     1
 79
     3
176
     1
170
     0
176
     1
171
     0
176
     1
290
     0
176
     1
 93
        1
176
     1
 44
0.0
176
     1
173
     0
176
     1
  0
VISUALSTYLE
  5
35
102
{ACAD_REACTORS
330
2A
102
}
330
2A
100
AcDbVisualStyle
  2
Dim
 70
    11
177
     2
291
     1
 71
     2
176
     1
 72
     2
176
     1
 73
     0
176
     1
 90
        0
176
     1
 40
0.6
176
     1
 41
30.0
176
     1
 62
     5
 63
     7
421
 16777215
176
     1
 74
     1
176
     1
 91
        4
176
     1
 64
     7
176
     1
 65
   257
176
     1
 75
     1
176
     1
175
     1
176
     1
 42
1.0
176
     1
 92
        8
176
     1
 66
     7
176
     1
 43
1.0
176
     1
 76
     1
176
     1
 77
     6
176
     1
 78
     2
176
     1
 67
     7
176
     1
 79
     5
176
     1
170
     0
176
     1
171
     0
176
     1
290
     0
176
     1
 93
        1
176
     1
 44
-50.0
176
     1
173
     0
176
     1
  0
VISUALSTYLE
  5
3D
102
{ACAD_REACTORS
330
2A
102
}
330
2A
100
AcDbVisualStyle
  2
EdgeColorOff
 70
    22
177
     2
291
     1
 71
     2
176
     0
 72
     2
176
     0
 73
     0
176
     0
 90
        0
176
     0
 40
0.6
176
     0
 41
30.0
176
     0
 62
     5
 63
     7
421
 16777215
176
     0
 74
     1
176
     0
 91
        4
176
     0
 64
     7
176
     0
 65
   257
176
     0
 75
     1
176
     0
175
     1
176
     0
 42
1.0
176
     0
 92
        8
176
     2
 66
     7
176
     0
 43
1.0
176
     0
 76
     1
176
     0
 77
     6
176
     0
 78
     2
176
     0
 67
     7
176
     0
 79
     5
176
     0
170
     0
176
     0
171
     0
176
     0
290
     0
176
     0
 93
        1
176
     0
 44
0.0
176
     0
173
     0
176
     0
  0
VISUALSTYLE
  5
39
102
{ACAD_REACTORS
330
2A
102
}
330
2A
100
AcDbVisualStyle
  2
Facepattern
 70
    15
177
     2
291
     1
 71
     2
176
     1
 72
     2
176
     1
 73
     0
176
     1
 90
        0
176
     1
 40
0.6
176
     1
 41
30.0
176
     1
 62
     5
 63
     7
421
 16777215
176
     1
 74
     1
176
     1
 91
        4
176
     1
 64
     7
176
     1
 65
   257
176
     1
 75
     1
176
     1
175
     1
176
     1
 42
1.0
176
     1
 92
        8
176
     1
 66
     7
176
     1
 43
1.0
176
     1
 76
     1
176
     1
 77
     6
176
     1
 78
     2
176
     1
 67
     7
176
     1
 79
     5
176
     1
170
     0
176
     1
171
     0
176
     1
290
     0
176
     1
 93
        1
176
     1
 44
0.0
176
     1
173
     0
176
     1
  0
VISUALSTYLE
  5
2B
102
{ACAD_REACTORS
330
2A
102
}
330
2A
100
AcDbVisualStyle
  2
Flat
 70
     0
177
     2
291
     1
 71
     2
176
     1
 72
     1
176
     1
 73
     1
176
     1
 90
        2
176
     1
 40
0.6
176
     1
 41
30.0
176
     1
 62
     5
 63
     7
421
 16777215
176
     1
 74
     0
176
     1
 91
        0
176
     1
 64
     7
176
     1
 65
   257
176
     1
 75
     1
176
     1
175
     1
176
     1
 42
1.0
176
     1
 92
        8
176
     1
 66
     7
176
     1
 43
1.0
176
     1
 76
     1
176
     1
 77
     6
176
     1
 78
     2
176
     1
 67
     7
176
     1
 79
     5
176
     1
170
     0
176
     1
171
     0
176
     1
290
     0
176
     1
 93
       13
176
     1
 44
0.0
176
     1
173
     0
176
     1
  0
VISUALSTYLE
  5
2C
102
{ACAD_REACTORS
330
2A
102
}
330
2A
100
AcDbVisualStyle
  2
FlatWithEdges
 70
     1
177
     2
291
     1
 71
     2
176
     1
 72
     1
176
     1
 73
     1
176
     1
 90
        2
176
     1
 40
0.6
176
     1
 41
30.0
176
     1
 62
     5
 63
     7
421
 16777215
176
     1
 74
     1
176
     1
 91
        0
176
     1
 64
     7
176
     1
 65
   257
176
     1
 75
     1
176
     1
175
     1
176
     1
 42
1.0
176
     1
 92
        0
176
     1
 66
   257
176
     1
 43
1.0
176
     1
 76
     1
176
     1
 77
     6
176
     1
 78
     2
176
     1
 67
     7
176
     1
 79
     5
176
     1
170
     0
176
     1
171
     0
176
     1
290
     0
176
     1
 93
       13
176
     1
 44
0.0
176
     1
173
     0
176
     1
  0
VISUALSTYLE
  5
2D
102
{ACAD_REACTORS
330
2A
102
}
330
2A
100
AcDbVisualStyle
  2
Gouraud
 70
     2
177
     2
291
     1
 71
     2
176
     1
 72
     2
176
     1
 73
     1
176
     1
 90
        2
176
     1
 40
0.6
176
     1
 41
30.0
176
     1
 62
     5
 63
     7
421
 16777215
176
     1
 74
     0
176
     1
 91
        0
176
     1
 64
     7
176
     1
 65
   257
176
     1
 75
     1
176
     1
175
     1
176
     1
 42
1.0
176
     1
 92
        0
176
     1
 66
     7
176
     1
 43
1.0
176
     1
 76
     1
176
     1
 77
     6
176
     1
 78
     2
176
     1
 67
     7
176
     1
 79
     5
176
     1
170
     0
176
     1
171
     0
176
     1
290
     0
176
     1
 93
       13
176
     1
 44
0.0
176
     1
173
     0
176
     1
  0
VISUALSTYLE
  5
2E
102
{ACAD_REACTORS
330
2A
102
}
330
2A
100
AcDbVisualStyle
  2
GouraudWithEdges
 70
     3
177
     2
291
     1
 71
     2
176
     1
 72
     2
176
     1
 73
     1
176
     1
 90
        2
176
     1
 40
0.6
176
     1
 41
30.0
176
     1
 62
     5
 63
     7
421
 16777215
176
     1
 74
     1
176
     1
 91
        0
176
     1
 64
     7
176
     1
 65
   257
176
     1
 75
     1
176
     1
175
     1
176
     1
 42
1.0
176
     1
 92
        0
176
     1
 66
   257
176
     1
 43
1.0
176
     1
 76
     1
176
     1
 77
     6
176
     1
 78
     2
176
     1
 67
     7
176
     1
 79
     5
176
     1
170
     0
176
     1
171
     0
176
     1
290
     0
176
     1
 93
       13
176
     1
 44
0.0
176
     1
173
     0
176
     1
  0
VISUALSTYLE
  5
31
102
{ACAD_REACTORS
330
2A
102
}
330
2A
100
AcDbVisualStyle
  2
Hidden
 70
     6
177
     2
291
     0
 71
     1
176
     1
 72
     2
176
     1
 73
     2
176
     1
 90
        0
176
     1
 40
0.6
176
     1
 41
30.0
176
     1
 62
     5
 63
     7
421
 16777215
176
     1
 74
     2
176
     1
 91
        2
176
     1
 64
     7
176
     1
 65
   257
176
     1
 75
     2
176
     1
175
     1
176
     1
 42
40.0
176
     1
 92
        0
176
     1
 66
   257
176
     1
 43
1.0
176
     1
 76
     1
176
     1
 77
     6
176
     1
 78
     2
176
     1
 67
     7
176
     1
 79
     3
176
     1
170
     0
176
     1
171
     0
176
     1
290
     0
176
     1
 93
        1
176
     1
 44
0.0
176
     1
173
     0
176
     1
  0
VISUALSTYLE
  5
3B
102
{ACAD_REACTORS
330
2A
102
}
330
2A
100
AcDbVisualStyle
  2
JitterOff
 70
    20
177
     2
291
     1
 71
     2
176
     0
 72
     2
176
     0
 73
     0
176
     0
 90
        0
176
     0
 40
0.6
176
     0
 41
30.0
176
     0
 62
     5
 63
     7
421
 16777215
176
     0
 74
     1
176
     0
 91
        4
176
     0
 64
     7
176
     0
 65
   257
176
     0
 75
     1
176
     0
175
     1
176
     0
 42
1.0
176
     0
 92
       10
176
     2
 66
     7
176
     0
 43
1.0
176
     0
 76
     1
176
     0
 77
     6
176
     0
 78
     2
176
     0
 67
     7
176
     0
 79
     5
176
     0
170
     0
176
     0
171
     0
176
     0
290
     0
176
     0
 93
        1
176
     0
 44
0.0
176
     0
173
     0
176
     0
  0
VISUALSTYLE
  5
38
102
{ACAD_REACTORS
330
2A
102
}
330
2A
100
AcDbVisualStyle
  2
Linepattern
 70
    14
177
     2
291
     1
 71
     2
176
     1
 72
     2
176
     1
 73
     0
176
     1
 90
        0
176
     1
 40
0.6
176
     1
 41
30.0
176
     1
 62
     5
 63
     7
421
 16777215
176
     1
 74
     1
176
     1
 91
        4
176
     1
 64
     7
176
     1
 65
   257
176
     1
 75
     7
176
     1
175
     7
176
     1
 42
1.0
176
     1
 92
        8
176
     1
 66
     7
176
     1
 43
1.0
176
     1
 76
     1
176
     1
 77
     6
176
     1
 78
     2
176
     1
 67
     7
176
     1
 79
     5
176
     1
170
     0
176
     1
171
     0
176
     1
290
     0
176
     1
 93
        1
176
     1
 44
0.0
176
     1
173
     0
176
     1
  0
VISUALSTYLE
  5
3C
102
{ACAD_REACTORS
330
2A
102
}
330
2A
100
AcDbVisualStyle
  2
OverhangOff
 70
    21
177
     2
291
     1
 71
     2
176
     0
 72
     2
176
     0
 73
     0
176
     0
 90
        0
176
     0
 40
0.6
176
     0
 41
30.0
176
     0
 62
     5
 63
     7
421
 16777215
176
     0
 74
     1
176
     0
 91
        4
176
     0
 64
     7
176
     0
 65
   257
176
     0
 75
     1
176
     0
175
     1
176
     0
 42
1.0
176
     0
 92
        9
176
     2
 66
     7
176
     0
 43
1.0
176
     0
 76
     1
176
     0
 77
     6
176
     0
 78
     2
176
     0
 67
     7
176
     0
 79
     5
176
     0
170
     0
176
     0
171
     0
176
     0
290
     0
176
     0
 93
        1
176
     0
 44
0.0
176
     0
173
     0
176
     0
  0
VISUALSTYLE
  5
33
102
{ACAD_REACTORS
330
2A
102
}
330
2A
100
AcDbVisualStyle
  2
Realistic
 70
     8
177
     2
291
     0
 71
     2
176
     1
 72
     3
176
     1
 73
     0
176
     1
 90
        2
176
     1
 40
0.6
176
     1
 41
30.0
176
     1
 62
     5
 63
     7
421
 16777215
176
     1
 74
     0
176
     1
 91
        0
176
     1
 64
     7
176
     1
 65
   257
176
     1
 75
     1
176
     1
175
     1
176
     1
 42
1.0
176
     1
 92
        8
176
     1
 66
   257
176
     1
 43
1.0
176
     1
 76
     1
176
     1
 77
     6
176
     1
 78
     2
176
     1
 67
     7
176
     1
 79
     3
176
     1
170
     0
176
     1
171
     0
176
     1
290
     0
176
     1
 93
       13
176
     1
 44
0.0
176
     1
173
     0
176
     1
  0
VISUALSTYLE
  5
42
102
{ACAD_REACTORS
330
2A
102
}
330
2A
100
AcDbVisualStyle
  2
Shaded
 70
    27
177
     2
291
     0
 71
     2
176
     1
 72
     2
176
     1
 73
     1
176
     1
 90
        2
176
     1
 40
0.6
176
     1
 41
30.0
176
     1
 62
     5
 63
     7
421
 16777215
176
     1
 74
     0
176
     1
 91
        4
176
     1
 64
     7
176
     1
 65
   257
176
     1
 75
     1
176
     1
175
     1
176
     1
 42
1.0
176
     1
 92
        8
176
     1
 66
   257
176
     1
 43
1.0
176
     1
 76
     1
176
     1
 77
     6
176
     1
 78
     2
176
     1
 67
     8
425
  7895160
176
     1
 79
     3
176
     1
170
     0
176
     1
171
     0
176
     1
290
     0
176
     1
 93
        5
176
     1
 44
0.0
176
     1
173
     0
176
     1
  0
VISUALSTYLE
  5
41
102
{ACAD_REACTORS
330
2A
102
}
330
2A
100
AcDbVisualStyle
  2
Shaded with edges
 70
    26
177
     2
291
     0
 71
     2
176
     1
 72
     2
176
     1
 73
     1
176
     1
 90
        2
176
     1
 40
0.6
176
     1
 41
30.0
176
     1
 62
     5
 63
     7
421
 16777215
176
     1
 74
     1
176
     1
 91
       10
176
     1
 64
     7
176
     1
 65
   257
176
     1
 75
     2
176
     1
175
     1
176
     1
 42
1.0
176
     1
 92
        8
176
     1
 66
   257
176
     1
 43
1.0
176
     1
 76
     1
176
     1
 77
     6
176
     1
 78
     2
176
     1
 67
     7
176
     1
 79
     3
176
     1
170
     0
176
     1
171
     0
176
     1
290
     0
176
     1
 93
        5
176
     1
 44
0.0
176
     1
173
     0
176
     1
  0
VISUALSTYLE
  5
3E
102
{ACAD_REACTORS
330
2A
102
}
330
2A
100
AcDbVisualStyle
  2
Shades of Gray
 70
    23
177
     2
291
     0
 71
     2
176
     1
 72
     2
176
     1
 73
     3
176
     1
 90
        0
176
     1
 40
0.6
176
     1
 41
30.0
176
     1
 62
     5
 63
     7
421
 16777215
176
     1
 74
     2
176
     1
 91
        2
176
     1
 64
     7
176
     1
 65
     7
176
     1
 75
     1
176
     1
175
     1
176
     1
 42
40.0
176
     1
 92
        8
176
     1
 66
     7
176
     1
 43
1.0
176
     1
 76
     1
176
     1
 77
     6
176
     1
 78
     2
176
     1
 67
     7
176
     1
 79
     3
176
     1
170
     0
176
     1
171
     0
176
     1
290
     0
176
     1
 93
        1
176
     1
 44
0.0
176
     1
173
     0
176
     1
  0
VISUALSTYLE
  5
3F
102
{ACAD_REACTORS
330
2A
102
}
330
2A
100
AcDbVisualStyle
  2
Sketchy
 70
    24
177
     2
291
     0
 71
     1
176
     1
 72
     2
176
     1
 73
     2
176
     1
 90
        0
176
     1
 40
0.6
176
     1
 41
30.0
176
     1
 62
     5
 63
     7
421
 16777215
176
     1
 74
     2
176
     1
 91
        2
176
     1
 64
     7
176
     1
 65
     7
176
     1
 75
     1
176
     1
175
     1
176
     1
 42
40.0
176
     1
 92
       11
176
     1
 66
     7
176
     1
 43
1.0
176
     1
 76
     1
176
     1
 77
     6
176
     1
 78
     2
176
     1
 67
     7
176
     1
 79
     6
176
     1
170
     0
176
     1
171
     0
176
     1
290
     0
176
     1
 93
        1
176
     1
 44
0.0
176
     1
173
     0
176
     1
  0
VISUALSTYLE
  5
37
102
{ACAD_REACTORS
330
2A
102
}
330
2A
100
AcDbVisualStyle
  2
Thicken
 70
    13
177
     2
291
     1
 71
     2
176
     1
 72
     2
176
     1
 73
     0
176
     1
 90
        0
176
     1
 40
0.6
176
     1
 41
30.0
176
     1
 62
     5
 63
     7
421
 16777215
176
     1
 74
     1
176
     1
 91
        4
176
     1
 64
     7
176
     1
 65
   257
176
     1
 75
     1
176
     1
175
     1
176
     1
 42
1.0
176
     1
 92
       12
176
     1
 66
     7
176
     1
 43
1.0
176
     1
 76
     1
176
     1
 77
     6
176
     1
 78
     2
176
     1
 67
     7
176
     1
 79
     5
176
     1
170
     0
176
     1
171
     0
176
     1
290
     0
176
     1
 93
        1
176
     1
 44
0.0
176
     1
173
     0
176
     1
  0
VISUALSTYLE
  5
30
102
{ACAD_REACTORS
330
2A
102
}
330
2A
100
AcDbVisualStyle
  2
Wireframe
 70
     5
177
     2
291
     0
 71
     0
176
     1
 72
     2
176
     1
 73
     0
176
     1
 90
        0
176
     1
 40
0.6
176
     1
 41
30.0
176
     1
 62
     5
 63
     7
421
 16777215
176
     1
 74
     1
176
     1
 91
        4
176
     1
 64
     7
176
     1
 65
   257
176
     1
 75
     1
176
     1
175
     1
176
     1
 42
1.0
176
     1
 92
        0
176
     1
 66
   257
176
     1
 43
1.0
176
     1
 76
     1
176
     1
 77
     6
176
     1
 78
     2
176
     1
 67
     7
176
     1
 79
     3
176
     1
170
     0
176
     1
171
     0
176
     1
290
     0
176
     1
 93
        1
176
     1
 44
0.0
176
     1
173
     0
176
     1
  0
VISUALSTYLE
  5
40
102
{ACAD_REACTORS
330
2A
102
}
330
2A
100
AcDbVisualStyle
  2
X-Ray
 70
    25
177
     2
291
     0
 71
     2
176
     1
 72
     2
176
     1
 73
     1
176
     1
 90
        1
176
     1
 40
0.5
176
     1
 41
30.0
176
     1
 62
     5
 63
     7
421
 16777215
176
     1
 74
     1
176
     1
 91
        0
176
     1
 64
     7
176
     1
 65
   257
176
     1
 75
     1
176
     1
175
     1
176
     1
 42
1.0
176
     1
 92
        8
176
     1
 66
     7
176
     1
 43
1.0
176
     1
 76
     1
176
     1
 77
     6
176
     1
 78
     2
176
     1
 67
     7
176
     1
 79
     3
176
     1
170
     0
176
     1
171
     0
176
     1
290
     0
176
     1
 93
       13
176
     1
 44
0.0
176
     1
173
     0
176
     1
  0
DICTIONARYVAR
  5
204
102
{ACAD_REACTORS
330
203
102
}
330
203
100
DictionaryVariables
280
     0
  1
1:1
  0
DICTIONARYVAR
  5
209
102
{ACAD_REACTORS
330
203
102
}
330
203
100
DictionaryVariables
280
     0
  1
Standard
  0
DICTIONARYVAR
  5
208
102
{ACAD_REACTORS
330
203
102
}
330
203
100
DictionaryVariables
280
     0
  1
Standard
  0
DICTIONARY
  5
205
330
6A
100
AcDbDictionary
280
     1
281
     1
  3
ACAD_ROUNDTRIP_2008_TABLESTYLE_CELLSTYLEMAP
360
206
  0
CELLSTYLEMAP
  5
206
102
{ACAD_REACTORS
330
205
102
}
330
205
100
AcDbCellStyleMap
 90
        3
300
CELLSTYLE
  1
TABLEFORMAT_BEGIN
 90
        5
170
     1
 91
        0
 92
    32768
 62
   257
 93
        1
300
CONTENTFORMAT
  1
CONTENTFORMAT_BEGIN
 90
        0
 91
        0
 92
        4
 93
        0
300

 40
0.0
140
1.0
 94
        5
 62
     0
340
11
144
6.0
309
CONTENTFORMAT_END
171
     1
301
MARGIN
  1
CELLMARGIN_BEGIN
 40
1.5
 40
1.5
 40
1.5
 40
1.5
 40
1.5
 40
1.5
309
CELLMARGIN_END
 94
        6
 95
        1
302
GRIDFORMAT
  1
GRIDFORMAT_BEGIN
 90
        0
 91
        1
 62
     0
 92
       -2
340
14
 93
        0
 40
0.045
309
GRIDFORMAT_END
 95
        2
302
GRIDFORMAT
  1
GRIDFORMAT_BEGIN
 90
        0
 91
        1
 62
     0
 92
       -2
340
14
 93
        0
 40
0.045
309
GRIDFORMAT_END
 95
        4
302
GRIDFORMAT
  1
GRIDFORMAT_BEGIN
 90
        0
 91
        1
 62
     0
 92
       -2
340
14
 93
        0
 40
0.045
309
GRIDFORMAT_END
 95
        8
302
GRIDFORMAT
  1
GRIDFORMAT_BEGIN
 90
        0
 91
        1
 62
     0
 92
       -2
340
14
 93
        0
 40
0.045
309
GRIDFORMAT_END
 95
       16
302
GRIDFORMAT
  1
GRIDFORMAT_BEGIN
 90
        0
 91
        1
 62
     0
 92
       -2
340
14
 93
        0
 40
0.045
309
GRIDFORMAT_END
 95
       32
302
GRIDFORMAT
  1
GRIDFORMAT_BEGIN
 90
        0
 91
        1
 62
     0
 92
       -2
340
14
 93
        0
 40
0.045
309
GRIDFORMAT_END
309
TABLEFORMAT_END
  1
CELLSTYLE_BEGIN
 90
        1
 91
        1
300
_TITLE
309
CELLSTYLE_END
300
CELLSTYLE
  1
TABLEFORMAT_BEGIN
 90
        5
170
     1
 91
        0
 92
        0
 62
   257
 93
        1
300
CONTENTFORMAT
  1
CONTENTFORMAT_BEGIN
 90
        0
 91
        0
 92
        4
 93
        0
300

 40
0.0
140
1.0
 94
        5
 62
     0
340
11
144
4.5
309
CONTENTFORMAT_END
171
     1
301
MARGIN
  1
CELLMARGIN_BEGIN
 40
1.5
 40
1.5
 40
1.5
 40
1.5
 40
1.5
 40
1.5
309
CELLMARGIN_END
 94
        6
 95
        1
302
GRIDFORMAT
  1
GRIDFORMAT_BEGIN
 90
        0
 91
        1
 62
     0
 92
       -2
340
14
 93
        0
 40
0.045
309
GRIDFORMAT_END
 95
        2
302
GRIDFORMAT
  1
GRIDFORMAT_BEGIN
 90
        0
 91
        1
 62
     0
 92
       -2
340
14
 93
        0
 40
0.045
309
GRIDFORMAT_END
 95
        4
302
GRIDFORMAT
  1
GRIDFORMAT_BEGIN
 90
        0
 91
        1
 62
     0
 92
       -2
340
14
 93
        0
 40
0.045
309
GRIDFORMAT_END
 95
        8
302
GRIDFORMAT
  1
GRIDFORMAT_BEGIN
 90
        0
 91
        1
 62
     0
 92
       -2
340
14
 93
        0
 40
0.045
309
GRIDFORMAT_END
 95
       16
302
GRIDFORMAT
  1
GRIDFORMAT_BEGIN
 90
        0
 91
        1
 62
     0
 92
       -2
340
14
 93
        0
 40
0.045
309
GRIDFORMAT_END
 95
       32
302
GRIDFORMAT
  1
GRIDFORMAT_BEGIN
 90
        0
 91
        1
 62
     0
 92
       -2
340
14
 93
        0
 40
0.045
309
GRIDFORMAT_END
309
TABLEFORMAT_END
  1
CELLSTYLE_BEGIN
 90
        2
 91
        1
300
_HEADER
309
CELLSTYLE_END
300
CELLSTYLE
  1
TABLEFORMAT_BEGIN
 90
        5
170
     1
 91
        0
 92
        0
 62
   257
 93
        1
300
CONTENTFORMAT
  1
CONTENTFORMAT_BEGIN
 90
        0
 91
        0
 92
        4
 93
        0
300

 40
0.0
140
1.0
 94
        2
 62
     0
340
11
144
4.5
309
CONTENTFORMAT_END
171
     1
301
MARGIN
  1
CELLMARGIN_BEGIN
 40
1.5
 40
1.5
 40
1.5
 40
1.5
 40
1.5
 40
1.5
309
CELLMARGIN_END
 94
        6
 95
        1
302
GRIDFORMAT
  1
GRIDFORMAT_BEGIN
 90
        0
 91
        1
 62
     0
 92
       -2
340
14
 93
        0
 40
0.045
309
GRIDFORMAT_END
 95
        2
302
GRIDFORMAT
  1
GRIDFORMAT_BEGIN
 90
        0
 91
        1
 62
     0
 92
       -2
340
14
 93
        0
 40
0.045
309
GRIDFORMAT_END
 95
        4
302
GRIDFORMAT
  1
GRIDFORMAT_BEGIN
 90
        0
 91
        1
 62
     0
 92
       -2
340
14
 93
        0
 40
0.045
309
GRIDFORMAT_END
 95
        8
302
GRIDFORMAT
  1
GRIDFORMAT_BEGIN
 90
        0
 91
        1
 62
     0
 92
       -2
340
14
 93
        0
 40
0.045
309
GRIDFORMAT_END
 95
       16
302
GRIDFORMAT
  1
GRIDFORMAT_BEGIN
 90
        0
 91
        1
 62
     0
 92
       -2
340
14
 93
        0
 40
0.045
309
GRIDFORMAT_END
 95
       32
302
GRIDFORMAT
  1
GRIDFORMAT_BEGIN
 90
        0
 91
        1
 62
     0
 92
       -2
340
14
 93
        0
 40
0.045
309
GRIDFORMAT_END
309
TABLEFORMAT_END
  1
CELLSTYLE_BEGIN
 90
        3
 91
        2
300
_DATA
309
CELLSTYLE_END
  0
ENDSEC
  0
EOF
