  0
SECTION
  2
HEADER
  9
$ACADVER
  1
AC1015
  9
$ACADMAINTVER
 70
     6
  9
$DWGCODEPAGE
  3
ANSI_1252
  9
$INSBASE
 10
0.0
 20
0.0
 30
0.0
  9
$EXTMIN
 10
0.0
 20
0.0
 30
0.0
  9
$EXTMAX
 10
1189.0
 20
841.0
 30
0.0
  9
$LIMMIN
 10
0.0
 20
0.0
  9
$LIMMAX
 10
1189.0
 20
841.0
  9
$ORTHOMODE
 70
     0
  9
$REGENMODE
 70
     1
  9
$FILLMODE
 70
     1
  9
$QTEXTMODE
 70
     0
  9
$MIRRTEXT
 70
     1
  9
$LTSCALE
 40
1.0
  9
$ATTMODE
 70
     1
  9
$TEXTSIZE
 40
3.5
  9
$TRACEWID
 40
1.0
  9
$TEXTSTYLE
  7
Standard
  9
$CLAYER
  8
0
  9
$CELTYPE
  6
ByLayer
  9
$CECOLOR
 62
   256
  9
$CELTSCALE
 40
1.0
  9
$DISPSILH
 70
     0
  9
$DIMSCALE
 40
1.0
  9
$DIMASZ
 40
3.302
  9
$DIMEXO
 40
1.0
  9
$DIMDLI
 40
3.75
  9
$DIMRND
 40
0.0
  9
$DIMDLE
 40
0.0
  9
$DIMEXE
 40
1.0
  9
$DIMTP
 40
0.0
  9
$DIMTM
 40
0.0
  9
$DIMTXT
 40
3.5
  9
$DIMCEN
 40
2.5
  9
$DIMTSZ
 40
0.0
  9
$DIMTOL
 70
     0
  9
$DIMLIM
 70
     0
  9
$DIMTIH
 70
     1
  9
$DIMTOH
 70
     1
  9
$DIMSE1
 70
     0
  9
$DIMSE2
 70
     0
  9
$DIMTAD
 70
     1
  9
$DIMZIN
 70
     0
  9
$DIMBLK
  1

  9
$DIMASO
 70
     1
  9
$DIMSHO
 70
     1
  9
$DIMPOST
  1

  9
$DIMAPOST
  1

  9
$DIMALT
 70
     0
  9
$DIMALTD
 70
     3
  9
$DIMALTF
 40
0.0393700787
  9
$DIMLFAC
 40
5.0
  9
$DIMTOFL
 70
     1
  9
$DIMTVP
 40
0.0
  9
$DIMTIX
 70
     0
  9
$DIMSOXD
 70
     0
  9
$DIMSAH
 70
     0
  9
$DIMBLK1
  1

  9
$DIMBLK2
  1

  9
$DIMSTYLE
  2
ISO-25
  9
$DIMCLRD
 70
     0
  9
$DIMCLRE
 70
     0
  9
$DIMCLRT
 70
     0
  9
$DIMTFAC
 40
1.0
  9
$DIMGAP
 40
1.524
  9
$DIMJUST
 70
     0
  9
$DIMSD1
 70
     0
  9
$DIMSD2
 70
     0
  9
$DIMTOLJ
 70
     0
  9
$DIMTZIN
 70
     0
  9
$DIMALTZ
 70
     0
  9
$DIMALTTZ
 70
     0
  9
$DIMUPT
 70
     0
  9
$DIMDEC
 70
     2
  9
$DIMTDEC
 70
     2
  9
$DIMALTU
 70
     2
  9
$DIMALTTD
 70
     3
  9
$DIMTXSTY
  7
Standard
  9
$DIMAUNIT
 70
     0
  9
$DIMADEC
 70
     2
  9
$DIMALTRND
 40
0.0
  9
$DIMAZIN
 70
     0
  9
$DIMDSEP
 70
    44
  9
$DIMATFIT
 70
     3
  9
$DIMFRAC
 70
     0
  9
$DIMLDRBLK
  1

  9
$DIMLUNIT
 70
     2
  9
$DIMLWD
 70
    -2
  9
$DIMLWE
 70
    -2
  9
$DIMTMOVE
 70
     0
  9
$LUNITS
 70
     2
  9
$LUPREC
 70
     2
  9
$SKETCHINC
 40
1.0
  9
$FILLETRAD
 40
10.0
  9
$AUNITS
 70
     0
  9
$AUPREC
 70
     2
  9
$MENU
  1
.
  9
$ELEVATION
 40
0.0
  9
$PELEVATION
 40
0.0
  9
$THICKNESS
 40
0.0
  9
$LIMCHECK
 70
     0
  9
$CHAMFERA
 40
0.0
  9
$CHAMFERB
 40
0.0
  9
$CHAMFERC
 40
0.0
  9
$CHAMFERD
 40
0.0
  9
$SKPOLY
 70
     0
  9
$TDCREATE
 40
2458054.756491621
  9
$TDUCREATE
 40
2458054.714824954
  9
$TDUPDATE
 40
2458054.756491805
  9
$TDUUPDATE
 40
2458054.714825139
  9
$TDINDWG
 40
0.0000000116
  9
$TDUSRTIMER
 40
0.0000000116
  9
$USRTIMER
 70
     1
  9
$ANGBASE
 50
0.0
  9
$ANGDIR
 70
     0
  9
$PDMODE
 70
     0
  9
$PDSIZE
 40
-1.0
  9
$PLINEWID
 40
0.0
  9
$SPLFRAME
 70
     0
  9
$SPLINETYPE
 70
     6
  9
$SPLINESEGS
 70
     8
  9
$HANDSEED
  5
1EB
  9
$SURFTAB1
 70
     6
  9
$SURFTAB2
 70
     6
  9
$SURFTYPE
 70
     6
  9
$SURFU
 70
     6
  9
$SURFV
 70
     6
  9
$UCSBASE
  2

  9
$UCSNAME
  2

  9
$UCSORG
 10
0.0
 20
0.0
 30
0.0
  9
$UCSXDIR
 10
1.0
 20
0.0
 30
0.0
  9
$UCSYDIR
 10
0.0
 20
1.0
 30
0.0
  9
$UCSORTHOREF
  2

  9
$UCSORTHOVIEW
 70
     0
  9
$UCSORGTOP
 10
0.0
 20
0.0
 30
0.0
  9
$UCSORGBOTTOM
 10
0.0
 20
0.0
 30
0.0
  9
$UCSORGLEFT
 10
0.0
 20
0.0
 30
0.0
  9
$UCSORGRIGHT
 10
0.0
 20
0.0
 30
0.0
  9
$UCSORGFRONT
 10
0.0
 20
0.0
 30
0.0
  9
$UCSORGBACK
 10
0.0
 20
0.0
 30
0.0
  9
$PUCSBASE
  2

  9
$PUCSNAME
  2

  9
$PUCSORG
 10
0.0
 20
0.0
 30
0.0
  9
$PUCSXDIR
 10
1.0
 20
0.0
 30
0.0
  9
$PUCSYDIR
 10
0.0
 20
1.0
 30
0.0
  9
$PUCSORTHOREF
  2

  9
$PUCSORTHOVIEW
 70
     0
  9
$PUCSORGTOP
 10
0.0
 20
0.0
 30
0.0
  9
$PUCSORGBOTTOM
 10
0.0
 20
0.0
 30
0.0
  9
$PUCSORGLEFT
 10
0.0
 20
0.0
 30
0.0
  9
$PUCSORGRIGHT
 10
0.0
 20
0.0
 30
0.0
  9
$PUCSORGFRONT
 10
0.0
 20
0.0
 30
0.0
  9
$PUCSORGBACK
 10
0.0
 20
0.0
 30
0.0
  9
$USERI1
 70
     0
  9
$USERI2
 70
     0
  9
$USERI3
 70
     0
  9
$USERI4
 70
     0
  9
$USERI5
 70
     0
  9
$USERR1
 40
0.0
  9
$USERR2
 40
0.0
  9
$USERR3
 40
0.0
  9
$USERR4
 40
0.0
  9
$USERR5
 40
0.0
  9
$WORLDVIEW
 70
     1
  9
$SHADEDGE
 70
     3
  9
$SHADEDIF
 70
    70
  9
$TILEMODE
 70
     1
  9
$MAXACTVP
 70
    64
  9
$PINSBASE
 10
0.0
 20
0.0
 30
0.0
  9
$PLIMCHECK
 70
     0
  9
$PEXTMIN
 10
1.0000000000E+20
 20
1.0000000000E+20
 30
1.0000000000E+20
  9
$PEXTMAX
 10
-1.0000000000E+20
 20
-1.0000000000E+20
 30
-1.0000000000E+20
  9
$PLIMMIN
 10
0.0
 20
0.0
  9
$PLIMMAX
 10
420.0
 20
297.0
  9
$UNITMODE
 70
     0
  9
$VISRETAIN
 70
     1
  9
$PLINEGEN
 70
     0
  9
$PSLTSCALE
 70
     1
  9
$TREEDEPTH
 70
  3020
  9
$CMLSTYLE
  2
Standard
  9
$CMLJUST
 70
     0
  9
$CMLSCALE
 40
20.0
  9
$PROXYGRAPHICS
 70
     1
  9
$MEASUREMENT
 70
     1
  9
$CELWEIGHT
370
    -1
  9
$ENDCAPS
280
     0
  9
$JOINSTYLE
280
     0
  9
$LWDISPLAY
290
     1
  9
$INSUNITS
 70
     4
  9
$HYPERLINKBASE
  1

  9
$STYLESHEET
  1

  9
$XEDIT
290
     1
  9
$CEPSNTYPE
380
     0
  9
$PSTYLEMODE
290
     1
  9
$FINGERPRINTGUID
  2
{B40F372A-419A-4CBB-85F9-EF32C5167856}
  9
$VERSIONGUID
  2
{FAEB1C32-E019-11D5-929B-00C0DF256EC4}
  9
$EXTNAMES
290
     1
  9
$PSVPSCALE
 40
0.0
  9
$OLESTARTUP
290
     0
  0
ENDSEC
  0
SECTION
  2
CLASSES
  0
CLASS
  1
ACDBDICTIONARYWDFLT
  2
AcDbDictionaryWithDefault
  3
ObjectDBX Classes
 90
        0
280
     0
281
     0
  0
CLASS
  1
VISUALSTYLE
  2
AcDbVisualStyle
  3
ObjectDBX Classes
 90
     4095
280
     0
281
     0
  0
CLASS
  1
MATERIAL
  2
AcDbMaterial
  3
ObjectDBX Classes
 90
     1153
280
     0
281
     0
  0
CLASS
  1
SCALE
  2
AcDbScale
  3
ObjectDBX Classes
 90
     1153
280
     0
281
     0
  0
CLASS
  1
TABLESTYLE
  2
AcDbTableStyle
  3
ObjectDBX Classes
 90
     4095
280
     0
281
     0
  0
CLASS
  1
MLEADERSTYLE
  2
AcDbMLeaderStyle
  3
ACDB_MLEADERSTYLE_CLASS
 90
     4095
280
     0
281
     0
  0
CLASS
  1
SUN
  2
AcDbSun
  3
SCENEOE
 90
     1153
280
     0
281
     0
  0
CLASS
  1
ACDBPLACEHOLDER
  2
AcDbPlaceHolder
  3
ObjectDBX Classes
 90
        0
280
     0
281
     0
  0
CLASS
  1
LAYOUT
  2
AcDbLayout
  3
ObjectDBX Classes
 90
        0
280
     0
281
     0
  0
ENDSEC
  0
SECTION
  2
TABLES
  0
TABLE
  2
VPORT
  5
8
330
0
100
AcDbSymbolTable
 70
     1
  0
VPORT
  5
29
330
8
100
AcDbSymbolTableRecord
100
AcDbViewportTableRecord
  2
*Active
 70
     0
 10
0.0
 20
0.0
 11
1.0
 21
1.0
 12
594.5
 22
420.5
 13
0.0
 23
0.0
 14
10.0
 24
10.0
 15
10.0
 25
10.0
 16
0.0
 26
0.0
 36
1.0
 17
0.0
 27
0.0
 37
0.0
 40
841.0
 41
1.4137931034
 42
50.0
 43
0.0
 44
0.0
 50
0.0
 51
0.0
 71
     0
 72
  2000
 73
     1
 74
     3
 75
     0
 76
     0
 77
     0
 78
     0
281
     0
 65
     1
110
0.0
120
0.0
130
0.0
111
1.0
121
0.0
131
0.0
112
0.0
122
1.0
132
0.0
 79
     0
146
0.0
  0
ENDTAB
  0
TABLE
  2
LTYPE
  5
5
330
0
100
AcDbSymbolTable
 70
     6
  0
LTYPE
  5
14
330
5
100
AcDbSymbolTableRecord
100
AcDbLinetypeTableRecord
  2
ByBlock
 70
     0
  3

 72
    65
 73
     0
 40
0.0
  0
LTYPE
  5
15
330
5
100
AcDbSymbolTableRecord
100
AcDbLinetypeTableRecord
  2
ByLayer
 70
     0
  3

 72
    65
 73
     0
 40
0.0
  0
LTYPE
  5
16
330
5
100
AcDbSymbolTableRecord
100
AcDbLinetypeTableRecord
  2
Continuous
 70
     0
  3
Solid line
 72
    65
 73
     0
 40
0.0
  0
LTYPE
  5
6E
330
5
100
AcDbSymbolTableRecord
100
AcDbLinetypeTableRecord
  2
HIDDEN
 70
     0
  3
Hidden __ __ __ __ __ __ __ __ __ __ __ __ __ __
 72
    65
 73
     2
 40
1.905
 49
1.27
 74
     0
 49
-0.635
 74
     0
  0
LTYPE
  5
6F
330
5
100
AcDbSymbolTableRecord
100
AcDbLinetypeTableRecord
  2
PHANTOM
 70
     0
  3
Phantom ______  __  __  ______  __  __  ______
 72
    65
 73
     6
 40
12.7
 49
6.35
 74
     0
 49
-1.27
 74
     0
 49
1.27
 74
     0
 49
-1.27
 74
     0
 49
1.27
 74
     0
 49
-1.27
 74
     0
  0
LTYPE
  5
70
330
5
100
AcDbSymbolTableRecord
100
AcDbLinetypeTableRecord
  2
CENTER
 70
     0
  3
Center ____ _ ____ _ ____ _ ____ _ ____ _ ____
 72
    65
 73
     4
 40
10.16
 49
6.35
 74
     0
 49
-1.27
 74
     0
 49
1.27
 74
     0
 49
-1.27
 74
     0
  0
LTYPE
  5
71
330
5
100
AcDbSymbolTableRecord
100
AcDbLinetypeTableRecord
  2
CENTERX2
 70
     0
  3
Center (2x) ________  __  ________  __  _____
 72
    65
 73
     4
 40
20.32
 49
12.7
 74
     0
 49
-2.54
 74
     0
 49
2.54
 74
     0
 49
-2.54
 74
     0
  0
LTYPE
  5
72
330
5
100
AcDbSymbolTableRecord
100
AcDbLinetypeTableRecord
  2
DOT2
 70
     0
  3
Dot (.5x) ........................................
 72
    65
 73
     2
 40
0.635
 49
0.0
 74
     0
 49
-0.635
 74
     0
  0
ENDTAB
  0
TABLE
  2
LAYER
  5
2
330
0
100
AcDbSymbolTable
 70
     2
  0
LAYER
  5
10
330
2
100
AcDbSymbolTableRecord
100
AcDbLayerTableRecord
  2
0
 70
     0
 62
     7
  6
Continuous
370
    -3
390
F
  0
LAYER
  5
73
330
2
100
AcDbSymbolTableRecord
100
AcDbLayerTableRecord
  2
FORMAT
 70
     0
 62
     7
  6
Continuous
370
    -3
390
F
  0
ENDTAB
  0
TABLE
  2
STYLE
  5
3
330
0
100
AcDbSymbolTable
 70
     1
  0
STYLE
  5
11
330
3
100
AcDbSymbolTableRecord
100
AcDbTextStyleTableRecord
  2
Standard
 70
     0
 40
0.0
 41
1.0
 50
0.0
 71
     0
 42
3.5
  3
txt
  4

  0
ENDTAB
  0
TABLE
  2
VIEW
  5
6
330
0
100
AcDbSymbolTable
 70
     0
  0
ENDTAB
  0
TABLE
  2
UCS
  5
7
330
0
100
AcDbSymbolTable
 70
     0
  0
ENDTAB
  0
TABLE
  2
APPID
  5
9
330
0
100
AcDbSymbolTable
 70
     1
  0
APPID
  5
12
330
9
100
AcDbSymbolTableRecord
100
AcDbRegAppTableRecord
  2
ACAD
 70
     0
  0
ENDTAB
  0
TABLE
  2
DIMSTYLE
  5
A
330
0
100
AcDbSymbolTable
 70
     1
100
AcDbDimStyleTable
  0
DIMSTYLE
105
27
330
A
100
AcDbSymbolTableRecord
100
AcDbDimStyleTableRecord
  2
ISO-25
 70
     0
 41
2.5
 42
0.625
 43
3.75
 44
1.25
 73
     0
 74
     0
 77
     1
 78
     8
140
2.5
141
2.5
143
0.0393700787
147
0.625
171
     3
172
     1
178
     0
271
     2
272
     2
274
     3
278
    44
283
     0
284
     8
340
11
  0
ENDTAB
  0
TABLE
  2
BLOCK_RECORD
  5
1
330
0
100
AcDbSymbolTable
 70
     1
  0
BLOCK_RECORD
  5
1F
330
1
100
AcDbSymbolTableRecord
100
AcDbBlockTableRecord
  2
*Model_Space
340
22
  0
BLOCK_RECORD
  5
1B
330
1
100
AcDbSymbolTableRecord
100
AcDbBlockTableRecord
  2
*Paper_Space
340
1E
  0
BLOCK_RECORD
  5
23
330
1
100
AcDbSymbolTableRecord
100
AcDbBlockTableRecord
  2
*Paper_Space0
340
26
  0
ENDTAB
  0
ENDSEC
  0
SECTION
  2
BLOCKS
  0
BLOCK
  5
20
330
1F
100
AcDbEntity
  8
0
100
AcDbBlockBegin
  2
*Model_Space
 70
     0
 10
0.0
 20
0.0
 30
0.0
  3
*Model_Space
  1

  0
ENDBLK
  5
21
330
1F
100
AcDbEntity
  8
0
100
AcDbBlockEnd
  0
BLOCK
  5
1C
330
1B
100
AcDbEntity
 67
     1
  8
0
100
AcDbBlockBegin
  2
*Paper_Space
 70
     0
 10
0.0
 20
0.0
 30
0.0
  3
*Paper_Space
  1

  0
ENDBLK
  5
1D
330
1B
100
AcDbEntity
 67
     1
  8
0
100
AcDbBlockEnd
  0
BLOCK
  5
24
330
23
100
AcDbEntity
  8
0
100
AcDbBlockBegin
  2
*Paper_Space0
 70
     0
 10
0.0
 20
0.0
 30
0.0
  3
*Paper_Space0
  1

  0
ENDBLK
  5
25
330
23
100
AcDbEntity
  8
0
100
AcDbBlockEnd
  0
ENDSEC
  0
SECTION
  2
ENTITIES
  0
LWPOLYLINE
  5
74
330
1F
100
AcDbEntity
  8
0
  6
Continuous
 62
     7
370
    15
100
AcDbPolyline
 90
       14
 70
   128
 43
0.0
 10
548.4530504233
 20
134.3615794347
 10
548.4391029364
 20
134.3960786031
 10
548.397546578
 20
134.4989681409
 10
548.3291681296
 20
134.6683168576
 10
548.2352073675
 20
134.900989549
 10
548.1174285895
 20
135.1926231549
 10
547.9780252463
 20
135.5378294156
 10
547.8195722586
 20
135.9301591085
 10
547.6450498587
 20
136.3623166249
 10
547.4577005392
 20
136.8262672589
 10
547.2609813696
 20
137.313368337
 10
547.058563996
 20
137.814559953
 10
546.8542392737
 20
138.3205199407
 10
546.6517980581
 20
138.8218188451
  0
LWPOLYLINE
  5
75
330
1F
100
AcDbEntity
  8
0
  6
Continuous
 62
     7
370
    15
100
AcDbPolyline
 90
       14
 70
   128
 43
0.0
 10
543.6846073157
 20
137.6235389875
 10
543.887072373
 20
137.122240083
 10
544.0913970953
 20
136.6162800954
 10
544.2937906271
 20
136.1150884793
 10
544.4905097967
 20
135.6279874013
 10
544.677882958
 20
135.1640367673
 10
544.852405358
 20
134.7318792508
 10
545.0108345038
 20
134.339549558
 10
545.1502616888
 20
133.9943432973
 10
545.2680404669
 20
133.7026977704
 10
545.3620012289
 20
133.470037
 10
545.4303796774
 20
133.3006882833
 10
545.4719360357
 20
133.1977987454
 10
545.4858835226
 20
133.1632876561
  0
LWPOLYLINE
  5
76
330
1F
100
AcDbEntity
  8
0
  6
Continuous
 62
     7
370
    15
100
AcDbPolyline
 90
       14
 70
   128
 43
0.0
 10
281.0871264337
 20
138.8218188451
 10
280.8846763706
 20
138.3205199407
 10
280.680347728
 20
137.814559953
 10
280.4779427963
 20
137.313368337
 10
280.2812281203
 20
136.8262672589
 10
280.093864342
 20
136.3623166249
 10
279.9193380772
 20
135.9301591085
 10
279.7608971035
 20
135.5378294156
 10
279.6214898488
 20
135.1926231549
 10
279.5037104188
 20
134.900989549
 10
279.4097507743
 20
134.6683168576
 10
279.3413591942
 20
134.4989681409
 10
279.2998084238
 20
134.3960786031
 10
279.2858717403
 20
134.3615794347
  0
LWPOLYLINE
  5
77
330
1F
100
AcDbEntity
  8
0
  6
Continuous
 62
     7
370
    15
100
AcDbPolyline
 90
       14
 70
   128
 43
0.0
 10
282.2530455327
 20
133.1632876561
 10
282.2669822162
 20
133.1977987454
 10
282.3085329866
 20
133.3006882833
 10
282.3769246599
 20
133.470037
 10
282.4708843043
 20
133.7026977704
 10
282.5886636412
 20
133.9943432973
 10
282.728070896
 20
134.339549558
 10
282.8865119627
 20
134.7318792508
 10
283.0610382742
 20
135.1640367673
 10
283.248401936
 20
135.6279874013
 10
283.4451166353
 20
136.1150884793
 10
283.6475215292
 20
136.6162800954
 10
283.8518503493
 20
137.122240083
 10
284.054300133
 20
137.6235389875
  0
LINE
  5
78
330
1F
100
AcDbEntity
  8
0
  6
Continuous
 62
     7
370
    15
100
AcDbLine
 10
299.0914221293
 20
183.4038877652
 30
0.0
 11
281.0871264337
 21
138.8218188451
 31
0.0
  0
LINE
  5
79
330
1F
100
AcDbEntity
  8
0
  6
Continuous
 62
     7
370
    15
100
AcDbLine
 10
284.054300133
 20
137.6235389875
 30
0.0
 11
302.0585964805
 21
182.2056079076
 31
0.0
  0
LINE
  5
7A
330
1F
100
AcDbEntity
  8
0
  6
Continuous
 62
     7
370
    15
100
AcDbLine
 10
525.6803329474
 20
182.2056079076
 30
0.0
 11
543.6846073157
 21
137.6235389875
 31
0.0
  0
LINE
  5
7B
330
1F
100
AcDbEntity
  8
0
  6
Continuous
 62
     7
370
    15
100
AcDbLine
 10
546.6517980581
 20
138.8218188451
 30
0.0
 11
528.647499848
 21
183.4038877652
 31
0.0
  0
LWPOLYLINE
  5
7C
330
1F
100
AcDbEntity
  8
0
  6
Continuous
 62
     7
370
    15
100
AcDbPolyline
 90
       11
 70
   128
 43
0.0
 10
528.647499848
 20
183.4038877652
 10
528.4504707342
 20
183.8917756246
 10
528.2627637869
 20
184.3565607236
 10
528.087907601
 20
184.7895527051
 10
527.9291446692
 20
185.1826811002
 10
527.7894313818
 20
185.5286264585
 10
527.6713903433
 20
185.8209157155
 10
527.5772150046
 20
186.0541129277
 10
527.5086696631
 20
186.2238550351
 10
527.4670179373
 20
186.3269829915
 10
527.4530466086
 20
186.3615775273
  0
LWPOLYLINE
  5
7D
330
1F
100
AcDbEntity
  8
0
  6
Continuous
 62
     7
370
    15
100
AcDbPolyline
 90
       11
 70
   128
 43
0.0
 10
524.4858797079
 20
185.1632976697
 10
524.4998510367
 20
185.1287031339
 10
524.5414789206
 20
185.0255751775
 10
524.6100481039
 20
184.8558211492
 10
524.7042234427
 20
184.6226358579
 10
524.8222644812
 20
184.3303346799
 10
524.9619539267
 20
183.9844012426
 10
525.1207168585
 20
183.5912728475
 10
525.2955968863
 20
183.158280866
 10
525.4832799917
 20
182.6934957669
 10
525.6803329474
 20
182.2056079076
  0
LWPOLYLINE
  5
7E
330
1F
100
AcDbEntity
  8
0
  6
Continuous
 62
     7
370
    15
100
AcDbPolyline
 90
       10
 70
   128
 43
0.0
 10
300.2705525047
 20
186.3236451314
 10
300.2302538043
 20
186.2238550351
 10
300.1617025024
 20
186.0541129277
 10
300.0675286537
 20
185.8209157155
 10
299.9494876152
 20
185.5286264585
 10
299.8097802883
 20
185.1826811002
 10
299.6510158664
 20
184.7895527051
 10
299.47615372
 20
184.3565607236
 10
299.2884557134
 20
183.8917756246
 10
299.0914221293
 20
183.4038877652
  0
LWPOLYLINE
  5
7F
330
1F
100
AcDbEntity
  8
0
  6
Continuous
 62
     7
370
    15
100
AcDbPolyline
 90
       11
 70
   128
 43
0.0
 10
302.0585964805
 20
182.2056079076
 10
302.2556285745
 20
182.6934957669
 10
302.4433265811
 20
183.158280866
 10
302.6181902176
 20
183.5912728475
 10
302.7769546395
 20
183.9844012426
 10
302.9166604763
 20
184.3303346799
 10
303.0347015148
 20
184.6226358579
 10
303.1288768536
 20
184.8558211492
 10
303.1974266654
 20
185.0255751775
 10
303.239075411
 20
185.1287031339
 10
303.2530452496
 20
185.1632976697
  0
LINE
  5
80
330
1F
100
AcDbEntity
  8
0
  6
Continuous
 62
     7
370
    15
100
AcDbLine
 10
302.8488527423
 20
184.1624283956
 30
0.0
 11
524.8900707251
 21
184.1624283956
 31
0.0
  0
LINE
  5
81
330
1F
100
AcDbEntity
  8
0
  6
Continuous
 62
     7
370
    15
100
AcDbLine
 10
280.7694586481
 20
132.1624303029
 30
0.0
 11
546.9694669729
 21
132.1624303029
 31
0.0
  0
LINE
  5
82
330
1F
100
AcDbEntity
  8
0
  6
Continuous
 62
     7
370
    15
100
AcDbLine
 10
544.5977504736
 20
135.3624367879
 30
0.0
 11
283.1411601415
 21
135.3624367879
 31
0.0
  0
ARC
  5
83
330
1F
100
AcDbEntity
  8
0
  6
Continuous
 62
     7
370
    15
100
AcDbCircle
 10
518.337256465
 20
222.6727170301
 30
0.0
 40
1.999999999999943
100
AcDbArc
 50
350.537677792
 51
90.0264690075
  0
ARC
  5
84
330
1F
100
AcDbEntity
  8
0
  6
Continuous
 62
     7
370
    15
100
AcDbCircle
 10
415.8601699315
 20
222.6727170301
 30
0.0
 40
2.0
100
AcDbArc
 50
90.0
 51
180.0
  0
LINE
  5
85
330
1F
100
AcDbEntity
  8
0
  6
Continuous
 62
     7
370
    15
100
AcDbLine
 10
518.3372552878
 20
224.6727132962
 30
0.0
 11
415.8601696974
 21
224.6727132962
 31
0.0
  0
ARC
  5
86
330
1F
100
AcDbEntity
  8
0
  6
Continuous
 62
     7
370
    15
100
AcDbCircle
 10
308.9830833979
 20
222.6727170301
 30
0.0
 40
2.000000000000048
100
AcDbArc
 50
89.9619573706
 51
189.462322208
  0
ARC
  5
87
330
1F
100
AcDbEntity
  8
0
  6
Continuous
 62
     7
370
    15
100
AcDbCircle
 10
411.4601699315
 20
222.6727170301
 30
0.0
 40
2.0
100
AcDbArc
 50
0.0
 51
90.0
  0
LINE
  5
88
330
1F
100
AcDbEntity
  8
0
  6
Continuous
 62
     7
370
    15
100
AcDbLine
 10
411.460166741
 20
224.6727132962
 30
0.0
 11
308.9830841309
 21
224.6727132962
 31
0.0
  0
ARC
  5
89
330
1F
100
AcDbEntity
  8
0
  6
Continuous
 62
     7
370
    15
100
AcDbCircle
 10
546.9694586524
 20
133.7624333481
 30
0.0
 40
1.599999999999989
100
AcDbArc
 50
201.9911299172
 51
21.9911299172
  0
ARC
  5
8A
330
1F
100
AcDbEntity
  8
0
  6
Continuous
 62
     7
370
    15
100
AcDbCircle
 10
280.7694586524
 20
133.7624333481
 30
0.0
 40
1.599999999999978
100
AcDbArc
 50
158.0088700828
 51
338.0088700828
  0
LWPOLYLINE
  5
8B
330
1F
100
AcDbEntity
  8
0
  6
Continuous
 62
     7
370
    15
100
AcDbPolyline
 90
        3
 70
   128
 43
0.0
 10
527.4530466086
 20
186.3615775273
 10
527.4215753561
 20
186.4342594312
 10
527.4143035895
 20
186.4497685598
  0
ARC
  5
8C
330
1F
100
AcDbEntity
  8
0
  6
Continuous
 62
     7
370
    15
100
AcDbCircle
 10
525.9694586524
 20
185.7624333481
 30
0.0
 40
1.600000000000089
100
AcDbArc
 50
165.5224878141
 51
201.9911299172
  0
ARC
  5
8D
330
1F
100
AcDbEntity
  8
0
  6
Continuous
 62
     7
370
    15
100
AcDbCircle
 10
301.7694586524
 20
185.7624333481
 30
0.0
 40
1.600000000000031
100
AcDbArc
 50
338.0088700828
 51
14.4775121859
  0
ARC
  5
8E
330
1F
100
AcDbEntity
  8
0
  6
Continuous
 62
     7
370
    15
100
AcDbCircle
 10
270.1785631004
 20
245.5624333481
 30
0.0
 40
3.0
100
AcDbArc
 50
270.0
 51
0.0
  0
LINE
  5
8F
330
1F
100
AcDbEntity
  8
0
  6
Continuous
 62
     7
370
    15
100
AcDbLine
 10
537.6262243277
 20
260.5471515821
 30
0.0
 11
525.6465728766
 21
188.6692309545
 31
0.0
  0
LINE
  5
90
330
1F
100
AcDbEntity
  8
0
  6
Continuous
 62
     7
370
    15
100
AcDbLine
 10
299.605300594
 20
266.7738819287
 30
0.0
 11
307.4347998387
 21
219.7968864606
 31
0.0
  0
LWPOLYLINE
  5
91
330
1F
100
AcDbEntity
  8
0
  6
Continuous
 62
     7
370
    15
100
AcDbPolyline
 90
        7
 70
   128
 43
0.0
 10
512.8912981039
 20
198.162438886
 10
513.4517009741
 20
198.2018852399
 10
514.0010412222
 20
198.3194613622
 10
514.5285184866
 20
198.5128426717
 10
515.0236900336
 20
198.7782263921
 10
515.4767807013
 20
199.1103553937
 10
515.6260545737
 20
199.2401504682
  0
ARC
  5
92
330
1F
100
AcDbEntity
  8
0
  6
Continuous
 62
     7
370
    15
100
AcDbCircle
 10
286.734936489
 20
260.0539505049
 30
0.0
 40
2.999999999999956
100
AcDbArc
 50
9.462322208
 51
90.0
  0
LINE
  5
93
330
1F
100
AcDbEntity
  8
0
  6
Continuous
 62
     7
370
    15
100
AcDbLine
 10
519.8855455404
 20
219.7968864606
 30
0.0
 11
527.7150447851
 21
266.7738819287
 31
0.0
  0
LINE
  5
94
330
1F
100
AcDbEntity
  8
0
  6
Continuous
 62
     7
370
    15
100
AcDbLine
 10
273.1785628384
 20
260.0539589093
 30
0.0
 11
273.1785628384
 21
245.5624246762
 31
0.0
  0
ARC
  5
95
330
1F
100
AcDbEntity
  8
0
  6
Continuous
 62
     7
370
    15
100
AcDbCircle
 10
533.6334020753
 20
265.7874904494
 30
0.0
 40
6.000000000000002
100
AcDbArc
 50
108.5605830113
 51
170.537677792
  0
ARC
  5
96
330
1F
100
AcDbEntity
  8
0
  6
Continuous
 62
     7
370
    15
100
AcDbCircle
 10
304.6329518788
 20
189.1624333481
 30
0.0
 40
3.000000000000073
100
AcDbArc
 50
189.462322208
 51
270.0
  0
ARC
  5
97
330
1F
100
AcDbEntity
  8
0
  6
Continuous
 62
     7
370
    15
100
AcDbCircle
 10
546.2797966948
 20
228.1237961289
 30
0.0
 40
45.73015437598784
100
AcDbArc
 50
71.9154820008
 51
108.5605830113
  0
LINE
  5
98
330
1F
100
AcDbEntity
  8
0
  6
Continuous
 62
     7
370
    15
100
AcDbLine
 10
301.6737695223
 20
188.6692309545
 30
0.0
 11
289.6941180712
 21
260.5471515821
 31
0.0
  0
ARC
  5
99
330
1F
100
AcDbEntity
  8
0
  6
Continuous
 62
     7
370
    15
100
AcDbCircle
 10
558.6128144358
 20
265.89126679
 30
0.0
 40
6.000000000000033
100
AcDbArc
 50
3.954454761
 51
71.9154820008
  0
ARC
  5
9A
330
1F
100
AcDbEntity
  8
0
  6
Continuous
 62
     7
370
    15
100
AcDbCircle
 10
522.6873879842
 20
189.1624333481
 30
0.0
 40
3.0
100
AcDbArc
 50
270.0
 51
350.537677792
  0
ARC
  5
9B
330
1F
100
AcDbEntity
  8
0
  6
Continuous
 62
     7
370
    15
100
AcDbCircle
 10
420.7695977898
 20
256.3624333481
 30
0.0
 40
144.1721789727073
100
AcDbArc
 50
356.7638580495
 51
3.954454761
  0
ARC
  5
9C
330
1F
100
AcDbEntity
  8
0
  6
Continuous
 62
     7
370
    15
100
AcDbCircle
 10
558.7214409891
 20
248.5624333481
 30
0.0
 40
6.0
100
AcDbArc
 50
270.0
 51
356.7638580495
  0
ARC
  5
9D
330
1F
100
AcDbEntity
  8
0
  6
Continuous
 62
     7
370
    15
100
AcDbCircle
 10
540.5854033739
 20
260.0539505049
 30
0.0
 40
3.000000000000012
100
AcDbArc
 50
90.0
 51
170.537677792
  0
ARC
  5
9E
330
1F
100
AcDbEntity
  8
0
  6
Continuous
 62
     7
370
    15
100
AcDbCircle
 10
276.1785631004
 20
260.0539505049
 30
0.0
 40
3.0
100
AcDbArc
 50
90.0
 51
180.0
  0
LINE
  5
9F
330
1F
100
AcDbEntity
  8
0
  6
Continuous
 62
     7
370
    15
100
AcDbLine
 10
522.6873929983
 20
186.1624384091
 30
0.0
 11
304.6329523808
 21
186.1624384091
 31
0.0
  0
LINE
  5
A0
330
1F
100
AcDbEntity
  8
0
  6
Continuous
 62
     7
370
    15
100
AcDbLine
 10
286.7349363303
 20
263.0539560483
 30
0.0
 11
276.1785629576
 21
263.0539560483
 31
0.0
  0
ARC
  5
A1
330
1F
100
AcDbEntity
  8
0
  6
Continuous
 62
     7
370
    15
100
AcDbCircle
 10
557.1417767625
 20
245.5624333481
 30
0.0
 40
3.0
100
AcDbArc
 50
180.0
 51
270.0
  0
ARC
  5
A2
330
1F
100
AcDbEntity
  8
0
  6
Continuous
 62
     7
370
    15
100
AcDbCircle
 10
551.1417767625
 20
260.0539505049
 30
0.0
 40
3.0
100
AcDbArc
 50
0.0
 51
90.0
  0
LINE
  5
A3
330
1F
100
AcDbEntity
  8
0
  6
Continuous
 62
     7
370
    15
100
AcDbLine
 10
554.1417654043
 20
245.5624246762
 30
0.0
 11
554.1417654043
 21
260.0539589093
 31
0.0
  0
ARC
  5
A4
330
1F
100
AcDbEntity
  8
0
  6
Continuous
 62
     7
370
    15
100
AcDbCircle
 10
406.5507420731
 20
256.3624333481
 30
0.0
 40
144.1721789727072
100
AcDbArc
 50
176.045545239
 51
183.2361419505
  0
ARC
  5
A5
330
1F
100
AcDbEntity
  8
0
  6
Continuous
 62
     7
370
    15
100
AcDbCircle
 10
268.7075254271
 20
265.89126679
 30
0.0
 40
5.99999999999998
100
AcDbArc
 50
108.0845179992
 51
176.045545239
  0
ARC
  5
A6
330
1F
100
AcDbEntity
  8
0
  6
Continuous
 62
     7
370
    15
100
AcDbCircle
 10
268.5988988739
 20
248.5624333481
 30
0.0
 40
6.000000000000041
100
AcDbArc
 50
183.2361419505
 51
270.0
  0
ARC
  5
A7
330
1F
100
AcDbEntity
  8
0
  6
Continuous
 62
     7
370
    15
100
AcDbCircle
 10
293.6869377876
 20
265.7874904494
 30
0.0
 40
5.999999999999969
100
AcDbArc
 50
9.462322208
 51
71.4394169887
  0
LINE
  5
A8
330
1F
100
AcDbEntity
  8
0
  6
Continuous
 62
     7
370
    15
100
AcDbLine
 10
558.7214525229
 20
242.5624275373
 30
0.0
 11
557.1417863852
 21
242.5624275373
 31
0.0
  0
LINE
  5
A9
330
1F
100
AcDbEntity
  8
0
  6
Continuous
 62
     7
370
    15
100
AcDbLine
 10
311.694284845
 20
199.2401504682
 30
0.0
 11
311.8435527569
 21
199.1103553937
 31
0.0
  0
ARC
  5
AA
330
1F
100
AcDbEntity
  8
0
  6
Continuous
 62
     7
370
    15
100
AcDbCircle
 10
314.4290515217
 20
202.1624333481
 30
0.0
 40
4.000000000000008
100
AcDbArc
 50
229.731161104
 51
270.0
  0
LINE
  5
AB
330
1F
100
AcDbEntity
  8
0
  6
Continuous
 62
     7
370
    15
100
AcDbLine
 10
270.1785634643
 20
242.5624275373
 30
0.0
 11
268.5988988167
 21
242.5624275373
 31
0.0
  0
ARC
  5
AC
330
1F
100
AcDbEntity
  8
0
  6
Continuous
 62
     7
370
    15
100
AcDbCircle
 10
281.0405431681
 20
228.1237961289
 30
0.0
 40
45.73015437598781
100
AcDbArc
 50
71.4394169887
 51
108.0845179992
  0
LINE
  5
AD
330
1F
100
AcDbEntity
  8
0
  6
Continuous
 62
     7
370
    15
100
AcDbLine
 10
551.1417682654
 20
263.0539560483
 30
0.0
 11
540.5854042059
 21
263.0539560483
 31
0.0
  0
LINE
  5
AE
330
1F
100
AcDbEntity
  8
0
  6
Continuous
 62
     7
370
    15
100
AcDbLine
 10
314.4290502554
 20
198.162438886
 30
0.0
 11
512.8912981039
 21
198.162438886
 31
0.0
  0
LINE
  5
AF
330
1F
100
AcDbEntity
  8
0
  6
Continuous
 62
     7
370
    15
100
AcDbLine
 10
522.6873929983
 20
186.1624384091
 30
0.0
 11
524.6083314902
 21
186.1624384091
 31
0.0
  0
LINE
  5
B0
330
1F
100
AcDbEntity
  8
0
  6
Continuous
 62
     7
370
    15
100
AcDbLine
 10
553.7417705542
 20
242.5624275373
 30
0.0
 11
557.1417863852
 21
242.5624275373
 31
0.0
  0
LINE
  5
B1
330
1F
100
AcDbEntity
  8
0
  6
Continuous
 62
     7
370
    15
100
AcDbLine
 10
270.1785634643
 20
242.5624275373
 30
0.0
 11
273.578562904
 21
242.5624275373
 31
0.0
  0
LINE
  5
B2
330
1F
100
AcDbEntity
  8
0
  6
Continuous
 62
     7
370
    15
100
AcDbLine
 10
303.1305770761
 20
186.1624384091
 30
0.0
 11
304.6329523808
 21
186.1624384091
 31
0.0
  0
LINE
  5
B3
330
1F
100
AcDbEntity
  8
0
  6
Continuous
 62
     7
370
    15
100
AcDbLine
 10
527.7928884512
 20
267.2409200833
 30
0.0
 11
527.7150447851
 21
266.7738819287
 31
0.0
  0
LINE
  5
B4
330
1F
100
AcDbEntity
  8
0
  6
Continuous
 62
     7
370
    15
100
AcDbLine
 10
299.605300594
 20
266.7738819287
 30
0.0
 11
299.5274599081
 21
267.2409200833
 31
0.0
  0
ARC
  5
B5
330
1F
100
AcDbEntity
  8
0
  6
Continuous
 62
     7
370
    15
100
AcDbCircle
 10
307.4186117468
 20
268.5561221184
 30
0.0
 40
8.000000000000043
100
AcDbArc
 50
146.0
 51
189.462322208
  0
ARC
  5
B6
330
1F
100
AcDbEntity
  8
0
  6
Continuous
 62
     7
370
    15
100
AcDbCircle
 10
519.9017281161
 20
268.5561221184
 30
0.0
 40
7.999999999999901
100
AcDbArc
 50
350.537677792
 51
34.0
  0
LINE
  5
B7
330
1F
100
AcDbEntity
  8
0
  6
Continuous
 62
     7
370
    15
100
AcDbLine
 10
514.6584327704
 20
290.6359815763
 30
0.0
 11
526.5340383536
 21
273.0296755002
 31
0.0
  0
LINE
  5
B8
330
1F
100
AcDbEntity
  8
0
  6
Continuous
 62
     7
370
    15
100
AcDbLine
 10
300.7863114959
 20
273.0296755002
 30
0.0
 11
312.6619185692
 21
290.6359815763
 31
0.0
  0
ARC
  5
B9
330
1F
100
AcDbEntity
  8
0
  6
Continuous
 62
     7
370
    15
100
AcDbCircle
 10
508.0261212415
 20
286.1624333481
 30
0.0
 40
8.0
100
AcDbArc
 50
34.0
 51
90.0
  0
ARC
  5
BA
330
1F
100
AcDbEntity
  8
0
  6
Continuous
 62
     7
370
    15
100
AcDbCircle
 10
319.2942186214
 20
286.1624333481
 30
0.0
 40
8.000000000000043
100
AcDbArc
 50
90.0
 51
146.0
  0
LINE
  5
BB
330
1F
100
AcDbEntity
  8
0
  6
Continuous
 62
     7
370
    15
100
AcDbLine
 10
319.2942197806
 20
294.1624307798
 30
0.0
 11
508.0261285788
 21
294.1624307798
 31
0.0
  0
LINE
  5
BC
330
1F
100
AcDbEntity
  8
0
  6
Continuous
 62
     7
370
    15
100
AcDbLine
 10
302.0139436609
 20
186.6281891034
 30
0.0
 11
301.6737695223
 21
188.6692309545
 31
0.0
  0
ARC
  5
BD
330
1F
100
AcDbEntity
  8
0
  6
Continuous
 62
     7
370
    15
100
AcDbCircle
 10
301.6193864449
 20
186.5624333481
 30
0.0
 40
0.4000000000000228
100
AcDbArc
 50
320.1922144149
 51
9.462322208
  0
LINE
  5
BE
330
1F
100
AcDbEntity
  8
0
  6
Continuous
 62
     7
370
    15
100
AcDbLine
 10
281.3702234904
 20
240.4630565808
 30
0.0
 11
297.5791956669
 21
188.9615917371
 31
0.0
  0
ARC
  5
BF
330
1F
100
AcDbEntity
  8
0
  6
Continuous
 62
     7
370
    15
100
AcDbCircle
 10
278.5086048244
 20
239.5624333481
 30
0.0
 40
2.999999999999972
100
AcDbArc
 50
17.4702648921
 51
90.0
  0
LINE
  5
C0
330
1F
100
AcDbEntity
  8
0
  6
Continuous
 62
     7
370
    15
100
AcDbLine
 10
273.578562904
 20
242.5624275373
 30
0.0
 11
278.5086048207
 21
242.5624275373
 31
0.0
  0
ARC
  5
C1
330
1F
100
AcDbEntity
  8
0
  6
Continuous
 62
     7
370
    15
100
AcDbCircle
 10
273.5785631004
 20
242.9624333481
 30
0.0
 40
0.4000000000000341
100
AcDbArc
 50
180.0
 51
270.0
  0
LINE
  5
C2
330
1F
100
AcDbEntity
  8
0
  6
Continuous
 62
     7
370
    15
100
AcDbLine
 10
273.1785628384
 20
245.5624246762
 30
0.0
 11
273.1785628384
 21
242.9624223874
 31
0.0
  0
ARC
  5
C3
330
1F
100
AcDbEntity
  8
0
  6
Continuous
 62
     7
370
    15
100
AcDbCircle
 10
301.3946875616
 20
190.1624333481
 30
0.0
 40
4.000000000000028
100
AcDbArc
 50
197.4702648921
 51
261.3416418331
  0
LINE
  5
C4
330
1F
100
AcDbEntity
  8
0
  6
Continuous
 62
     7
370
    15
100
AcDbLine
 10
554.1417654043
 20
242.9624223874
 30
0.0
 11
554.1417654043
 21
245.5624246762
 31
0.0
  0
ARC
  5
C5
330
1F
100
AcDbEntity
  8
0
  6
Continuous
 62
     7
370
    15
100
AcDbCircle
 10
548.8117350385
 20
239.5624333481
 30
0.0
 40
3.000000000000018
100
AcDbArc
 50
90.0
 51
162.5297351079
  0
ARC
  5
C6
330
1F
100
AcDbEntity
  8
0
  6
Continuous
 62
     7
370
    15
100
AcDbCircle
 10
553.7417767625
 20
242.9624333481
 30
0.0
 40
0.4000000000000909
100
AcDbArc
 50
270.0
 51
0.0
  0
LINE
  5
C7
330
1F
100
AcDbEntity
  8
0
  6
Continuous
 62
     7
370
    15
100
AcDbLine
 10
548.8117273337
 20
242.5624275373
 30
0.0
 11
553.7417705542
 21
242.5624275373
 31
0.0
  0
LINE
  5
C8
330
1F
100
AcDbEntity
  8
0
  6
Continuous
 62
     7
370
    15
100
AcDbLine
 10
525.6465728766
 20
188.6692309545
 30
0.0
 11
525.3063972479
 21
186.6281891034
 31
0.0
  0
ARC
  5
C9
330
1F
100
AcDbEntity
  8
0
  6
Continuous
 62
     7
370
    15
100
AcDbCircle
 10
525.9256523013
 20
190.1624333481
 30
0.0
 40
4.000000000000022
100
AcDbArc
 50
282.9836920206
 51
342.5297351079
  0
ARC
  5
CA
330
1F
100
AcDbEntity
  8
0
  6
Continuous
 62
     7
370
    15
100
AcDbCircle
 10
525.700953418
 20
186.5624333481
 30
0.0
 40
0.3999999999999819
100
AcDbArc
 50
170.537677792
 51
249.7651690701
  0
LINE
  5
CB
330
1F
100
AcDbEntity
  8
0
  6
Continuous
 62
     7
370
    15
100
AcDbLine
 10
529.7411497122
 20
188.9615917371
 30
0.0
 11
545.950108338
 21
240.4630565808
 31
0.0
  0
LWPOLYLINE
  5
CC
330
1F
100
AcDbEntity
  8
0
  6
Continuous
 62
     7
370
    15
100
AcDbPolyline
 90
        7
 70
   128
 43
0.0
 10
519.8855455404
 20
219.7968864606
 10
519.8693092352
 20
219.699492471
 10
519.7944934851
 20
219.250645654
 10
519.7130258566
 20
218.7618160413
 10
519.6264322287
 20
218.2422781156
 10
519.5363815314
 20
217.7019500897
 10
519.4445903784
 20
217.1511316465
  0
LWPOLYLINE
  5
CD
330
1F
100
AcDbEntity
  8
0
  6
Continuous
 62
     7
370
    15
100
AcDbPolyline
 90
        6
 70
   128
 43
0.0
 10
517.2250087744
 20
203.8336420224
 10
517.1301181799
 20
203.2643699811
 10
517.0371826178
 20
202.7067089246
 10
516.9480617529
 20
202.1719718144
 10
516.8645675665
 20
201.6710663007
 10
516.8110902792
 20
201.3502144979
  0
LINE
  5
CE
330
1F
100
AcDbEntity
  8
0
  6
Continuous
 62
     7
370
    15
100
AcDbLine
 10
519.4445903784
 20
217.1511316465
 30
0.0
 11
517.2250087744
 21
203.8336420224
 31
0.0
  0
LINE
  5
CF
330
1F
100
AcDbEntity
  8
0
  6
Continuous
 62
     7
370
    15
100
AcDbLine
 10
413.8601716047
 20
204.1624450849
 30
0.0
 11
413.8601716047
 21
217.4799347089
 31
0.0
  0
ARC
  5
D0
330
1F
100
AcDbEntity
  8
0
  6
Continuous
 62
     7
370
    15
100
AcDbCircle
 10
415.8601699315
 20
200.1624333481
 30
0.0
 40
2.0
100
AcDbArc
 50
180.0
 51
270.0
  0
LINE
  5
D1
330
1F
100
AcDbEntity
  8
0
  6
Continuous
 62
     7
370
    15
100
AcDbLine
 10
413.8601716047
 20
200.1624369786
 30
0.0
 11
413.8601716047
 21
204.1624450849
 31
0.0
  0
LINE
  5
D2
330
1F
100
AcDbEntity
  8
0
  6
Continuous
 62
     7
370
    15
100
AcDbLine
 10
413.8601716047
 20
217.4799347089
 30
0.0
 11
413.8601716047
 21
221.4746856855
 31
0.0
  0
LINE
  5
D3
330
1F
100
AcDbEntity
  8
0
  6
Continuous
 62
     7
370
    15
100
AcDbLine
 10
413.8601716047
 20
221.4746856855
 30
0.0
 11
413.8601716047
 21
222.6727152036
 31
0.0
  0
LWPOLYLINE
  5
D4
330
1F
100
AcDbEntity
  8
0
  6
Continuous
 62
     7
370
    15
100
AcDbPolyline
 90
        6
 70
   128
 43
0.0
 10
310.0953425652
 20
203.8336420224
 10
310.1902182585
 20
203.2643699811
 10
310.2831657416
 20
202.7067089246
 10
310.3722866064
 20
202.1719718144
 10
310.4557688719
 20
201.6710663007
 10
310.5092461592
 20
201.3502144979
  0
LINE
  5
D5
330
1F
100
AcDbEntity
  8
0
  6
Continuous
 62
     7
370
    15
100
AcDbLine
 10
413.4601648337
 20
204.1624450849
 30
0.0
 11
413.4601648337
 21
217.4799347089
 31
0.0
  0
LINE
  5
D6
330
1F
100
AcDbEntity
  8
0
  6
Continuous
 62
     7
370
    15
100
AcDbLine
 10
307.8757579809
 20
217.1511316465
 30
0.0
 11
310.0953425652
 21
203.8336420224
 31
0.0
  0
LWPOLYLINE
  5
D7
330
1F
100
AcDbEntity
  8
0
  6
Continuous
 62
     7
370
    15
100
AcDbPolyline
 90
        7
 70
   128
 43
0.0
 10
307.4347998387
 20
219.7968864606
 10
307.4510331637
 20
219.699492471
 10
307.5258399731
 20
219.250645654
 10
307.607313562
 20
218.7618160413
 10
307.6939042097
 20
218.2422781156
 10
307.7839578873
 20
217.7019500897
 10
307.8757579809
 20
217.1511316465
  0
LINE
  5
D8
330
1F
100
AcDbEntity
  8
0
  6
Continuous
 62
     7
370
    15
100
AcDbLine
 10
413.4601648337
 20
200.1624369786
 30
0.0
 11
413.4601648337
 21
204.1624450849
 31
0.0
  0
ARC
  5
D9
330
1F
100
AcDbEntity
  8
0
  6
Continuous
 62
     7
370
    15
100
AcDbCircle
 10
411.4601699315
 20
200.1624333481
 30
0.0
 40
2.0
100
AcDbArc
 50
270.0
 51
0.0
  0
LINE
  5
DA
330
1F
100
AcDbEntity
  8
0
  6
Continuous
 62
     7
370
    15
100
AcDbLine
 10
413.4601648337
 20
217.4799347089
 30
0.0
 11
413.4601648337
 21
221.4746856855
 31
0.0
  0
LINE
  5
DB
330
1F
100
AcDbEntity
  8
0
  6
Continuous
 62
     7
370
    15
100
AcDbLine
 10
413.4601648337
 20
221.4746856855
 30
0.0
 11
413.4601648337
 21
222.6727152036
 31
0.0
  0
LWPOLYLINE
  5
DC
330
1F
100
AcDbEntity
  8
0
  6
Continuous
 62
     7
370
    15
100
AcDbPolyline
 90
       42
 70
   128
 43
0.0
 10
362.5219936854
 20
249.7039461301
 10
362.9799421316
 20
249.7388267682
 10
363.4271557814
 20
249.8426819013
 10
363.8531561381
 20
250.013031976
 10
364.2479475027
 20
250.245943086
 10
364.6022911555
 20
250.5359077619
 10
364.9078722483
 20
250.8761549161
 10
365.1575322634
 20
251.2586736844
 10
365.3454120642
 20
251.6745472119
 10
365.4671187884
 20
252.1140241788
 10
365.5197914129
 20
252.5667572187
 10
365.5022020823
 20
253.0221605466
 10
365.4147561079
 20
253.4695768521
 10
365.2595038897
 20
253.8985157178
 10
365.0400932318
 20
254.2988920377
 10
364.7616560942
 20
254.6613359616
 10
364.4307191855
 20
254.9773836301
 10
364.0550489908
 20
255.2395725415
 10
363.6434431559
 20
255.4417991803
 10
363.2055516726
 20
255.5792951749
 10
362.7516444212
 20
255.6488657163
 10
362.29234891
 20
255.6488657163
 10
361.8384356981
 20
255.5792951749
 10
361.4005442148
 20
255.4417991803
 10
360.9889383799
 20
255.2395725415
 10
360.6132681853
 20
254.9773836301
 10
360.282337237
 20
254.6613359616
 10
360.0039000994
 20
254.2988920377
 10
359.784483481
 20
253.8985157178
 10
359.6292312628
 20
253.4695768521
 10
359.5417852884
 20
253.0221605466
 10
359.5241959578
 20
252.5667572187
 10
359.5768685824
 20
252.1140241788
 10
359.6985753065
 20
251.6745472119
 10
359.8864551073
 20
251.2586736844
 10
360.1361151224
 20
250.8761549161
 10
360.4416962153
 20
250.5359077619
 10
360.796039868
 20
250.245943086
 10
361.1908371931
 20
250.013031976
 10
361.6168315893
 20
249.8426819013
 10
362.0640452391
 20
249.7388267682
 10
362.5219936854
 20
249.7039461301
  0
LWPOLYLINE
  5
DD
330
1F
100
AcDbEntity
  8
0
  6
Continuous
 62
     7
370
    15
100
AcDbPolyline
 90
       42
 70
   128
 43
0.0
 10
464.7983487135
 20
249.7039461301
 10
465.2562911993
 20
249.7388267682
 10
465.7035048491
 20
249.8426819013
 10
466.1295111662
 20
250.013031976
 10
466.5242965704
 20
250.245943086
 10
466.8786461836
 20
250.5359077619
 10
467.1842272764
 20
250.8761549161
 10
467.4338872915
 20
251.2586736844
 10
467.6217611319
 20
251.6745472119
 10
467.7434738165
 20
252.1140241788
 10
467.7961404806
 20
252.5667572187
 10
467.7785571104
 20
253.0221605466
 10
467.6911051756
 20
253.4695768521
 10
467.5358589178
 20
253.8985157178
 10
467.3164422995
 20
254.2988920377
 10
467.0380051619
 20
254.6613359616
 10
466.7070682532
 20
254.9773836301
 10
466.331404019
 20
255.2395725415
 10
465.919798184
 20
255.4417991803
 10
465.4819067007
 20
255.5792951749
 10
465.0279934889
 20
255.6488657163
 10
464.5687039381
 20
255.6488657163
 10
464.1147907263
 20
255.5792951749
 10
463.676899243
 20
255.4417991803
 10
463.265293408
 20
255.2395725415
 10
462.8896172529
 20
254.9773836301
 10
462.5586803442
 20
254.6613359616
 10
462.2802551275
 20
254.2988920377
 10
462.0608385092
 20
253.8985157178
 10
461.9055803305
 20
253.4695768521
 10
461.8181403166
 20
253.0221605466
 10
461.8005450255
 20
252.5667572187
 10
461.8532236105
 20
252.1140241788
 10
461.9749243742
 20
251.6745472119
 10
462.1628101355
 20
251.2586736844
 10
462.4124701506
 20
250.8761549161
 10
462.7180512434
 20
250.5359077619
 10
463.0723889357
 20
250.245943086
 10
463.4671862608
 20
250.013031976
 10
463.893180657
 20
249.8426819013
 10
464.3403943068
 20
249.7388267682
 10
464.7983487135
 20
249.7039461301
  0
LINE
  5
DE
330
1F
100
AcDbEntity
  8
0
  6
Continuous
 62
     7
370
    15
100
AcDbLine
 10
281.7970844357
 20
688.5385131116
 30
0.0
 11
287.9377956873
 21
685.1465081448
 31
0.0
  0
LINE
  5
DF
330
1F
100
AcDbEntity
  8
0
  6
Continuous
 62
     7
370
    15
100
AcDbLine
 10
294.7260911947
 20
685.0525235409
 30
0.0
 11
283.3443423173
 21
691.3395737881
 31
0.0
  0
LINE
  5
E0
330
1F
100
AcDbEntity
  8
0
  6
Continuous
 62
     7
370
    15
100
AcDbLine
 10
544.3945701605
 20
691.3395737881
 30
0.0
 11
533.027106095
 21
685.0604151959
 31
0.0
  0
LINE
  5
E1
330
1F
100
AcDbEntity
  8
0
  6
Continuous
 62
     7
370
    15
100
AcDbLine
 10
539.8076351172
 20
685.1501082654
 30
0.0
 11
545.9418352133
 21
688.5385131116
 31
0.0
  0
LINE
  5
E2
330
1F
100
AcDbEntity
  8
0
  6
Continuous
 62
     7
370
    15
100
AcDbLine
 10
292.690815348
 20
550.1470422024
 30
0.0
 11
281.7970844357
 21
544.1295480008
 31
0.0
  0
LINE
  5
E3
330
1F
100
AcDbEntity
  8
0
  6
Continuous
 62
     7
370
    15
100
AcDbLine
 10
283.3443423173
 20
541.3284634823
 30
0.0
 11
299.3089761025
 21
550.1470422024
 31
0.0
  0
LINE
  5
E4
330
1F
100
AcDbEntity
  8
0
  6
Continuous
 62
     7
370
    15
100
AcDbLine
 10
528.4299428946
 20
550.1470422024
 30
0.0
 11
544.3945701605
 21
541.3284634823
 31
0.0
  0
LINE
  5
E5
330
1F
100
AcDbEntity
  8
0
  6
Continuous
 62
     7
370
    15
100
AcDbLine
 10
545.9418352133
 20
544.1295480008
 30
0.0
 11
535.0481088644
 21
550.1470422024
 31
0.0
  0
ARC
  5
E6
330
1F
100
AcDbEntity
  8
0
  6
Continuous
 62
     7
370
    15
100
AcDbCircle
 10
538.0479961017
 20
686.1174101842
 30
0.0
 40
7.32208951980841
100
AcDbArc
 50
359.2532412093
 51
15.5101943218
  0
LWPOLYLINE
  5
E7
330
1F
100
AcDbEntity
  8
0
  6
Continuous
 62
     7
370
    15
100
AcDbPolyline
 90
       20
 70
   128
 43
0.0
 10
548.5694702154
 20
686.0219811673
 10
548.5657032019
 20
686.3253688092
 10
548.5382612234
 20
686.8937348599
 10
548.4841163641
 20
687.4538516278
 10
548.4028633124
 20
688.0013560528
 10
548.2934768683
 20
688.5329102749
 10
548.1537397391
 20
689.0461539502
 10
547.9793842322
 20
689.5399188275
 10
547.7625186926
 20
690.0136327023
 10
547.5237424856
 20
690.4159163708
 10
547.2650583273
 20
690.7529687161
 10
546.9898040777
 20
691.0288190121
 10
546.6960008627
 20
691.2511920209
 10
546.3826711661
 20
691.4229010815
 10
546.0517700201
 20
691.542968678
 10
545.7079704291
 20
691.6090106244
 10
545.3311498648
 20
691.6174029584
 10
544.9698026663
 20
691.563091206
 10
544.631248284
 20
691.4535378689
 10
544.3945701605
 20
691.3395737881
  0
ARC
  5
E8
330
1F
100
AcDbEntity
  8
0
  6
Continuous
 62
     7
370
    15
100
AcDbCircle
 10
289.6570204614
 20
686.1221710529
 30
0.0
 40
7.288250518136299
100
AcDbArc
 50
164.4544298695
 51
180.7876565708
  0
LWPOLYLINE
  5
E9
330
1F
100
AcDbEntity
  8
0
  6
Continuous
 62
     7
370
    15
100
AcDbPolyline
 90
       20
 70
   128
 43
0.0
 10
283.3443423173
 20
691.3395737881
 10
283.0295927262
 20
691.4841508145
 10
282.6920797488
 20
691.5798997159
 10
282.310426738
 20
691.6215514416
 10
281.9402110203
 20
691.5971135373
 10
281.5899695641
 20
691.5137147183
 10
281.2640276643
 20
691.3786505932
 10
280.9629990392
 20
691.1971186871
 10
280.6852673813
 20
690.9712647671
 10
280.4275377559
 20
690.6988000149
 10
280.1861999462
 20
690.3723572964
 10
279.9601342434
 20
689.9822091336
 10
279.7543063199
 20
689.5268296475
 10
279.5785833521
 20
689.0247916455
 10
279.4372810422
 20
688.4982203717
 10
279.3279877303
 20
687.9549359555
 10
279.2482292651
 20
687.3988484616
 10
279.196450617
 20
686.8333911175
 10
279.1718162967
 20
686.2625455136
 10
279.1694586536
 20
686.0219811673
  0
ARC
  5
EA
330
1F
100
AcDbEntity
  8
0
  6
Continuous
 62
     7
370
    15
100
AcDbCircle
 10
289.6897327915
 20
546.5504713569
 30
0.0
 40
7.320898507564218
100
AcDbArc
 50
179.2517142112
 51
195.5113226261
  0
LWPOLYLINE
  5
EB
330
1F
100
AcDbEntity
  8
0
  6
Continuous
 62
     7
370
    15
100
AcDbPolyline
 90
       20
 70
   128
 43
0.0
 10
279.1694586536
 20
546.6460799451
 10
279.1732095553
 20
546.3426923031
 10
279.2006484604
 20
545.7743024106
 10
279.2547939716
 20
545.2142094845
 10
279.3360452539
 20
544.6667050595
 10
279.4454378447
 20
544.1351508374
 10
279.5851672439
 20
543.6219071622
 10
279.7595405391
 20
543.128118443
 10
279.9763973242
 20
542.65442841
 10
280.2151855452
 20
542.2521447415
 10
280.473869168
 20
541.9150923962
 10
280.749106549
 20
541.6392421002
 10
281.0429246536
 20
541.4168690915
 10
281.35623903
 20
541.2451600308
 10
281.6871431096
 20
541.1250924344
 10
282.0309401861
 20
541.059050488
 10
282.4077627993
 20
541.050658154
 10
282.7691109291
 20
541.1049699063
 10
283.1076613998
 20
541.2145232434
 10
283.3443423173
 20
541.3284634823
  0
ARC
  5
EC
330
1F
100
AcDbEntity
  8
0
  6
Continuous
 62
     7
370
    15
100
AcDbCircle
 10
538.0825126042
 20
546.5458077851
 30
0.0
 40
7.287640991616177
100
AcDbArc
 50
344.4537681951
 51
0.7883693592
  0
LWPOLYLINE
  5
ED
330
1F
100
AcDbEntity
  8
0
  6
Continuous
 62
     7
370
    15
100
AcDbPolyline
 90
       20
 70
   128
 43
0.0
 10
544.3945701605
 20
541.3284634823
 10
544.7093303686
 20
541.1839102978
 10
545.0468357092
 20
541.0881613965
 10
545.4284961706
 20
541.0465096707
 10
545.7987125403
 20
541.0709475751
 10
546.148949433
 20
541.1543225522
 10
546.4748914725
 20
541.2894105191
 10
546.7759187704
 20
541.4709424252
 10
547.0536525732
 20
541.6967963452
 10
547.3113830572
 20
541.9692610974
 10
547.552710343
 20
542.2957038159
 10
547.7787788397
 20
542.6858519787
 10
547.984605599
 20
543.1412314648
 10
548.1603439337
 20
543.6432694668
 10
548.3016307837
 20
544.1698407406
 10
548.4109218603
 20
544.713101315
 10
548.4906967169
 20
545.2692126507
 10
548.5424573904
 20
545.8346461529
 10
548.5671098715
 20
546.4055155987
 10
548.5694702154
 20
546.6460799451
  0
LINE
  5
EE
330
1F
100
AcDbEntity
  8
0
  6
Continuous
 62
     7
370
    15
100
AcDbLine
 10
548.5694702154
 20
546.6460799451
 30
0.0
 11
548.5694702154
 21
550.1470422024
 31
0.0
  0
LINE
  5
EF
330
1F
100
AcDbEntity
  8
0
  6
Continuous
 62
     7
370
    15
100
AcDbLine
 10
548.5694702154
 20
685.1741170163
 30
0.0
 11
548.5694702154
 21
686.0219811673
 31
0.0
  0
LINE
  5
F0
330
1F
100
AcDbEntity
  8
0
  6
Continuous
 62
     7
370
    15
100
AcDbLine
 10
545.3694637304
 20
550.1470422024
 30
0.0
 11
545.3694637304
 21
546.6460799451
 31
0.0
  0
LINE
  5
F1
330
1F
100
AcDbEntity
  8
0
  6
Continuous
 62
     7
370
    15
100
AcDbLine
 10
545.3694637304
 20
686.0219811673
 30
0.0
 11
545.3694637304
 21
685.1770495648
 31
0.0
  0
LINE
  5
F2
330
1F
100
AcDbEntity
  8
0
  6
Continuous
 62
     7
370
    15
100
AcDbLine
 10
282.3694586194
 20
685.1765488858
 30
0.0
 11
282.3694586194
 21
686.0219811673
 31
0.0
  0
LINE
  5
F3
330
1F
100
AcDbEntity
  8
0
  6
Continuous
 62
     7
370
    15
100
AcDbLine
 10
282.3694586194
 20
546.6460799451
 30
0.0
 11
282.3694586194
 21
550.1470422024
 31
0.0
  0
LINE
  5
F4
330
1F
100
AcDbEntity
  8
0
  6
Continuous
 62
     7
370
    15
100
AcDbLine
 10
279.1694586536
 20
686.0219811673
 30
0.0
 11
279.1694586536
 21
685.175499844
 31
0.0
  0
LINE
  5
F5
330
1F
100
AcDbEntity
  8
0
  6
Continuous
 62
     7
370
    15
100
AcDbLine
 10
279.1694586536
 20
550.1470422024
 30
0.0
 11
279.1694586536
 21
546.6460799451
 31
0.0
  0
LWPOLYLINE
  5
F6
330
1F
100
AcDbEntity
  8
0
  6
Continuous
 62
     7
370
    15
100
AcDbPolyline
 90
       19
 70
   128
 43
0.0
 10
559.8918493277
 20
685.054025578
 10
559.0558822638
 20
685.069117474
 10
557.4531133658
 20
685.0951527829
 10
555.8344181067
 20
685.1176833386
 10
554.2021806723
 20
685.1366852994
 10
552.5586660391
 20
685.1521348233
 10
550.9062583929
 20
685.1639842267
 10
549.2472942358
 20
685.1722335095
 10
547.5841339117
 20
685.1768826718
 10
545.9191139227
 20
685.1779078717
 10
544.2546184546
 20
685.1753091092
 10
542.5930078512
 20
685.1691102261
 10
540.9366901404
 20
685.1592873807
 10
539.2879541403
 20
685.1458882565
 10
537.6491840368
 20
685.1288890118
 10
536.0227163321
 20
685.1083611722
 10
534.4108160025
 20
685.0843047375
 10
532.8157957083
 20
685.0567673916
 10
532.3217447287
 20
685.0474690671
  0
LWPOLYLINE
  5
F7
330
1F
100
AcDbEntity
  8
0
  6
Continuous
 62
     7
370
    15
100
AcDbPolyline
 90
       19
 70
   128
 43
0.0
 10
294.9985872394
 20
685.0474690671
 10
294.1648091561
 20
685.0629424328
 10
292.5658184475
 20
685.089764523
 10
290.9503925031
 20
685.1130580182
 10
289.320905078
 20
685.1328467602
 10
287.6796673423
 20
685.1490592236
 10
286.0290090924
 20
685.1616954083
 10
284.3712746537
 20
685.1707314725
 10
282.7088180369
 20
685.1761674161
 10
281.044001961
 20
685.1779793973
 10
279.3791923112
 20
685.1761912579
 10
277.7167600951
 20
685.1707553143
 10
276.0590727812
 20
685.161743092
 10
274.4084856844
 20
685.1491069073
 10
272.7673436886
 20
685.1329182858
 10
271.137977708
 20
685.1131533856
 10
269.5226985401
 20
685.0898598904
 10
267.9238002187
 20
685.063085484
 10
267.4284811503
 20
685.054025578
  0
LWPOLYLINE
  5
F8
330
1F
100
AcDbEntity
  8
0
  6
Continuous
 62
     7
370
    15
100
AcDbPolyline
 90
       15
 70
   128
 43
0.0
 10
563.8786132818
 20
684.3932008023
 10
563.6327560431
 20
684.5680569882
 10
563.4418542868
 20
684.6708869214
 10
563.2630641943
 20
684.7462987179
 10
563.0981023794
 20
684.800825047
 10
562.9382188803
 20
684.8421906705
 10
562.7616460806
 20
684.8775958295
 10
562.5164802557
 20
684.9142646069
 10
562.1883209234
 20
684.9496459241
 10
561.8449743277
 20
684.9770640607
 10
561.4363964087
 20
685.0019311185
 10
561.0050495154
 20
685.0219582791
 10
560.5480010992
 20
685.038075375
 10
560.0677307135
 20
685.0504731412
 10
559.8918493277
 20
685.054025578
  0
LWPOLYLINE
  5
F9
330
1F
100
AcDbEntity
  8
0
  6
Continuous
 62
     7
370
    15
100
AcDbPolyline
 90
       14
 70
   128
 43
0.0
 10
267.4284811503
 20
685.054025578
 10
267.1720500475
 20
685.0486850018
 10
266.6994984633
 20
685.0358103985
 10
266.2538807279
 20
685.0194310422
 10
265.8395122176
 20
684.9995469327
 10
265.4590110666
 20
684.9759196515
 10
265.1110361701
 20
684.9477147336
 10
264.7834266907
 20
684.9116181607
 10
264.4648845679
 20
684.8599528546
 10
264.2836789972
 20
684.8179196591
 10
264.1100327855
 20
684.7651814694
 10
263.9158930069
 20
684.6882199521
 10
263.7041892296
 20
684.5780228848
 10
263.4417335874
 20
684.3932008023
  0
LWPOLYLINE
  5
FA
330
1F
100
AcDbEntity
  8
0
  6
Continuous
 62
     7
370
    15
100
AcDbPolyline
 90
       11
 70
   128
 43
0.0
 10
532.3217447287
 20
685.0474690671
 10
532.0660169607
 20
685.0420092816
 10
531.5950448996
 20
685.0288962597
 10
531.1513717657
 20
685.0122784848
 10
530.7391937262
 20
684.9921559567
 10
530.3609426504
 20
684.9682902569
 10
530.0148780829
 20
684.9397038693
 10
529.6875293738
 20
684.9027966733
 10
529.4002588278
 20
684.8559235806
 10
529.2263563162
 20
684.8163937802
 10
529.0383632666
 20
684.7600793118
  0
LWPOLYLINE
  5
FB
330
1F
100
AcDbEntity
  8
0
  6
Continuous
 62
     7
370
    15
100
AcDbPolyline
 90
       11
 70
   128
 43
0.0
 10
298.2819761521
 20
684.7600793118
 10
298.0812455898
 20
684.8196601147
 10
297.9215379244
 20
684.8556374783
 10
297.7170165068
 20
684.8908757443
 10
297.3671998268
 20
684.9336480374
 10
297.0302979833
 20
684.9630450482
 10
296.6705943829
 20
684.9870537991
 10
296.2494354135
 20
685.0087498898
 10
295.8022694474
 20
685.0263213391
 10
295.3305120951
 20
685.0401496167
 10
294.9985872394
 20
685.0474690671
  0
LINE
  5
FC
330
1F
100
AcDbEntity
  8
0
  6
Continuous
 62
     7
370
    15
100
AcDbLine
 10
529.0383632666
 20
684.7600793118
 30
0.0
 11
526.6159112936
 21
683.9283560986
 31
0.0
  0
LINE
  5
FD
330
1F
100
AcDbEntity
  8
0
  6
Continuous
 62
     7
370
    15
100
AcDbLine
 10
300.7076855189
 20
683.9272355313
 30
0.0
 11
298.2819761521
 21
684.7600793118
 31
0.0
  0
ARC
  5
FE
330
1F
100
AcDbEntity
  8
0
  6
Continuous
 62
     7
370
    15
100
AcDbCircle
 10
562.245647934
 20
682.2560559421
 30
0.0
 40
2.689602941091938
100
AcDbArc
 50
0.7071877655
 51
52.6170124777
  0
LINE
  5
FF
330
1F
100
AcDbEntity
  8
0
  6
Continuous
 62
     7
370
    15
100
AcDbLine
 10
564.9417694098
 20
553.1470393414
 30
0.0
 11
564.9417694098
 21
682.2915171857
 31
0.0
  0
LINE
  5
100
330
1F
100
AcDbEntity
  8
0
  6
Continuous
 62
     7
370
    15
100
AcDbLine
 10
262.3785625583
 20
682.2915171857
 30
0.0
 11
262.3785625583
 21
553.1470393414
 31
0.0
  0
ARC
  5
101
330
1F
100
AcDbEntity
  8
0
  6
Continuous
 62
     7
370
    15
100
AcDbCircle
 10
265.0011336468
 20
682.2805506108
 30
0.0
 40
2.616816504907135
100
AcDbArc
 50
129.0368350331
 51
179.725429849
  0
ARC
  5
102
330
1F
100
AcDbEntity
  8
0
  6
Continuous
 62
     7
370
    15
100
AcDbCircle
 10
561.9417767625
 20
553.1470326817
 30
0.0
 40
3.0
100
AcDbArc
 50
270.0
 51
0.0
  0
ARC
  5
103
330
1F
100
AcDbEntity
  8
0
  6
Continuous
 62
     7
370
    15
100
AcDbCircle
 10
265.3785631004
 20
553.1470326817
 30
0.0
 40
3.0
100
AcDbArc
 50
180.0
 51
270.0
  0
LINE
  5
104
330
1F
100
AcDbEntity
  8
0
  6
Continuous
 62
     7
370
    15
100
AcDbLine
 10
508.0261285788
 20
686.222371983
 30
0.0
 11
319.2942197806
 21
686.222371983
 31
0.0
  0
ARC
  5
105
330
1F
100
AcDbEntity
  8
0
  6
Continuous
 62
     7
370
    15
100
AcDbCircle
 10
319.0072866964
 20
637.3091282681
 30
0.0
 40
48.91408530581932
100
AcDbArc
 50
89.6638974457
 51
93.9474861596
  0
ARC
  5
106
330
1F
100
AcDbEntity
  8
0
  6
Continuous
 62
     7
370
    15
100
AcDbCircle
 10
508.3689048388
 20
639.0809960075
 30
0.0
 40
47.14262216331988
100
AcDbArc
 50
85.9719947112
 51
90.4166040236
  0
LINE
  5
107
330
1F
100
AcDbEntity
  8
0
  6
Continuous
 62
     7
370
    15
100
AcDbLine
 10
523.5559995657
 20
685.0996827359
 30
0.0
 11
511.6803939825
 21
686.1071681256
 31
0.0
  0
LINE
  5
108
330
1F
100
AcDbEntity
  8
0
  6
Continuous
 62
     7
370
    15
100
AcDbLine
 10
315.6399364954
 20
686.1071681256
 30
0.0
 11
303.7643294221
 21
685.0996827359
 31
0.0
  0
LWPOLYLINE
  5
109
330
1F
100
AcDbEntity
  8
0
  6
Continuous
 62
     7
370
    15
100
AcDbPolyline
 90
       19
 70
   128
 43
0.0
 10
446.2712343222
 20
662.0224570508
 10
446.3198359495
 20
662.0297526593
 10
446.4149172789
 20
662.0394086117
 10
446.5368922239
 20
662.0506858105
 10
446.8520815855
 20
662.0765065426
 10
447.2760017401
 20
662.1060704465
 10
447.8266890532
 20
662.1384000058
 10
448.524075318
 20
662.1721123929
 10
449.2022808081
 20
662.1989583249
 10
450.0006015784
 20
662.2244929547
 10
450.9321744925
 20
662.2475241894
 10
452.0111139303
 20
662.2666215176
 10
453.2525594717
 20
662.2802113766
 10
454.4228609091
 20
662.2860049481
 10
455.7271655089
 20
662.2856234784
 10
457.1759636885
 20
662.2778510327
 10
458.7802942282
 20
662.2614239926
 10
460.5517681128
 20
662.235007214
 10
462.5025923735
 20
662.1971701855
  0
LWPOLYLINE
  5
10A
330
1F
100
AcDbEntity
  8
0
  6
Continuous
 62
     7
370
    15
100
AcDbPolyline
 90
       20
 70
   128
 43
0.0
 10
364.8177500254
 20
662.1971701855
 10
366.9132824427
 20
662.2374629254
 10
368.7827582842
 20
662.2644042248
 10
370.4455609804
 20
662.2800444836
 10
371.9198163038
 20
662.2863148923
 10
373.2224758154
 20
662.2849559064
 10
374.3693287855
 20
662.2775649304
 10
375.5604918486
 20
662.2627352948
 10
376.5717502123
 20
662.243399548
 10
377.424370814
 20
662.2213696713
 10
378.1376417166
 20
662.1981477017
 10
378.7289793974
 20
662.174949574
 10
379.3203647619
 20
662.1474122281
 10
379.7724659926
 20
662.122759747
 10
380.1083977705
 20
662.1018981213
 10
380.3546126372
 20
662.0848273511
 10
380.5791194922
 20
662.0674227948
 10
380.7428653723
 20
662.05311768
 10
380.7769592291
 20
662.0499467129
 10
380.7735736853
 20
662.0503997082
  0
LWPOLYLINE
  5
10B
330
1F
100
AcDbEntity
  8
0
  6
Continuous
 62
     7
370
    15
100
AcDbPolyline
 90
       20
 70
   128
 43
0.0
 10
467.0941050535
 20
662.1971701855
 10
469.1896255499
 20
662.2374629254
 10
471.0591133124
 20
662.2644042248
 10
472.7219040877
 20
662.2800444836
 10
474.1961653715
 20
662.2863148923
 10
475.4988248831
 20
662.2849559064
 10
476.6456778532
 20
662.2775649304
 10
477.8368409163
 20
662.2627352948
 10
478.8481052405
 20
662.243399548
 10
479.7007258421
 20
662.2213696713
 10
480.4139907843
 20
662.1981477017
 10
481.005340386
 20
662.174949574
 10
481.5967138296
 20
662.1474122281
 10
482.0488269812
 20
662.122759747
 10
482.3847587591
 20
662.1018981213
 10
482.6309736258
 20
662.0848273511
 10
482.8554685599
 20
662.0674227948
 10
483.01921444
 20
662.05311768
 10
483.0533082968
 20
662.0499467129
 10
483.049922753
 20
662.0503997082
  0
LWPOLYLINE
  5
10C
330
1F
100
AcDbEntity
  8
0
  6
Continuous
 62
     7
370
    15
100
AcDbPolyline
 90
       19
 70
   128
 43
0.0
 10
343.9948852545
 20
662.0224570508
 10
344.0434868818
 20
662.0297526593
 10
344.1385682112
 20
662.0394086117
 10
344.2605431563
 20
662.0506858105
 10
344.5757325178
 20
662.0765065426
 10
344.9996586329
 20
662.1060704465
 10
345.5503399855
 20
662.1384000058
 10
346.2477262503
 20
662.1721123929
 10
346.9259317404
 20
662.1989583249
 10
347.7242465502
 20
662.2244929547
 10
348.6558194643
 20
662.2475241894
 10
349.7347648627
 20
662.2666215176
 10
350.9762044436
 20
662.2802113766
 10
352.1465058809
 20
662.2860049481
 10
353.4508104807
 20
662.2856234784
 10
354.8996086603
 20
662.2778510327
 10
356.5039392
 20
662.2614239926
 10
358.2754190451
 20
662.235007214
 10
360.2262373453
 20
662.1971701855
  0
LINE
  5
10D
330
1F
100
AcDbEntity
  8
0
  6
Continuous
 62
     7
370
    15
100
AcDbLine
 10
360.2264876848
 20
662.1973847623
 30
0.0
 11
361.4058192259
 21
662.1728991742
 31
0.0
  0
LWPOLYLINE
  5
10E
330
1F
100
AcDbEntity
  8
0
  6
Continuous
 62
     7
370
    15
100
AcDbPolyline
 90
        3
 70
   128
 43
0.0
 10
363.6377389914
 20
662.1732806439
 10
364.3757994658
 20
662.1877526517
 10
364.8176367766
 20
662.1972893948
  0
LWPOLYLINE
  5
10F
330
1F
100
AcDbEntity
  8
0
  6
Continuous
 62
     7
370
    15
100
AcDbPolyline
 90
        3
 70
   128
 43
0.0
 10
465.9140880591
 20
662.1732806439
 10
466.6521485335
 20
662.1877526517
 10
467.0939858442
 20
662.1972893948
  0
LINE
  5
110
330
1F
100
AcDbEntity
  8
0
  6
Continuous
 62
     7
370
    15
100
AcDbLine
 10
462.502842713
 20
662.1973847623
 30
0.0
 11
463.6821682936
 21
662.1728991742
 31
0.0
  0
LWPOLYLINE
  5
111
330
1F
100
AcDbEntity
  8
0
  6
Continuous
 62
     7
370
    15
100
AcDbPolyline
 90
        3
 70
   128
 43
0.0
 10
361.4054914004
 20
662.1725415463
 10
361.9639928824
 20
662.1640776868
 10
363.6384959704
 20
662.1725415463
  0
LWPOLYLINE
  5
112
330
1F
100
AcDbEntity
  8
0
  6
Continuous
 62
     7
370
    15
100
AcDbPolyline
 90
        3
 70
   128
 43
0.0
 10
463.6818464285
 20
662.1725415463
 10
464.2403419501
 20
662.1640776868
 10
465.9148509985
 20
662.1725415463
  0
ARC
  5
113
330
1F
100
AcDbEntity
  8
0
  6
Continuous
 62
     7
370
    15
100
AcDbCircle
 10
306.4127178065
 20
667.9782088828
 30
0.0
 40
6.986738018759803
100
AcDbArc
 50
179.8160825533
 51
233.2483295446
  0
ARC
  5
114
330
1F
100
AcDbEntity
  8
0
  6
Continuous
 62
     7
370
    15
100
AcDbCircle
 10
520.9279832612
 20
667.9672873441
 30
0.0
 40
6.965812578481028
100
AcDbArc
 50
306.6712499831
 51
0.2748917403
  0
LINE
  5
115
330
1F
100
AcDbEntity
  8
0
  6
Continuous
 62
     7
370
    15
100
AcDbLine
 10
299.418611396
 20
680.9860085721
 30
0.0
 11
299.418611396
 21
668.0007075543
 31
0.0
  0
LWPOLYLINE
  5
116
330
1F
100
AcDbEntity
  8
0
  6
Continuous
 62
     7
370
    15
100
AcDbPolyline
 90
       15
 70
   128
 43
0.0
 10
303.5176898724
 20
685.067448544
 10
302.8501506334
 20
684.9649047131
 10
302.3423458821
 20
684.8474358792
 10
301.9742916709
 20
684.7279643292
 10
301.7692978865
 20
684.6431588406
 10
301.6096617466
 20
684.5661734814
 10
301.4799978024
 20
684.496436047
 10
301.3120229727
 20
684.3966578717
 10
301.008432675
 20
684.1865872616
 10
300.6348978168
 20
683.8644837613
 10
300.2272527105
 20
683.4014510388
 10
299.9301935917
 20
682.9459523434
 10
299.6724511868
 20
682.3898648495
 10
299.4888793117
 20
681.7332362408
 10
299.418611396
 20
680.9860085721
  0
LINE
  5
117
330
1F
100
AcDbEntity
  8
0
  6
Continuous
 62
     7
370
    15
100
AcDbLine
 10
527.9017265326
 20
668.0007075543
 30
0.0
 11
527.9017265326
 21
680.9860085721
 31
0.0
  0
LWPOLYLINE
  5
118
330
1F
100
AcDbEntity
  8
0
  6
Continuous
 62
     7
370
    15
100
AcDbPolyline
 90
       14
 70
   128
 43
0.0
 10
527.9017265326
 20
680.9859847302
 10
527.8465803152
 20
681.6489552731
 10
527.7171190268
 20
682.1892356152
 10
527.5601442343
 20
682.6062773938
 10
527.4120862967
 20
682.9072093243
 10
527.1419580466
 20
683.3361005063
 10
526.7840679175
 20
683.7656115765
 10
526.566510964
 20
683.9761828656
 10
526.3210590368
 20
684.178814816
 10
526.0417278296
 20
684.3706940884
 10
525.7187421805
 20
684.5493411297
 10
525.2006347662
 20
684.7619151349
 10
524.5630319601
 20
684.937748837
 10
523.8026435858
 20
685.067448544
  0
LINE
  5
119
330
1F
100
AcDbEntity
  8
0
  6
Continuous
 62
     7
370
    15
100
AcDbLine
 10
302.2322173601
 20
662.3801802868
 30
0.0
 11
312.1100153214
 21
654.9718236203
 31
0.0
  0
LINE
  5
11A
330
1F
100
AcDbEntity
  8
0
  6
Continuous
 62
     7
370
    15
100
AcDbLine
 10
515.2103240973
 20
654.9718236203
 30
0.0
 11
525.0881250387
 21
662.3801802868
 31
0.0
  0
LINE
  5
11B
330
1F
100
AcDbEntity
  8
0
  6
Continuous
 62
     7
370
    15
100
AcDbLine
 10
413.45742302
 20
653.0765151257
 30
0.0
 11
413.8629134184
 21
653.0765151257
 31
0.0
  0
LWPOLYLINE
  5
11C
330
1F
100
AcDbEntity
  8
0
  6
Continuous
 62
     7
370
    15
100
AcDbPolyline
 90
       15
 70
   128
 43
0.0
 10
520.1375062948
 20
555.9251403088
 10
520.1699789053
 20
559.8926638837
 10
520.223718453
 20
567.4331759686
 10
520.2670867926
 20
574.9760483975
 10
520.3000839239
 20
582.5207804913
 10
520.3226860052
 20
590.0668477292
 10
520.3348930365
 20
597.6137971158
 10
520.3367050177
 20
605.1610564465
 10
520.3281457907
 20
612.7081488843
 10
520.3091915137
 20
620.25457375
 10
520.2798421866
 20
627.7998065228
 10
520.2400978094
 20
635.3433465237
 10
520.1899822241
 20
642.8846692319
 10
520.1294954306
 20
650.42329781
 10
520.109968949
 20
652.6118849988
  0
LWPOLYLINE
  5
11D
330
1F
100
AcDbEntity
  8
0
  6
Continuous
 62
     7
370
    15
100
AcDbPolyline
 90
       19
 70
   128
 43
0.0
 10
517.4717958456
 20
550.1470422024
 10
517.829805184
 20
550.1776074643
 10
518.1658084875
 20
550.2641772503
 10
518.4688146597
 20
550.3963565106
 10
518.736224938
 20
550.5643700833
 10
518.966942597
 20
550.759062695
 10
519.1618736273
 20
550.9722327466
 10
519.324689675
 20
551.1985635037
 10
519.4620903021
 20
551.439294743
 10
519.583087731
 20
551.7067765469
 10
519.6981246954
 20
552.0327662701
 10
519.8177631384
 20
552.4845933194
 10
519.9057157522
 20
552.929315495
 10
519.9739273077
 20
553.377160954
 10
520.03260212
 20
553.8808440442
 10
520.0769956595
 20
554.3946360821
 10
520.1089437491
 20
554.91984837
 10
520.1291854864
 20
555.4543351407
 10
520.1375062948
 20
555.9251403088
  0
ARC
  5
11E
330
1F
100
AcDbEntity
  8
0
  6
Continuous
 62
     7
370
    15
100
AcDbCircle
 10
415.8601699315
 20
652.9718203656
 30
0.0
 40
2.0
100
AcDbArc
 50
90.0
 51
180.0
  0
LINE
  5
11F
330
1F
100
AcDbEntity
  8
0
  6
Continuous
 62
     7
370
    15
100
AcDbLine
 10
518.0434997565
 20
654.9718236203
 30
0.0
 11
415.8601696974
 21
654.9718236203
 31
0.0
  0
LWPOLYLINE
  5
120
330
1F
100
AcDbEntity
  8
0
  6
Continuous
 62
     7
370
    15
100
AcDbPolyline
 90
       13
 70
   128
 43
0.0
 10
520.109968949
 20
652.6118849988
 10
520.1060350424
 20
652.7615403409
 10
520.0809057242
 20
653.0636166806
 10
520.0204666144
 20
653.3908938641
 10
519.9211175924
 20
653.6961411709
 10
519.7958047873
 20
653.9530610318
 10
519.6377332693
 20
654.1888093228
 10
519.4326932913
 20
654.4156884427
 10
519.1845472342
 20
654.6170329327
 10
518.8997562414
 20
654.7804927106
 10
518.5871418005
 20
654.8969601864
 10
518.2567413336
 20
654.9604748959
 10
518.0436904913
 20
654.9635504956
  0
LWPOLYLINE
  5
121
330
1F
100
AcDbEntity
  8
0
  6
Continuous
 62
     7
370
    15
100
AcDbPolyline
 90
       15
 70
   128
 43
0.0
 10
307.2103585488
 20
652.6118849988
 10
307.1756418234
 20
648.6450528378
 10
307.1175928599
 20
641.105685162
 10
307.0699270254
 20
633.5637187237
 10
307.0326443201
 20
626.0197018857
 10
307.0057507044
 20
618.474111485
 10
306.989243198
 20
610.9274720425
 10
306.9831247812
 20
603.3802842373
 10
306.987395454
 20
595.8330487485
 10
307.0020552164
 20
588.2862900967
 10
307.0271070486
 20
580.7405089612
 10
307.0625420099
 20
573.1962060208
 10
307.1083601004
 20
565.6539057965
 10
307.1645643002
 20
558.1141089673
 10
307.1828271633
 20
555.9251403088
  0
LWPOLYLINE
  5
122
330
1F
100
AcDbEntity
  8
0
  6
Continuous
 62
     7
370
    15
100
AcDbPolyline
 90
       19
 70
   128
 43
0.0
 10
307.1828271633
 20
555.9251403088
 10
307.1868027931
 20
555.6419228787
 10
307.2029109484
 20
555.1083659405
 10
307.2302217966
 20
554.5861577267
 10
307.2688664681
 20
554.0797328229
 10
307.3192949778
 20
553.592262196
 10
307.3827053791
 20
553.124794888
 10
307.4621643311
 20
552.6740884061
 10
307.5660909897
 20
552.2272204632
 10
307.7229197508
 20
551.7430161709
 10
307.8466530329
 20
551.4623259778
 10
307.9937781578
 20
551.2014960522
 10
308.1710900551
 20
550.9567593808
 10
308.3856041914
 20
550.7285689587
 10
308.6392279154
 20
550.5251979107
 10
308.9284177309
 20
550.3574465985
 10
309.2460210806
 20
550.2347325558
 10
309.5827962643
 20
550.1638268704
 10
309.8485465532
 20
550.1470422024
  0
LWPOLYLINE
  5
123
330
1F
100
AcDbEntity
  8
0
  6
Continuous
 62
     7
370
    15
100
AcDbPolyline
 90
       14
 70
   128
 43
0.0
 10
309.2749919182
 20
654.9712514157
 10
308.926635552
 20
654.9410914654
 10
308.6014475113
 20
654.8550462002
 10
308.3104069716
 20
654.7244881863
 10
308.0559279209
 20
654.5591687436
 10
307.8392709976
 20
654.3680762524
 10
307.6603706366
 20
654.1596030469
 10
307.517793346
 20
653.9412593121
 10
307.4088330752
 20
653.7193631405
 10
307.3292459732
 20
653.4976100201
 10
307.2729791886
 20
653.2712077374
 10
307.2337444311
 20
653.0158137555
 10
307.2130765206
 20
652.7310466046
 10
307.2103585488
 20
652.6118849988
  0
LINE
  5
124
330
1F
100
AcDbEntity
  8
0
  6
Continuous
 62
     7
370
    15
100
AcDbLine
 10
411.460166741
 20
654.9718236203
 30
0.0
 11
309.2768426424
 21
654.9718236203
 31
0.0
  0
ARC
  5
125
330
1F
100
AcDbEntity
  8
0
  6
Continuous
 62
     7
370
    15
100
AcDbCircle
 10
411.4601699315
 20
652.9718203656
 30
0.0
 40
2.0
100
AcDbArc
 50
0.0
 51
90.0
  0
LINE
  5
126
330
1F
100
AcDbEntity
  8
0
  6
Continuous
 62
     7
370
    15
100
AcDbLine
 10
559.5440681463
 20
550.1470422024
 30
0.0
 11
532.6784904486
 21
550.1470422024
 31
0.0
  0
LINE
  5
127
330
1F
100
AcDbEntity
  8
0
  6
Continuous
 62
     7
370
    15
100
AcDbLine
 10
294.6418594009
 20
550.1470422024
 30
0.0
 11
267.7762668019
 21
550.1470422024
 31
0.0
  0
LINE
  5
128
330
1F
100
AcDbEntity
  8
0
  6
Continuous
 62
     7
370
    15
100
AcDbLine
 10
263.4994681364
 20
684.4392155881
 30
0.0
 11
263.441100288
 21
684.3926762814
 31
0.0
  0
LINE
  5
129
330
1F
100
AcDbEntity
  8
0
  6
Continuous
 62
     7
370
    15
100
AcDbLine
 10
561.6056735998
 20
550.1470422024
 30
0.0
 11
559.5440681463
 21
550.1470422024
 31
0.0
  0
LINE
  5
12A
330
1F
100
AcDbEntity
  8
0
  6
Continuous
 62
     7
370
    15
100
AcDbLine
 10
267.7762668019
 20
550.1470422024
 30
0.0
 11
265.7146673089
 21
550.1470422024
 31
0.0
  0
LINE
  5
12B
330
1F
100
AcDbEntity
  8
0
  6
Continuous
 62
     7
370
    15
100
AcDbLine
 10
532.6784904486
 20
550.1470422024
 30
0.0
 11
530.6742246634
 21
550.1470422024
 31
0.0
  0
LINE
  5
12C
330
1F
100
AcDbEntity
  8
0
  6
Continuous
 62
     7
370
    15
100
AcDbLine
 10
296.6461192256
 20
550.1470422024
 30
0.0
 11
294.6418594009
 21
550.1470422024
 31
0.0
  0
LINE
  5
12D
330
1F
100
AcDbEntity
  8
0
  6
Continuous
 62
     7
370
    15
100
AcDbLine
 10
530.6742246634
 20
550.1470422024
 30
0.0
 11
519.7960432059
 21
550.1470422024
 31
0.0
  0
LINE
  5
12E
330
1F
100
AcDbEntity
  8
0
  6
Continuous
 62
     7
370
    15
100
AcDbLine
 10
307.5242932326
 20
550.1470422024
 30
0.0
 11
296.6461192256
 21
550.1470422024
 31
0.0
  0
LINE
  5
12F
330
1F
100
AcDbEntity
  8
0
  6
Continuous
 62
     7
370
    15
100
AcDbLine
 10
561.9417722708
 20
550.1470422024
 30
0.0
 11
561.6056735998
 21
550.1470422024
 31
0.0
  0
LINE
  5
130
330
1F
100
AcDbEntity
  8
0
  6
Continuous
 62
     7
370
    15
100
AcDbLine
 10
265.7146673089
 20
550.1470422024
 30
0.0
 11
265.3785626775
 21
550.1470422024
 31
0.0
  0
LINE
  5
131
330
1F
100
AcDbEntity
  8
0
  6
Continuous
 62
     7
370
    15
100
AcDbLine
 10
519.7960432059
 20
550.1470422024
 30
0.0
 11
517.4942548758
 21
550.1470422024
 31
0.0
  0
LINE
  5
132
330
1F
100
AcDbEntity
  8
0
  6
Continuous
 62
     7
370
    15
100
AcDbLine
 10
309.8485465532
 20
550.1470422024
 30
0.0
 11
307.5242932326
 21
550.1470422024
 31
0.0
  0
LINE
  5
133
330
1F
100
AcDbEntity
  8
0
  6
Continuous
 62
     7
370
    15
100
AcDbLine
 10
415.8601696974
 20
550.1470422024
 30
0.0
 11
411.460166741
 21
550.1470422024
 31
0.0
  0
LWPOLYLINE
  5
134
330
1F
100
AcDbEntity
  8
0
  6
Continuous
 62
     7
370
    15
100
AcDbPolyline
 90
        3
 70
   128
 43
0.0
 10
523.8036926275
 20
685.0672578091
 10
523.6597116476
 20
685.0888823743
 10
523.5559995657
 20
685.0996827359
  0
LWPOLYLINE
  5
135
330
1F
100
AcDbEntity
  8
0
  6
Continuous
 62
     7
370
    15
100
AcDbPolyline
 90
        3
 70
   128
 43
0.0
 10
303.7643294221
 20
685.0996827359
 10
303.6606382018
 20
685.0888823743
 10
303.516915012
 20
685.0673054928
  0
LINE
  5
136
330
1F
100
AcDbEntity
  8
0
  6
Continuous
 62
     7
370
    15
100
AcDbLine
 10
302.2322173601
 20
662.3801802868
 30
0.0
 11
302.13468777
 21
662.4547099347
 31
0.0
  0
LINE
  5
137
330
1F
100
AcDbEntity
  8
0
  6
Continuous
 62
     7
370
    15
100
AcDbLine
 10
525.1830633169
 20
662.4527072186
 30
0.0
 11
525.0881250387
 21
662.3801802868
 31
0.0
  0
LINE
  5
138
330
1F
100
AcDbEntity
  8
0
  6
Continuous
 62
     7
370
    15
100
AcDbLine
 10
413.8601716047
 20
555.9422349209
 30
0.0
 11
413.8601716047
 21
652.5936698193
 31
0.0
  0
LINE
  5
139
330
1F
100
AcDbEntity
  8
0
  6
Continuous
 62
     7
370
    15
100
AcDbLine
 10
517.4717958456
 20
550.1470422024
 30
0.0
 11
415.8601696974
 21
550.1470422024
 31
0.0
  0
LINE
  5
13A
330
1F
100
AcDbEntity
  8
0
  6
Continuous
 62
     7
370
    15
100
AcDbLine
 10
413.8601716047
 20
552.1470402951
 30
0.0
 11
413.8601716047
 21
555.9422349209
 31
0.0
  0
ARC
  5
13B
330
1F
100
AcDbEntity
  8
0
  6
Continuous
 62
     7
370
    15
100
AcDbCircle
 10
415.8601699315
 20
552.1470326817
 30
0.0
 40
2.0
100
AcDbArc
 50
180.0
 51
270.0
  0
LINE
  5
13C
330
1F
100
AcDbEntity
  8
0
  6
Continuous
 62
     7
370
    15
100
AcDbLine
 10
413.8601716047
 20
652.5936698193
 30
0.0
 11
413.8601716047
 21
652.9718255276
 31
0.0
  0
LINE
  5
13D
330
1F
100
AcDbEntity
  8
0
  6
Continuous
 62
     7
370
    15
100
AcDbLine
 10
413.4601648337
 20
555.9422349209
 30
0.0
 11
413.4601648337
 21
652.5936698193
 31
0.0
  0
LINE
  5
13E
330
1F
100
AcDbEntity
  8
0
  6
Continuous
 62
     7
370
    15
100
AcDbLine
 10
309.8485465532
 20
550.1470422024
 30
0.0
 11
411.460166741
 21
550.1470422024
 31
0.0
  0
LINE
  5
13F
330
1F
100
AcDbEntity
  8
0
  6
Continuous
 62
     7
370
    15
100
AcDbLine
 10
413.4601648337
 20
552.1470402951
 30
0.0
 11
413.4601648337
 21
555.9422349209
 31
0.0
  0
ARC
  5
140
330
1F
100
AcDbEntity
  8
0
  6
Continuous
 62
     7
370
    15
100
AcDbCircle
 10
411.4601699315
 20
552.1470326817
 30
0.0
 40
2.0
100
AcDbArc
 50
270.0
 51
0.0
  0
LINE
  5
141
330
1F
100
AcDbEntity
  8
0
  6
Continuous
 62
     7
370
    15
100
AcDbLine
 10
413.4601648337
 20
652.5936698193
 30
0.0
 11
413.4601648337
 21
652.9718255276
 31
0.0
  0
LINE
  5
142
330
1F
100
AcDbEntity
  8
0
  6
Continuous
 62
     7
370
    15
100
AcDbLine
 10
859.389555989
 20
490.1417237727
 30
0.0
 11
865.0881639412
 21
442.3295262615
 31
0.0
  0
LINE
  5
143
330
1F
100
AcDbEntity
  8
0
  6
Continuous
 62
     7
370
    15
100
AcDbLine
 10
868.2656822854
 20
442.7082527678
 30
0.0
 11
862.5670574744
 21
490.5204405467
 31
0.0
  0
LWPOLYLINE
  5
144
330
1F
100
AcDbEntity
  8
0
  6
Continuous
 62
     7
370
    15
100
AcDbPolyline
 90
       12
 70
   128
 43
0.0
 10
862.5670574744
 20
490.5204405467
 10
862.5505527686
 20
490.6976989852
 10
862.5448713734
 20
491.0747169936
 10
862.5786057109
 20
491.455663534
 10
862.650929703
 20
491.8292673081
 10
862.7590785163
 20
492.1845101676
 10
862.8983654212
 20
492.5113473727
 10
863.0623335207
 20
492.8011650532
 10
863.2432277945
 20
493.0473836483
 10
863.4322311219
 20
493.2457304284
 10
863.6202735013
 20
493.3949013293
 10
863.7034376627
 20
493.4470222206
  0
ARC
  5
145
330
1F
100
AcDbEntity
  8
0
  6
Continuous
 62
     7
370
    15
100
AcDbCircle
 10
866.0170057513
 20
490.9575837866
 30
0.0
 40
6.67747840983363
100
AcDbArc
 50
150.7804430777
 51
187.0179826196
  0
LINE
  5
146
330
1F
100
AcDbEntity
  8
0
  6
Continuous
 62
     7
370
    15
100
AcDbLine
 10
863.7034376627
 20
493.4470222206
 30
0.0
 11
905.9696460486
 21
517.8467849583
 31
0.0
  0
LWPOLYLINE
  5
147
330
1F
100
AcDbEntity
  8
0
  6
Continuous
 62
     7
370
    15
100
AcDbPolyline
 90
       14
 70
   128
 43
0.0
 10
869.9204518516
 20
441.1262847664
 10
869.8387712592
 20
441.0830900962
 10
869.6676213368
 20
441.0185959505
 10
869.5104810268
 20
440.9923570965
 10
869.3480133551
 20
441.0024292789
 10
869.1867089365
 20
441.0533806227
 10
869.0356040552
 20
441.1397843677
 10
868.8849880774
 20
441.2657213539
 10
868.7373560964
 20
441.4339176845
 10
868.5870604346
 20
441.6648640168
 10
868.4567929553
 20
441.9396071618
 10
868.3528082506
 20
442.2530079597
 10
868.2807034222
 20
442.5976884151
 10
868.2656822854
 20
442.7082527678
  0
LWPOLYLINE
  5
148
330
1F
100
AcDbEntity
  8
0
  6
Continuous
 62
     7
370
    15
100
AcDbPolyline
 90
       19
 70
   128
 43
0.0
 10
865.0881639412
 20
442.3295262615
 10
865.1372903078
 20
441.99212339
 10
865.2647423777
 20
441.4140375917
 10
865.4449285845
 20
440.8558737462
 10
865.6766013814
 20
440.3253798807
 10
865.9577545784
 20
439.8296714011
 10
866.285319885
 20
439.3758832205
 10
866.6549646052
 20
438.9707122716
 10
867.0612433661
 20
438.6199892086
 10
867.497867858
 20
438.3282111665
 10
867.9581620199
 20
438.0983860073
 10
868.4355172261
 20
437.9321296385
 10
868.9236283081
 20
437.8299482969
 10
869.416729577
 20
437.7915208357
 10
869.9093588011
 20
437.8160296908
 10
870.3961717601
 20
437.9022193074
 10
870.8728694755
 20
438.0486394686
 10
871.3352541212
 20
438.2538399918
 10
871.5203293624
 20
438.3549236223
  0
LINE
  5
149
330
1F
100
AcDbEntity
  8
0
  6
Continuous
 62
     7
370
    15
100
AcDbLine
 10
871.5203293624
 20
438.3549236223
 30
0.0
 11
970.0739742506
 21
495.2487317975
 31
0.0
  0
LINE
  5
14A
330
1F
100
AcDbEntity
  8
0
  6
Continuous
 62
     7
370
    15
100
AcDbLine
 10
918.3973355404
 20
469.1113940401
 30
0.0
 11
869.9204518516
 21
441.1262847664
 31
0.0
  0
LINE
  5
14B
330
1F
100
AcDbEntity
  8
0
  6
Continuous
 62
     7
370
    15
100
AcDbLine
 10
968.4740967398
 20
498.0200929416
 30
0.0
 11
919.9972130511
 21
470.0349836679
 31
0.0
  0
LINE
  5
14C
330
1F
100
AcDbEntity
  8
0
  6
Continuous
 62
     7
370
    15
100
AcDbLine
 10
905.9261673597
 20
517.8216852454
 30
0.0
 11
948.1923757456
 21
542.221447983
 31
0.0
  0
LINE
  5
14D
330
1F
100
AcDbEntity
  8
0
  6
Continuous
 62
     7
370
    15
100
AcDbLine
 10
868.3724402527
 20
496.1423798717
 30
0.0
 11
916.7969522674
 21
468.1875041219
 31
0.0
  0
LINE
  5
14E
330
1F
100
AcDbEntity
  8
0
  6
Continuous
 62
     7
370
    15
100
AcDbLine
 10
919.9972130511
 20
470.0349836679
 30
0.0
 11
871.5727094657
 21
497.9898545516
 31
0.0
  0
LINE
  5
14F
330
1F
100
AcDbEntity
  8
0
  6
Continuous
 62
     7
370
    15
100
AcDbLine
 10
972.2024406766
 20
503.3237656983
 30
0.0
 11
952.439125919
 21
543.0165807967
 31
0.0
  0
LINE
  5
150
330
1F
100
AcDbEntity
  8
0
  6
Continuous
 62
     7
370
    15
100
AcDbLine
 10
949.5745732131
 20
541.5903070885
 30
0.0
 11
969.337871112
 21
501.8974822577
 31
0.0
  0
LWPOLYLINE
  5
151
330
1F
100
AcDbEntity
  8
0
  6
Continuous
 62
     7
370
    15
100
AcDbPolyline
 90
       11
 70
   128
 43
0.0
 10
948.1923757456
 20
542.221447983
 10
948.274056338
 20
542.2646426532
 10
948.4452231191
 20
542.3291465313
 10
948.6023465704
 20
542.3553756528
 10
948.764814242
 20
542.3453132044
 10
948.9261355194
 20
542.294361859
 10
949.0772404007
 20
542.2079386493
 10
949.2278732373
 20
542.0820113955
 10
949.3754715007
 20
541.9138150649
 10
949.5257840213
 20
541.6828784649
 10
949.5745732131
 20
541.5903070885
  0
ARC
  5
152
330
1F
100
AcDbEntity
  8
0
  6
Continuous
 62
     7
370
    15
100
AcDbCircle
 10
948.3346209199
 20
541.085287141
 30
0.0
 40
4.536172006439316
100
AcDbArc
 50
25.198402387
 51
53.3902869285
  0
LWPOLYLINE
  5
153
330
1F
100
AcDbEntity
  8
0
  6
Continuous
 62
     7
370
    15
100
AcDbPolyline
 90
       15
 70
   128
 43
0.0
 10
969.337871112
 20
501.8974822577
 10
969.3984445626
 20
501.765985442
 10
969.5070991381
 20
501.4599230759
 10
969.5852056778
 20
501.1200892262
 10
969.627824571
 20
500.7564997394
 10
969.6321235495
 20
500.3789173215
 10
969.5970236541
 20
499.9980585146
 10
969.5233678216
 20
499.6249026103
 10
969.4140220379
 20
499.2704969521
 10
969.273757326
 20
498.944837612
 10
969.1090305833
 20
498.656460592
 10
968.9276979823
 20
498.4118675846
 10
968.7385766436
 20
498.2152631817
 10
968.5507197104
 20
498.0678151872
 10
968.4740967398
 20
498.0200929416
  0
LWPOLYLINE
  5
154
330
1F
100
AcDbEntity
  8
0
  6
Continuous
 62
     7
370
    15
100
AcDbPolyline
 90
       18
 70
   128
 43
0.0
 10
970.0739742506
 20
495.2487317975
 10
970.3571842138
 20
495.4264132503
 10
970.7788212863
 20
495.7485520501
 10
971.1708375537
 20
496.121568426
 10
971.5305524764
 20
496.5432239216
 10
971.8534647709
 20
497.0088370965
 10
972.1354777637
 20
497.51286995
 10
972.3731185543
 20
498.0491907041
 10
972.5636223096
 20
498.6113657913
 10
972.7048311108
 20
499.1927961167
 10
972.7952276715
 20
499.7870187937
 10
972.8336993149
 20
500.3876098147
 10
972.8195042563
 20
500.9881548553
 10
972.752237886
 20
501.5822006048
 10
972.631849628
 20
502.1632450371
 10
972.4587609505
 20
502.7246206048
 10
972.2499823217
 20
503.2258449375
 10
972.2024406766
 20
503.3237656983
  0
LINE
  5
155
330
1F
100
AcDbEntity
  8
0
  6
Continuous
 62
     7
370
    15
100
AcDbLine
 10
699.3818525975
 20
583.6455773756
 30
0.0
 11
679.6185567072
 21
550.5322532775
 31
0.0
  0
LINE
  5
156
330
1F
100
AcDbEntity
  8
0
  6
Continuous
 62
     7
370
    15
100
AcDbLine
 10
682.3663587902
 20
548.892255846
 30
0.0
 11
702.1296543183
 21
582.005589887
 31
0.0
  0
ARC
  5
157
330
1F
100
AcDbEntity
  8
0
  6
Continuous
 62
     7
370
    15
100
AcDbCircle
 10
708.7999724494
 20
577.8690867157
 30
0.0
 40
11.04847617950235
100
AcDbArc
 50
134.3245692076
 51
148.4776290532
  0
ARC
  5
158
330
1F
100
AcDbEntity
  8
0
  6
Continuous
 62
     7
370
    15
100
AcDbCircle
 10
708.7709844816
 20
577.8856550775
 30
0.0
 40
7.815441713225441
100
AcDbArc
 50
134.4070912438
 51
148.1866935351
  0
LWPOLYLINE
  5
159
330
1F
100
AcDbEntity
  8
0
  6
Continuous
 62
     7
370
    15
100
AcDbPolyline
 90
       22
 70
   128
 43
0.0
 10
679.6185567072
 20
550.5322532775
 10
679.4893942655
 20
550.3069165405
 10
679.2627679116
 20
549.8512837245
 10
679.0809686577
 20
549.3737376288
 10
678.9765871677
 20
548.9591206184
 10
678.9311966644
 20
548.5833423187
 10
678.9367462539
 20
548.2304640335
 10
678.991557827
 20
547.8933556992
 10
679.0961680049
 20
547.5725926254
 10
679.2504908886
 20
547.2735188205
 10
679.4759977251
 20
546.9774089886
 10
679.7407061767
 20
546.7365826929
 10
680.0316899945
 20
546.5523313151
 10
680.3394937634
 20
546.4219567573
 10
680.6587518274
 20
546.3413049279
 10
680.9881940517
 20
546.3065533647
 10
681.3318196125
 20
546.3156845845
 10
681.6997139872
 20
546.3705256199
 10
682.1062922542
 20
546.4785411994
 10
682.5581584294
 20
546.6490498566
 10
683.0307271366
 20
546.8762277833
 10
683.2885029914
 20
547.0188440096
  0
ARC
  5
15A
330
1F
100
AcDbEntity
  8
0
  6
Continuous
 62
     7
370
    15
100
AcDbCircle
 10
684.2321252802
 20
547.6949335541
 30
0.0
 40
2.2169044331079
100
AcDbArc
 50
147.3104069435
 51
161.9734722565
  0
LINE
  5
15B
330
1F
100
AcDbEntity
  8
0
  6
Continuous
 62
     7
370
    15
100
AcDbLine
 10
683.2885029914
 20
547.0188440096
 30
0.0
 11
724.8654080992
 21
571.020680435
 31
0.0
  0
LINE
  5
15C
330
1F
100
AcDbEntity
  8
0
  6
Continuous
 62
     7
370
    15
100
AcDbLine
 10
721.6651379643
 20
572.8681459147
 30
0.0
 11
683.5402620543
 21
550.8591235271
 31
0.0
  0
LWPOLYLINE
  5
15D
330
1F
100
AcDbEntity
  8
0
  6
Continuous
 62
     7
370
    15
100
AcDbPolyline
 90
       17
 70
   128
 43
0.0
 10
876.7676457194
 20
546.1144365341
 10
876.8797394777
 20
546.0461901357
 10
877.10679298
 20
545.8875981971
 10
877.3557291261
 20
545.684307752
 10
877.6192817992
 20
545.4360751947
 10
877.8890890646
 20
545.1453334937
 10
878.1568564226
 20
544.8164039361
 10
878.4147445592
 20
544.4553696221
 10
878.6555885104
 20
544.0696764081
 10
878.8731505424
 20
543.6679674532
 10
879.0622381635
 20
543.2600150927
 10
879.218957005
 20
542.8563217748
 10
879.3412334419
 20
542.4673316449
 10
879.4286797232
 20
542.1035083957
 10
879.4828299942
 20
541.7748680698
 10
879.5073257426
 20
541.490560484
 10
879.5101748695
 20
541.3641199339
  0
LINE
  5
15E
330
1F
100
AcDbEntity
  8
0
  6
Continuous
 62
     7
370
    15
100
AcDbLine
 10
879.5101748695
 20
541.3641199339
 30
0.0
 11
879.5101748695
 21
529.5311908057
 31
0.0
  0
LINE
  5
15F
330
1F
100
AcDbEntity
  8
0
  6
Continuous
 62
     7
370
    15
100
AcDbLine
 10
869.3031691083
 20
550.4235871588
 30
0.0
 11
876.7676457194
 21
546.1144365341
 31
0.0
  0
ARC
  5
160
330
1F
100
AcDbEntity
  8
0
  6
Continuous
 62
     7
370
    15
100
AcDbCircle
 10
884.4946787113
 20
530.0153597183
 30
0.0
 40
4.415430359851142
100
AcDbArc
 50
237.5772366932
 51
298.8382507868
  0
LINE
  5
161
330
1F
100
AcDbEntity
  8
0
  6
Continuous
 62
     7
370
    15
100
AcDbLine
 10
886.6269231217
 20
526.1397130516
 30
0.0
 11
977.5157927159
 21
578.6087406337
 31
0.0
  0
ARC
  5
162
330
1F
100
AcDbEntity
  8
0
  6
Continuous
 62
     7
370
    15
100
AcDbCircle
 10
868.5165793242
 20
549.1530032205
 30
0.0
 40
1.494358401737435
100
AcDbArc
 50
58.2392868935
 51
75.4833032444
  0
LINE
  5
163
330
1F
100
AcDbEntity
  8
0
  6
Continuous
 62
     7
370
    15
100
AcDbLine
 10
881.0102992192
 20
526.9330549427
 30
0.0
 11
882.1272918572
 21
526.2882288183
 31
0.0
  0
ARC
  5
164
330
1F
100
AcDbEntity
  8
0
  6
Continuous
 62
     7
370
    15
100
AcDbCircle
 10
865.0833943606
 20
557.1518709576
 30
0.0
 40
4.28978496681227
100
AcDbArc
 50
120.7138948648
 51
172.3994257021
  0
ARC
  5
165
330
1F
100
AcDbEntity
  8
0
  6
Continuous
 62
     7
370
    15
100
AcDbCircle
 10
882.5101760332
 20
529.5311990962
 30
0.0
 40
3.0
100
AcDbArc
 50
180.0
 51
240.0026882663
  0
LINE
  5
166
330
1F
100
AcDbEntity
  8
0
  6
Continuous
 62
     7
370
    15
100
AcDbLine
 10
954.7022430966
 20
613.8418135843
 30
0.0
 11
862.8874915343
 21
560.8382857192
 31
0.0
  0
LINE
  5
167
330
1F
100
AcDbEntity
  8
0
  6
Continuous
 62
     7
370
    15
100
AcDbLine
 10
860.8312985241
 20
557.7192650528
 30
0.0
 11
853.1392626485
 21
508.8649470654
 31
0.0
  0
ARC
  5
168
330
1F
100
AcDbEntity
  8
0
  6
Continuous
 62
     7
370
    15
100
AcDbCircle
 10
852.1006614642
 20
508.9831949545
 30
0.0
 40
1.045310950586054
100
AcDbArc
 50
335.3019212143
 51
353.504670945
  0
ARC
  5
169
330
1F
100
AcDbEntity
  8
0
  6
Continuous
 62
     7
370
    15
100
AcDbCircle
 10
858.1472440863
 20
497.5427185491
 30
0.0
 40
3.000000000000049
100
AcDbArc
 50
240.0026882664
 51
299.9973117337
  0
LINE
  5
16A
330
1F
100
AcDbEntity
  8
0
  6
Continuous
 62
     7
370
    15
100
AcDbLine
 10
863.7096753963
 20
494.3079535897
 30
0.0
 11
951.0199572359
 21
544.7111064344
 31
0.0
  0
LINE
  5
16B
330
1F
100
AcDbEntity
  8
0
  6
Continuous
 62
     7
370
    15
100
AcDbLine
 10
702.4595903852
 20
583.9552727559
 30
0.0
 11
856.6473640137
 21
494.9445656863
 31
0.0
  0
LINE
  5
16C
330
1F
100
AcDbEntity
  8
0
  6
Continuous
 62
     7
370
    15
100
AcDbLine
 10
859.6471238096
 20
494.9445754187
 30
0.0
 11
860.2693461635
 21
495.3037767378
 31
0.0
  0
ARC
  5
16D
330
1F
100
AcDbEntity
  8
0
  6
Continuous
 62
     7
370
    15
100
AcDbCircle
 10
971.9890651092
 20
596.8234275997
 30
0.0
 40
8.103016672148504
100
AcDbArc
 50
1.8999450725
 51
45.2953539731
  0
LWPOLYLINE
  5
16E
330
1F
100
AcDbEntity
  8
0
  6
Continuous
 62
     7
370
    15
100
AcDbPolyline
 90
       19
 70
   128
 43
0.0
 10
977.6891511332
 20
602.5825853947
 10
977.0898398061
 20
603.163653071
 10
975.9435298203
 20
604.2294767645
 10
974.7814231957
 20
605.2508448109
 10
973.6050203601
 20
606.2262875474
 10
972.4158891762
 20
607.1543547853
 10
971.2154963544
 20
608.0337131397
 10
970.0054434749
 20
608.8629902996
 10
968.7872815418
 20
609.6409599614
 10
967.5626289939
 20
610.3663763567
 10
966.3331548467
 20
611.0380424009
 10
965.1005449739
 20
611.6548875426
 10
963.8665189669
 20
612.215821772
 10
962.6328638523
 20
612.7198913544
 10
961.4013497975
 20
613.1662106971
 10
960.1738144053
 20
613.5539915468
 10
958.9521795718
 20
613.8824943213
 10
957.7383671935
 20
614.1511546491
 10
957.1856197046
 20
614.2540832656
  0
ARC
  5
16F
330
1F
100
AcDbEntity
  8
0
  6
Continuous
 62
     7
370
    15
100
AcDbCircle
 10
837.8040491368
 20
595.5479412065
 30
0.0
 40
142.2919566283847
100
AcDbArc
 50
354.477892733
 51
0.6217792706
  0
ARC
  5
170
330
1F
100
AcDbEntity
  8
0
  6
Continuous
 62
     7
370
    15
100
AcDbCircle
 10
975.3891663559
 20
582.0621448373
 30
0.0
 40
4.05177041493517
100
AcDbArc
 50
301.6181715873
 51
357.0725152469
  0
ARC
  5
171
330
1F
100
AcDbEntity
  8
0
  6
Continuous
 62
     7
370
    15
100
AcDbCircle
 10
956.4952139555
 20
610.795214026
 30
0.0
 40
3.527100298451594
100
AcDbArc
 50
78.7118599541
 51
120.4437561662
  0
LINE
  5
172
330
1F
100
AcDbEntity
  8
0
  6
Continuous
 62
     7
370
    15
100
AcDbLine
 10
952.2779395116
 20
546.2317914739
 30
0.0
 11
960.6474269714
 21
568.8708360447
 31
0.0
  0
ARC
  5
173
330
1F
100
AcDbEntity
  8
0
  6
Continuous
 62
     7
370
    15
100
AcDbCircle
 10
949.6916369825
 20
547.0990446416
 30
0.0
 40
2.727835924045622
100
AcDbArc
 50
299.0856068341
 51
341.4623845961
  0
LINE
  5
174
330
1F
100
AcDbEntity
  8
0
  6
Continuous
 62
     7
370
    15
100
AcDbLine
 10
692.5148539256
 20
649.7386195904
 30
0.0
 11
700.9857467029
 21
586.1572313476
 31
0.0
  0
LWPOLYLINE
  5
175
330
1F
100
AcDbEntity
  8
0
  6
Continuous
 62
     7
370
    15
100
AcDbPolyline
 90
       15
 70
   128
 43
0.0
 10
689.8037818661
 20
654.0463777407
 10
689.9158679853
 20
653.9781357523
 10
690.1429304438
 20
653.8195386433
 10
690.3918555263
 20
653.6162545851
 10
690.6554124141
 20
653.3680195947
 10
690.9252217869
 20
653.0772766772
 10
691.1929901985
 20
652.7483465112
 10
691.4508735936
 20
652.3873149345
 10
691.6917149106
 20
652.0016232412
 10
691.909285372
 20
651.5999094201
 10
692.0983640369
 20
651.19196223
 10
692.2550918346
 20
650.7882637417
 10
692.377360369
 20
650.3992781739
 10
692.4648182407
 20
650.0354482336
 10
692.5148539256
 20
649.7386195904
  0
LINE
  5
176
330
1F
100
AcDbEntity
  8
0
  6
Continuous
 62
     7
370
    15
100
AcDbLine
 10
682.3392986696
 20
658.3555321671
 30
0.0
 11
689.8037818661
 21
654.0463777407
 31
0.0
  0
ARC
  5
177
330
1F
100
AcDbEntity
  8
0
  6
Continuous
 62
     7
370
    15
100
AcDbCircle
 10
681.626475611
 20
657.252598498
 30
0.0
 40
1.313232420903521
100
AcDbArc
 50
57.125522835
 51
77.0536368852
  0
ARC
  5
178
330
1F
100
AcDbEntity
  8
0
  6
Continuous
 62
     7
370
    15
100
AcDbCircle
 10
677.8376516305
 20
665.308775823
 30
0.0
 40
4.393986754659525
100
AcDbArc
 50
121.3435224065
 51
178.1992956116
  0
LINE
  5
179
330
1F
100
AcDbEntity
  8
0
  6
Continuous
 62
     7
370
    15
100
AcDbLine
 10
767.3755583613
 20
722.0727970857
 30
0.0
 11
675.5566089729
 21
669.0668458672
 31
0.0
  0
ARC
  5
17A
330
1F
100
AcDbEntity
  8
0
  6
Continuous
 62
     7
370
    15
100
AcDbCircle
 10
808.7737494652
 20
657.3346129949
 30
0.0
 40
135.5708407625009
100
AcDbArc
 50
176.5695081641
 51
182.8021726235
  0
ARC
  5
17B
330
1F
100
AcDbEntity
  8
0
  6
Continuous
 62
     7
370
    15
100
AcDbCircle
 10
679.5965417016
 20
646.6707468104
 30
0.0
 40
3.000000000000049
100
AcDbArc
 50
240.0026882664
 51
299.9973117336
  0
ARC
  5
17C
330
1F
100
AcDbEntity
  8
0
  6
Continuous
 62
     7
370
    15
100
AcDbCircle
 10
680.9440759689
 20
651.1954204006
 30
0.0
 40
7.594792606628498
100
AcDbArc
 50
183.6881832676
 51
238.5341380825
  0
LINE
  5
17D
330
1F
100
AcDbEntity
  8
0
  6
Continuous
 62
     7
370
    15
100
AcDbLine
 10
681.0964244586
 20
644.0726125191
 30
0.0
 11
681.8592824167
 21
644.5130010444
 31
0.0
  0
LINE
  5
17E
330
1F
100
AcDbEntity
  8
0
  6
Continuous
 62
     7
370
    15
100
AcDbLine
 10
676.9796667564
 20
644.7174319525
 30
0.0
 11
678.0966583407
 21
644.0726064364
 31
0.0
  0
ARC
  5
17F
330
1F
100
AcDbEntity
  8
0
  6
Continuous
 62
     7
370
    15
100
AcDbCircle
 10
703.9594736484
 20
586.5534237768
 30
0.0
 40
3.000000000000109
100
AcDbArc
 50
187.5887769316
 51
240.0026882664
  0
LWPOLYLINE
  5
180
330
1F
100
AcDbEntity
  8
0
  6
Continuous
 62
     7
370
    15
100
AcDbPolyline
 90
       18
 70
   128
 43
0.0
 10
789.6733053655
 20
711.3023862695
 10
788.6444733979
 20
712.2706639776
 10
787.4856969011
 20
713.3019458862
 10
786.3123228434
 20
714.2876127192
 10
785.1258347938
 20
715.2262045522
 10
783.9277948198
 20
716.1163913461
 10
782.7197241592
 20
716.9567887732
 10
781.5032075337
 20
717.7461315942
 10
780.2798435929
 20
718.4832049358
 10
779.0512835383
 20
719.1668025228
 10
777.8192297405
 20
719.7957858803
 10
776.5853646818
 20
720.3690864241
 10
775.3514759156
 20
720.8857501122
 10
774.1193201751
 20
721.3448212392
 10
772.8907700974
 20
721.7455302561
 10
771.6676743488
 20
722.0871214614
 10
770.4519453425
 20
722.3689775547
 10
769.9023240962
 20
722.4772265206
  0
ARC
  5
181
330
1F
100
AcDbEntity
  8
0
  6
Continuous
 62
     7
370
    15
100
AcDbCircle
 10
769.1742381387
 20
718.9992478558
 30
0.0
 40
3.553370900239719
100
AcDbArc
 50
78.1763505094
 51
120.2806815038
  0
LINE
  5
182
330
1F
100
AcDbEntity
  8
0
  6
Continuous
 62
     7
370
    15
100
AcDbLine
 10
952.733546944
 20
617.675272844
 30
0.0
 11
945.0486254564
 21
637.3104702894
 31
0.0
  0
ARC
  5
183
330
1F
100
AcDbEntity
  8
0
  6
Continuous
 62
     7
370
    15
100
AcDbCircle
 10
936.0401566019
 20
633.9413846554
 30
0.0
 40
9.617860942662617
100
AcDbArc
 50
20.5053408318
 51
58.6076909595
  0
ARC
  5
184
330
1F
100
AcDbEntity
  8
0
  6
Continuous
 62
     7
370
    15
100
AcDbCircle
 10
944.4503383467
 20
614.3014517742
 30
0.0
 40
8.943921791965884
100
AcDbArc
 50
351.8575888012
 51
22.1613517611
  0
LINE
  5
185
330
1F
100
AcDbEntity
  8
0
  6
Continuous
 62
     7
370
    15
100
AcDbLine
 10
941.0500527857
 20
642.1513900963
 30
0.0
 11
807.5964402482
 21
719.1925207476
 31
0.0
  0
ARC
  5
186
330
1F
100
AcDbEntity
  8
0
  6
Continuous
 62
     7
370
    15
100
AcDbCircle
 10
796.4959064926
 20
708.5245711797
 30
0.0
 40
6.853388772262345
100
AcDbArc
 50
119.0945056771
 51
136.8438560066
  0
LINE
  5
187
330
1F
100
AcDbEntity
  8
0
  6
Continuous
 62
     7
370
    15
100
AcDbLine
 10
791.496411552
 20
713.2122132312
 30
0.0
 11
781.5428927428
 21
702.7852436204
 31
0.0
  0
LINE
  5
188
330
1F
100
AcDbEntity
  8
0
  6
Continuous
 62
     7
370
    15
100
AcDbLine
 10
801.5495412766
 20
719.3632105129
 30
0.0
 11
793.1594018611
 21
714.5196861256
 31
0.0
  0
LINE
  5
189
330
1F
100
AcDbEntity
  8
0
  6
Continuous
 62
     7
370
    15
100
AcDbLine
 10
779.4345103438
 20
697.167925499
 30
0.0
 11
780.8560097476
 21
652.0277211269
 31
0.0
  0
LWPOLYLINE
  5
18A
330
1F
100
AcDbEntity
  8
0
  6
Continuous
 62
     7
370
    15
100
AcDbPolyline
 90
       12
 70
   128
 43
0.0
 10
807.5964402482
 20
719.1925207476
 10
807.1900308321
 20
719.4106804027
 10
806.554022244
 20
719.6888007293
 10
805.9764860862
 20
719.8780923234
 10
805.3968130832
 20
720.0100227722
 10
804.8183012258
 20
720.0849267704
 10
804.2441262792
 20
720.1032484385
 10
803.6187028721
 20
720.0583394329
 10
803.0127513091
 20
719.9471561991
 10
802.4328212103
 20
719.7733535798
 10
801.8833527462
 20
719.5408698376
 10
801.5548749603
 20
719.3578340784
  0
ARC
  5
18B
330
1F
100
AcDbEntity
  8
0
  6
Continuous
 62
     7
370
    15
100
AcDbCircle
 10
787.1874462651
 20
697.4623036944
 30
0.0
 40
7.75852266360249
100
AcDbArc
 50
136.6796748149
 51
182.1744703863
  0
LINE
  5
18C
330
1F
100
AcDbEntity
  8
0
  6
Continuous
 62
     7
370
    15
100
AcDbLine
 10
862.5783022536
 20
493.6548257766
 30
0.0
 11
863.7096753963
 21
494.3079535897
 31
0.0
  0
ARC
  5
18D
330
1F
100
AcDbEntity
  8
0
  6
Continuous
 62
     7
370
    15
100
AcDbCircle
 10
853.0843418156
 20
511.2953563636
 30
0.0
 40
2.646309307941041
100
AcDbArc
 50
237.9504516659
 51
269.7166425856
  0
LINE
  5
18E
330
1F
100
AcDbEntity
  8
0
  6
Continuous
 62
     7
370
    15
100
AcDbLine
 10
781.7305568542
 20
549.4264568862
 30
0.0
 11
851.6779808344
 21
509.0466685304
 31
0.0
  0
ARC
  5
18F
330
1F
100
AcDbEntity
  8
0
  6
Continuous
 62
     7
370
    15
100
AcDbCircle
 10
788.0200398122
 20
563.6064433603
 30
0.0
 40
8.122250170465025
100
AcDbArc
 50
123.7158116296
 51
178.1813488473
  0
LINE
  5
190
330
1F
100
AcDbEntity
  8
0
  6
Continuous
 62
     7
370
    15
100
AcDbLine
 10
900.8526646059
 20
582.7551076627
 30
0.0
 11
854.112829561
 21
609.737440099
 31
0.0
  0
LWPOLYLINE
  5
191
330
1F
100
AcDbEntity
  8
0
  6
Continuous
 62
     7
370
    15
100
AcDbPolyline
 90
       15
 70
   128
 43
0.0
 10
852.0139165052
 20
609.7726722305
 10
849.1836207577
 20
608.3103664357
 10
843.8057166052
 20
605.4922953918
 10
838.4260591438
 20
602.6215639972
 10
833.0450445539
 20
599.6983717584
 10
827.6630437277
 20
596.722952255
 10
822.2803938401
 20
593.695461198
 10
816.8975079301
 20
590.6161662302
 10
811.5147231725
 20
587.4852425304
 10
806.1324357477
 20
584.3029090764
 10
800.7509996893
 20
581.0694091799
 10
795.3707943189
 20
577.7849520864
 10
789.9921820993
 20
574.4497762414
 10
784.8984404288
 20
571.2435336238
 10
783.5115899492
 20
570.3625389535
  0
LINE
  5
192
330
1F
100
AcDbEntity
  8
0
  6
Continuous
 62
     7
370
    15
100
AcDbLine
 10
779.9018809616
 20
563.8642120729
 30
0.0
 11
779.9018809616
 21
552.989938283
 31
0.0
  0
LWPOLYLINE
  5
193
330
1F
100
AcDbEntity
  8
0
  6
Continuous
 62
     7
370
    15
100
AcDbPolyline
 90
       10
 70
   128
 43
0.0
 10
779.9018809616
 20
552.989938283
 10
779.9115410193
 20
552.6598959108
 10
779.9766831884
 20
552.0916474743
 10
780.088532495
 20
551.6030246563
 10
780.2479487348
 20
551.148191453
 10
780.4521755039
 20
550.7300730234
 10
780.6986249859
 20
550.3506696677
 10
781.0176934879
 20
549.9779856028
 10
781.375823689
 20
549.6626514084
 10
781.7288709803
 20
549.4306132058
  0
ARC
  5
194
330
1F
100
AcDbEntity
  8
0
  6
Continuous
 62
     7
370
    15
100
AcDbCircle
 10
853.0268032483
 20
607.847570559
 30
0.0
 40
2.175305955503903
100
AcDbArc
 50
60.2322500354
 51
117.7509733516
  0
ARC
  5
195
330
1F
100
AcDbEntity
  8
0
  6
Continuous
 62
     7
370
    15
100
AcDbCircle
 10
780.2307899642
 20
553.8001549336
 30
0.0
 40
3.037267212290378
100
AcDbArc
 50
237.918003993
 51
273.8147903187
  0
LINE
  5
196
330
1F
100
AcDbEntity
  8
0
  6
Continuous
 62
     7
370
    15
100
AcDbLine
 10
708.6718630536
 20
591.6023430783
 30
0.0
 11
778.6192849265
 21
551.2225559391
 31
0.0
  0
ARC
  5
197
330
1F
100
AcDbEntity
  8
0
  6
Continuous
 62
     7
370
    15
100
AcDbCircle
 10
850.014526402
 20
609.7199671722
 30
0.0
 40
2.060486988338192
100
AcDbArc
 50
2.2418719418
 51
61.5685367123
  0
ARC
  5
198
330
1F
100
AcDbEntity
  8
0
  6
Continuous
 62
     7
370
    15
100
AcDbCircle
 10
712.3696948331
 20
607.7958300092
 30
0.0
 40
7.468870763473072
100
AcDbArc
 50
125.1773514725
 51
187.0861083107
  0
LINE
  5
199
330
1F
100
AcDbEntity
  8
0
  6
Continuous
 62
     7
370
    15
100
AcDbLine
 10
851.0015576333
 20
611.5335391518
 30
0.0
 11
778.7137001892
 21
653.2644309873
 31
0.0
  0
LINE
  5
19A
330
1F
100
AcDbEntity
  8
0
  6
Continuous
 62
     7
370
    15
100
AcDbLine
 10
704.9578722261
 20
606.874463565
 30
0.0
 11
706.527355537
 21
595.0941463454
 31
0.0
  0
LWPOLYLINE
  5
19B
330
1F
100
AcDbEntity
  8
0
  6
Continuous
 62
     7
370
    15
100
AcDbPolyline
 90
       15
 70
   128
 43
0.0
 10
776.6149957602
 20
653.3146869757
 10
773.7783021212
 20
651.8760451391
 10
768.3963139391
 20
649.1014991901
 10
763.0199228584
 20
646.2707698961
 10
757.6494871275
 20
643.3840592031
 10
752.2853966046
 20
640.4415702706
 10
746.9279673911
 20
637.4434709784
 10
741.5775893453
 20
634.3900228895
 10
736.2346333596
 20
631.2813817119
 10
730.899432394
 20
628.1177834614
 10
725.5723763069
 20
624.8994312972
 10
720.2537790922
 20
621.6265527195
 10
714.9440453598
 20
618.2993618364
 10
709.6435080698
 20
614.9180751958
 10
708.0668092184
 20
613.9006810204
  0
LWPOLYLINE
  5
19C
330
1F
100
AcDbEntity
  8
0
  6
Continuous
 62
     7
370
    15
100
AcDbPolyline
 90
       10
 70
   128
 43
0.0
 10
706.527355537
 20
595.0941463454
 10
706.5829345862
 20
594.7514938685
 10
706.7236903088
 20
594.178390842
 10
706.9219870164
 20
593.6325094906
 10
707.1751863161
 20
593.1255548459
 10
707.4789217946
 20
592.6659176065
 10
707.8273982601
 20
592.260165764
 10
708.2139860134
 20
591.9125944078
 10
708.632023745
 20
591.6256673851
 10
708.6710580488
 20
591.6058350294
  0
ARC
  5
19D
330
1F
100
AcDbEntity
  8
0
  6
Continuous
 62
     7
370
    15
100
AcDbCircle
 10
777.6099466543
 20
651.3863148971
 30
0.0
 40
2.169918467443907
100
AcDbArc
 50
59.5770595066
 51
117.2916433565
  0
LWPOLYLINE
  5
19E
330
1F
100
AcDbEntity
  8
0
  6
Continuous
 62
     7
370
    15
100
AcDbPolyline
 90
       21
 70
   128
 43
0.0
 10
821.7988070902
 20
662.6115624739
 10
821.6079998777
 20
662.4440596718
 10
821.3949475584
 20
662.1796039993
 10
821.2233255913
 20
661.8763559414
 10
821.0950221551
 20
661.5366711586
 10
821.0128905914
 20
661.1637888474
 10
820.9800413376
 20
660.7637784019
 10
820.9982993524
 20
660.3460405567
 10
821.0672347378
 20
659.9218423277
 10
821.1846347844
 20
659.5013968691
 10
821.3476840825
 20
659.0929290929
 10
821.553525076
 20
658.7038899747
 10
821.7993170671
 20
658.3416427596
 10
822.0824174485
 20
658.0134167562
 10
822.4002594772
 20
657.7267282788
 10
822.7492986032
 20
657.4903977603
 10
823.0828234742
 20
657.3297175827
 10
823.421338532
 20
657.2255499098
 10
823.7584500999
 20
657.1783347915
 10
824.0888561041
 20
657.187395596
 10
824.1532564886
 20
657.2009472159
  0
LWPOLYLINE
  5
19F
330
1F
100
AcDbEntity
  8
0
  6
Continuous
 62
     7
370
    15
100
AcDbPolyline
 90
       21
 70
   128
 43
0.0
 10
894.119107071
 20
620.8619419607
 10
893.9282998584
 20
620.6944391586
 10
893.7152475392
 20
620.4299834861
 10
893.5436255721
 20
620.1267354282
 10
893.4153221358
 20
619.7870506454
 10
893.3331947868
 20
619.4141659011
 10
893.3003455331
 20
619.0141554556
 10
893.3186035479
 20
618.5964176104
 10
893.3875389333
 20
618.1722193814
 10
893.5049347651
 20
617.7517763559
 10
893.6679840633
 20
617.3433085797
 10
893.8738292714
 20
616.9542670284
 10
894.1196212625
 20
616.5920198133
 10
894.402721644
 20
616.2637938099
 10
894.720559458
 20
615.9771077656
 10
895.0696027986
 20
615.740774814
 10
895.4031276696
 20
615.5800946364
 10
895.7416427275
 20
615.4759269635
 10
896.0787500806
 20
615.4287142783
 10
896.4091560848
 20
615.4377750827
 10
896.4735564694
 20
615.4513267027
  0
ELLIPSE
  5
1A0
330
1F
100
AcDbEntity
  8
0
  6
Continuous
 62
     7
370
    15
100
AcDbEllipse
 10
919.9972146863
 20
468.1875061254
 30
0.0
 11
2.262741699796834
 21
0.0
 31
0.0
210
0.0
220
0.0
230
1.0
 40
0.5773815452
 41
1.570796326794897
 42
2.356113226130621
  0
LINE
  5
1A1
330
1F
100
AcDbEntity
  8
0
  6
Continuous
 62
     7
370
    15
100
AcDbLine
 10
919.9972130511
 20
470.0349836679
 30
0.0
 11
919.9972130511
 21
469.4939664962
 31
0.0
  0
LINE
  5
1A2
330
1F
100
AcDbEntity
  8
0
  6
Continuous
 62
     7
370
    15
100
AcDbLine
 10
875.8692603553
 20
530.6705997193
 30
0.0
 11
875.9378922834
 21
530.8468583394
 31
0.0
  0
LINE
  5
1A3
330
1F
100
AcDbEntity
  8
0
  6
Continuous
 62
     7
370
    15
100
AcDbLine
 10
864.407795795
 20
495.2341144556
 30
0.0
 11
875.8692603553
 21
530.6705997193
 31
0.0
  0
ARC
  5
1A4
330
1F
100
AcDbEntity
  8
0
  6
Continuous
 62
     7
370
    15
100
AcDbCircle
 10
862.8861810472
 20
495.6548807484
 30
0.0
 40
1.57871964386908
100
AcDbArc
 50
301.441091716
 51
344.5424855567
  0
LINE
  5
1A5
330
1F
100
AcDbEntity
  8
0
  6
Continuous
 62
     7
370
    15
100
AcDbLine
 10
681.7479093695
 20
644.4486923621
 30
0.0
 11
681.8592803093
 21
644.384399287
 31
0.0
  0
ARC
  5
1A6
330
1F
100
AcDbEntity
  8
0
  6
Continuous
 62
     7
370
    15
100
AcDbCircle
 10
705.519166672
 20
590.9148114104
 30
0.0
 40
6.594282555769348
100
AcDbArc
 50
193.7232161507
 51
226.6291647114
  0
LINE
  5
1A7
330
1F
100
AcDbEntity
  8
0
  6
Continuous
 62
     7
370
    15
100
AcDbLine
 10
687.6516564713
 20
638.0200540136
 30
0.0
 11
699.1131306134
 21
589.3504379122
 31
0.0
  0
ARC
  5
1A8
330
1F
100
AcDbEntity
  8
0
  6
Continuous
 62
     7
370
    15
100
AcDbCircle
 10
683.0745785682
 20
636.958278828
 30
0.0
 40
4.698617741021494
100
AcDbArc
 50
13.0602813958
 51
57.0791007629
  0
LINE
  5
1A9
330
1F
100
AcDbEntity
  8
0
  6
Continuous
 62
     7
370
    15
100
AcDbLine
 10
682.142120434
 20
642.9148635325
 30
0.0
 11
685.6281865048
 21
640.9024004263
 31
0.0
  0
ARC
  5
1AA
330
1F
100
AcDbEntity
  8
0
  6
Continuous
 62
     7
370
    15
100
AcDbCircle
 10
682.4733657497
 20
643.4327070336
 30
0.0
 40
0.6147238004429101
100
AcDbArc
 50
182.6059735513
 51
237.394457931
  0
LINE
  5
1AB
330
1F
100
AcDbEntity
  8
0
  6
Continuous
 62
     7
370
    15
100
AcDbLine
 10
681.8592776752
 20
657.3606944093
 30
0.0
 11
681.8592776752
 21
643.4047573013
 31
0.0
  0
ARC
  5
1AC
330
1F
100
AcDbEntity
  8
0
  6
Continuous
 62
     7
370
    15
100
AcDbCircle
 10
683.6236801553
 20
657.4534121946
 30
0.0
 40
1.766836919403806
100
AcDbArc
 50
145.3459046168
 51
183.0080755857
  0
LINE
  5
1AD
330
1F
100
AcDbEntity
  8
0
  6
Continuous
 62
     7
370
    15
100
AcDbLine
 10
876.7613574096
 20
530.563569491
 30
0.0
 11
879.5683712379
 21
528.9431149002
 31
0.0
  0
LWPOLYLINE
  5
1AE
330
1F
100
AcDbEntity
  8
0
  6
Continuous
 62
     7
370
    15
100
AcDbPolyline
 90
        9
 70
   128
 43
0.0
 10
874.7378872126
 20
530.0174719063
 10
874.8635185387
 20
530.3039531076
 10
875.0365734987
 20
530.5357243664
 10
875.2527193966
 20
530.7069741228
 10
875.5065614358
 20
530.8134384116
 10
875.7917607303
 20
530.8524495424
 10
876.1011691746
 20
530.8230529198
 10
876.4270991835
 20
530.7259291974
 10
876.7613574096
 20
530.563569491
  0
LINE
  5
1AF
330
1F
100
AcDbEntity
  8
0
  6
Continuous
 62
     7
370
    15
100
AcDbLine
 10
863.2764226524
 20
494.5809866426
 30
0.0
 11
874.7378872126
 21
530.0174719063
 31
0.0
  0
ARC
  5
1B0
330
1F
100
AcDbEntity
  8
0
  6
Continuous
 62
     7
370
    15
100
AcDbCircle
 10
861.7927649442
 20
494.9977617363
 30
0.0
 40
1.541084577039976
100
AcDbArc
 50
247.9382334535
 51
344.3093874649
  0
ARC
  5
1B1
330
1F
100
AcDbEntity
  8
0
  6
Continuous
 62
     7
370
    15
100
AcDbCircle
 10
860.741347818
 20
494.4524630018
 30
0.0
 40
0.6017013861581354
100
AcDbArc
 50
176.8094202129
 51
225.7841275719
  0
LINE
  5
1B2
330
1F
100
AcDbEntity
  8
0
  6
Continuous
 62
     7
370
    15
100
AcDbLine
 10
868.8520123831
 20
549.8147983585
 30
0.0
 11
860.140579112
 21
494.4859521045
 31
0.0
  0
ARC
  5
1B3
330
1F
100
AcDbEntity
  8
0
  6
Continuous
 62
     7
370
    15
100
AcDbCircle
 10
870.3733316817
 20
549.6230555578
 30
0.0
 40
1.533355050162424
100
AcDbArc
 50
143.9599190756
 51
172.8164791131
  0
LWPOLYLINE
  5
1B4
330
1F
100
AcDbEntity
  8
0
  6
Continuous
 62
     7
370
    15
100
AcDbPolyline
 90
       25
 70
   128
 43
0.0
 10
824.1523208286
 20
657.1956669927
 10
824.2838274253
 20
657.2222072973
 10
824.5600283676
 20
657.3291336668
 10
824.8061828217
 20
657.499582413
 10
825.0165208839
 20
657.7295257157
 10
825.1861408757
 20
658.0136363671
 10
825.3110430612
 20
658.3452293865
 10
825.3882940199
 20
658.7164980616
 10
825.4161151546
 20
659.1187743362
 10
825.3938321158
 20
659.5426358879
 10
825.3219506656
 20
659.97813487
 10
825.2022072543
 20
660.4150607163
 10
825.0373540711
 20
660.843161593
 10
824.83128127
 20
661.2524436937
 10
824.5888230945
 20
661.6332637092
 10
824.3156440812
 20
661.9767254679
 10
824.0181631951
 20
662.2747626579
 10
823.7033388807
 20
662.5203991981
 10
823.3785679102
 20
662.7078854887
 10
823.0514662189
 20
662.8328249436
 10
822.7296750305
 20
662.8922859127
 10
822.4207554897
 20
662.8848624964
 10
822.1319357809
 20
662.8107426752
 10
821.8699973321
 20
662.6716377182
 10
821.7965353751
 20
662.616845184
  0
LWPOLYLINE
  5
1B5
330
1F
100
AcDbEntity
  8
0
  6
Continuous
 62
     7
370
    15
100
AcDbPolyline
 90
       25
 70
   128
 43
0.0
 10
896.4726208093
 20
615.4460464795
 10
896.604127406
 20
615.4725867841
 10
896.8803325631
 20
615.5795107205
 10
897.1264870171
 20
615.7499594666
 10
897.3368250793
 20
615.9799027694
 10
897.5064408564
 20
616.2640158539
 10
897.6313472567
 20
616.5956064402
 10
897.7085940006
 20
616.9668775484
 10
897.73641935
 20
617.3691513899
 10
897.7141320965
 20
617.7930153747
 10
897.6422548611
 20
618.2285119237
 10
897.5225072351
 20
618.665440203
 10
897.3576540518
 20
619.0935410797
 10
897.1515812507
 20
619.5028231804
 10
896.90912729
 20
619.8836407628
 10
896.6359482767
 20
620.2271025216
 10
896.3384673905
 20
620.5251397116
 10
896.0236388615
 20
620.7707786849
 10
895.6988721056
 20
620.9582625424
 10
895.3717704143
 20
621.0832019972
 10
895.0499792259
 20
621.1426629664
 10
894.7410596851
 20
621.1352395501
 10
894.4522357616
 20
621.061122162
 10
894.1902930981
 20
620.922019638
 10
894.1168395705
 20
620.8672222377
  0
LWPOLYLINE
  5
1B6
330
1F
100
AcDbEntity
  8
0
  6
Continuous
 62
     7
370
    15
100
AcDbPolyline
 90
       13
 70
   128
 43
0.0
 10
751.1547975467
 20
135.3624367879
 10
750.9888820575
 20
135.3675151036
 10
750.6140880511
 20
135.4169869588
 10
750.2538375781
 20
135.5175757573
 10
749.9173335956
 20
135.6659913228
 10
749.6125631259
 20
135.8577990697
 10
749.3462734149
 20
136.0877657102
 10
749.1240672992
 20
136.3503122495
 10
748.9505224155
 20
136.6398596929
 10
748.8295488284
 20
136.9510436223
 10
748.7649373935
 20
137.2784757779
 10
748.7604789661
 20
137.6156473325
 10
748.7993411945
 20
137.8743195699
  0
LWPOLYLINE
  5
1B7
330
1F
100
AcDbEntity
  8
0
  6
Continuous
 62
     7
370
    15
100
AcDbPolyline
 90
       19
 70
   128
 43
0.0
 10
745.6761054919
 20
138.5710382627
 10
745.6104688571
 20
138.2184648679
 10
745.5581836627
 20
137.6558447049
 10
745.5691509174
 20
137.0915079282
 10
745.6430606769
 20
136.5320944951
 10
745.7788638995
 20
135.9838509725
 10
745.9749870227
 20
135.4527378247
 10
746.2291650699
 20
134.9444890187
 10
746.5386323856
 20
134.4646239446
 10
746.9000749515
 20
134.0183997319
 10
747.3095827029
 20
133.6107635663
 10
747.7627210544
 20
133.2463050054
 10
748.2545785831
 20
132.9291725324
 10
748.7796955035
 20
132.6630735562
 10
749.3323020862
 20
132.4511432813
 10
749.9061279224
 20
132.2959447072
 10
750.4947595523
 20
132.1993971036
 10
751.0606937335
 20
132.1631813214
 10
751.1547975467
 20
132.1624303029
  0
LINE
  5
1B8
330
1F
100
AcDbEntity
  8
0
  6
Continuous
 62
     7
370
    15
100
AcDbLine
 10
820.8427600787
 20
135.3624367879
 30
0.0
 11
751.1547975467
 21
135.3624367879
 31
0.0
  0
LINE
  5
1B9
330
1F
100
AcDbEntity
  8
0
  6
Continuous
 62
     7
370
    15
100
AcDbLine
 10
890.5306987689
 20
135.3624367879
 30
0.0
 11
820.8427600787
 21
135.3624367879
 31
0.0
  0
LINE
  5
1BA
330
1F
100
AcDbEntity
  8
0
  6
Continuous
 62
     7
370
    15
100
AcDbLine
 10
820.8427600787
 20
132.1624303029
 30
0.0
 11
890.5306987689
 21
132.1624303029
 31
0.0
  0
LINE
  5
1BB
330
1F
100
AcDbEntity
  8
0
  6
Continuous
 62
     7
370
    15
100
AcDbLine
 10
751.1547975467
 20
132.1624303029
 30
0.0
 11
820.8427600787
 21
132.1624303029
 31
0.0
  0
LWPOLYLINE
  5
1BC
330
1F
100
AcDbEntity
  8
0
  6
Continuous
 62
     7
370
    15
100
AcDbPolyline
 90
       13
 70
   128
 43
0.0
 10
892.8861551212
 20
137.8743195699
 10
892.9103307651
 20
137.7445483373
 10
892.9295711444
 20
137.406995313
 10
892.8860835956
 20
137.0681667493
 10
892.7798204349
 20
136.7378497289
 10
892.6141672061
 20
136.4274406598
 10
892.3947982715
 20
136.1458802388
 10
892.1284131931
 20
135.9000826047
 10
891.8222598956
 20
135.6955790685
 10
891.4841585086
 20
135.5369949506
 10
891.1226444171
 20
135.4279899762
 10
890.7469205783
 20
135.3710675405
 10
890.5306987689
 20
135.3624367879
  0
LWPOLYLINE
  5
1BD
330
1F
100
AcDbEntity
  8
0
  6
Continuous
 62
     7
370
    15
100
AcDbPolyline
 90
       18
 70
   128
 43
0.0
 10
890.5306987689
 20
132.1624303029
 10
890.8923797534
 20
132.1735048459
 10
891.486948006
 20
132.2403216527
 10
892.0712404178
 20
132.3670530484
 10
892.6382474826
 20
132.5523519681
 10
893.1813888477
 20
132.7942156957
 10
893.6942510532
 20
133.0899143384
 10
894.1708259509
 20
133.4360265897
 10
894.6054630206
 20
133.8285231755
 10
894.9931316302
 20
134.2627310918
 10
895.3293018268
 20
134.7334647344
 10
895.6101827548
 20
135.2351212667
 10
895.8326988147
 20
135.7617283032
 10
895.9945135043
 20
136.3071108029
 10
896.094077103
 20
136.8649506734
 10
896.1305074619
 20
137.4288702176
 10
896.1036853717
 20
137.9925632642
 10
896.0093908237
 20
138.5710382627
  0
LINE
  5
1BE
330
1F
100
AcDbEntity
  8
0
  6
Continuous
 62
     7
370
    15
100
AcDbLine
 10
882.9409294055
 20
182.45638849
 30
0.0
 11
892.8861551212
 21
137.8743195699
 31
0.0
  0
LINE
  5
1BF
330
1F
100
AcDbEntity
  8
0
  6
Continuous
 62
     7
370
    15
100
AcDbLine
 10
896.0093908237
 20
138.5710382627
 30
0.0
 11
886.064165108
 21
183.1531071828
 31
0.0
  0
LINE
  5
1C0
330
1F
100
AcDbEntity
  8
0
  6
Continuous
 62
     7
370
    15
100
AcDbLine
 10
748.7993411945
 20
137.8743195699
 30
0.0
 11
758.7445669101
 21
182.45638849
 31
0.0
  0
LINE
  5
1C1
330
1F
100
AcDbEntity
  8
0
  6
Continuous
 62
     7
370
    15
100
AcDbLine
 10
755.6213312076
 20
183.1531071828
 30
0.0
 11
745.6761054919
 21
138.5710382627
 31
0.0
  0
ARC
  5
1C2
330
1F
100
AcDbEntity
  8
0
  6
Continuous
 62
     7
370
    15
100
AcDbCircle
 10
761.0031175744
 20
181.8171644007
 30
0.0
 40
2.347266184203275
100
AcDbArc
 50
87.6333180229
 51
164.1972127228
  0
ARC
  5
1C3
330
1F
100
AcDbEntity
  8
0
  6
Continuous
 62
     7
370
    15
100
AcDbCircle
 10
760.7589366031
 20
181.9811015742
 30
0.0
 40
5.269590719036047
100
AcDbArc
 50
122.9753447704
 51
167.1494218775
  0
ARC
  5
1C4
330
1F
100
AcDbEntity
  8
0
  6
Continuous
 62
     7
370
    15
100
AcDbCircle
 10
880.6863635175
 20
181.8226660666
 30
0.0
 40
2.341937542534228
100
AcDbArc
 50
15.6998241389
 51
92.4696451154
  0
ARC
  5
1C5
330
1F
100
AcDbEntity
  8
0
  6
Continuous
 62
     7
370
    15
100
AcDbCircle
 10
880.9619824616
 20
181.9976846789
 30
0.0
 40
5.231373521331217
100
AcDbArc
 50
12.7597896726
 51
56.757271816
  0
LINE
  5
1C6
330
1F
100
AcDbEntity
  8
0
  6
Continuous
 62
     7
370
    15
100
AcDbLine
 10
772.4427394794
 20
184.1624283956
 30
0.0
 11
820.8734922336
 21
184.1624283956
 31
0.0
  0
LINE
  5
1C7
330
1F
100
AcDbEntity
  8
0
  6
Continuous
 62
     7
370
    15
100
AcDbLine
 10
761.1000471042
 20
184.1624283956
 30
0.0
 11
772.4427394794
 21
184.1624283956
 31
0.0
  0
LINE
  5
1C8
330
1F
100
AcDbEntity
  8
0
  6
Continuous
 62
     7
370
    15
100
AcDbLine
 10
869.2427568362
 20
184.1624283956
 30
0.0
 11
880.5854492114
 21
184.1624283956
 31
0.0
  0
LINE
  5
1C9
330
1F
100
AcDbEntity
  8
0
  6
Continuous
 62
     7
370
    15
100
AcDbLine
 10
820.812004082
 20
184.1624283956
 30
0.0
 11
869.2427568362
 21
184.1624283956
 31
0.0
  0
ARC
  5
1CA
330
1F
100
AcDbEntity
  8
0
  6
Continuous
 62
     7
370
    15
100
AcDbCircle
 10
753.9987941782
 20
271.8539505049
 30
0.0
 40
1.999999999999999
100
AcDbArc
 50
89.9620270861
 51
183.2750680322
  0
ARC
  5
1CB
330
1F
100
AcDbEntity
  8
0
  6
Continuous
 62
     7
370
    15
100
AcDbCircle
 10
884.0297460323
 20
270.8539505049
 30
0.0
 40
3.0
100
AcDbArc
 50
0.0
 51
90.0
  0
LINE
  5
1CC
330
1F
100
AcDbEntity
  8
0
  6
Continuous
 62
     7
370
    15
100
AcDbLine
 10
884.0297393726
 20
273.8539600537
 30
0.0
 11
753.9987974094
 21
273.8539600537
 31
0.0
  0
LWPOLYLINE
  5
1CD
330
1F
100
AcDbEntity
  8
0
  6
Continuous
 62
     7
370
    15
100
AcDbPolyline
 90
        5
 70
   128
 43
0.0
 10
753.3477954791
 20
248.2223653958
 10
753.0927591251
 20
252.679123895
 10
752.8375320361
 20
257.1393633054
 10
752.5823526309
 20
261.5987444089
 10
752.3274831699
 20
266.0528564618
  0
LINE
  5
1CE
330
1F
100
AcDbEntity
  8
0
  6
Continuous
 62
     7
370
    15
100
AcDbLine
 10
887.0297365115
 20
266.0981559918
 30
0.0
 11
887.0297365115
 21
248.3930730985
 31
0.0
  0
LINE
  5
1CF
330
1F
100
AcDbEntity
  8
0
  6
Continuous
 62
     7
370
    15
100
AcDbLine
 10
887.0297365115
 20
248.3930730985
 30
0.0
 11
887.0297365115
 21
245.5624246762
 31
0.0
  0
ARC
  5
1D0
330
1F
100
AcDbEntity
  8
0
  6
Continuous
 62
     7
370
    15
100
AcDbCircle
 10
884.0297460323
 20
245.5624333481
 30
0.0
 40
3.0
100
AcDbArc
 50
270.0
 51
0.0
  0
LWPOLYLINE
  5
1D1
330
1F
100
AcDbEntity
  8
0
  6
Continuous
 62
     7
370
    15
100
AcDbPolyline
 90
       12
 70
   128
 43
0.0
 10
753.5637550281
 20
244.4481754468
 10
753.5616092609
 20
244.4860124753
 10
753.5551481174
 20
244.5988321469
 10
753.5445146487
 20
244.7844886945
 10
753.5299234317
 20
245.039453523
 10
753.5116367267
 20
245.358934419
 10
753.4900121616
 20
245.7368517087
 10
753.4654550479
 20
246.1660766767
 10
753.438418381
 20
246.6385030912
 10
753.4094266818
 20
247.1451425717
 10
753.379028313
 20
247.6764583753
 10
753.3477954791
 20
248.2223653958
  0
ARC
  5
1D2
330
1F
100
AcDbEntity
  8
0
  6
Continuous
 62
     7
370
    15
100
AcDbCircle
 10
755.5604982068
 20
244.5624333481
 30
0.0
 40
2.000000000000139
100
AcDbArc
 50
183.2750680322
 51
270.0
  0
LINE
  5
1D3
330
1F
100
AcDbEntity
  8
0
  6
Continuous
 62
     7
370
    15
100
AcDbLine
 10
884.0297393726
 20
242.5624275373
 30
0.0
 11
755.5604867862
 21
242.5624275373
 31
0.0
  0
LWPOLYLINE
  5
1D4
330
1F
100
AcDbEntity
  8
0
  6
Continuous
 62
     7
370
    15
100
AcDbPolyline
 90
        9
 70
   128
 43
0.0
 10
752.3274831699
 20
266.0528564618
 10
752.2939138339
 20
266.6393184827
 10
752.2614412234
 20
267.2068739102
 10
752.2307567523
 20
267.7430534528
 10
752.2025518344
 20
268.2360792325
 10
752.1774225162
 20
268.6751508878
 10
752.1559410022
 20
269.0506124662
 10
752.1385602878
 20
269.3542623685
 10
752.1256856845
 20
269.5794010327
  0
LINE
  5
1D5
330
1F
100
AcDbEntity
  8
0
  6
Continuous
 62
     7
370
    15
100
AcDbLine
 10
887.0297365115
 20
268.743076341
 30
0.0
 11
887.0297365115
 21
266.0981559918
 31
0.0
  0
LWPOLYLINE
  5
1D6
330
1F
100
AcDbEntity
  8
0
  6
Continuous
 62
     7
370
    15
100
AcDbPolyline
 90
        9
 70
   128
 43
0.0
 10
752.1256856845
 20
269.5794010327
 10
752.0947389529
 20
270.1202535794
 10
752.0681552814
 20
270.5845499204
 10
752.0460300372
 20
270.9714555905
 10
752.0283393787
 20
271.2802791761
 10
752.0151786731
 20
271.5104246305
 10
752.0065240787
 20
271.661510484
 10
752.0024232791
 20
271.7332506345
 10
752.0020656512
 20
271.7396879361
  0
LINE
  5
1D7
330
1F
100
AcDbEntity
  8
0
  6
Continuous
 62
     7
370
    15
100
AcDbLine
 10
887.0297365115
 20
270.8539390729
 30
0.0
 11
887.0297365115
 21
268.743076341
 31
0.0
  0
LINE
  5
1D8
330
1F
100
AcDbEntity
  8
0
  6
Continuous
 62
     7
370
    15
100
AcDbLine
 10
882.2297506259
 20
242.5624275373
 30
0.0
 11
882.2297506259
 21
240.4630565808
 31
0.0
  0
LWPOLYLINE
  5
1D9
330
1F
100
AcDbEntity
  8
0
  6
Continuous
 62
     7
370
    15
100
AcDbPolyline
 90
       11
 70
   128
 43
0.0
 10
753.7639789508
 20
240.9492397473
 10
753.73021888
 20
241.5393495725
 10
753.6983661578
 20
242.096009271
 10
753.6689453052
 20
242.6103019879
 10
753.6424093173
 20
243.0739784406
 10
753.6191873477
 20
243.4796238111
 10
753.5996608661
 20
243.8207769559
 10
753.5841398166
 20
244.0919304059
 10
753.5728864597
 20
244.2887926267
 10
753.5660438464
 20
244.4081688092
 10
753.5637550281
 20
244.4481754468
  0
LINE
  5
1DA
330
1F
100
AcDbEntity
  8
0
  6
Continuous
 62
     7
370
    15
100
AcDbLine
 10
756.7110471652
 20
189.4477510617
 30
0.0
 11
753.7639789508
 21
240.9492397473
 31
0.0
  0
LINE
  5
1DB
330
1F
100
AcDbEntity
  8
0
  6
Continuous
 62
     7
370
    15
100
AcDbLine
 10
882.2297506259
 20
240.4630565808
 30
0.0
 11
882.2297506259
 21
188.9615917371
 31
0.0
  0
LINE
  5
1DC
330
1F
100
AcDbEntity
  8
0
  6
Continuous
 62
     7
370
    15
100
AcDbLine
 10
887.0297365115
 20
245.5624246762
 30
0.0
 11
887.0297365115
 21
189.1624355481
 31
0.0
  0
ARC
  5
1DD
330
1F
100
AcDbEntity
  8
0
  6
Continuous
 62
     7
370
    15
100
AcDbCircle
 10
758.7878785942
 20
188.1624333481
 30
0.0
 40
2.000000000000025
100
AcDbArc
 50
183.2750680322
 51
242.9519870163
  0
LWPOLYLINE
  5
1DE
330
1F
100
AcDbEntity
  8
0
  6
Continuous
 62
     7
370
    15
100
AcDbPolyline
 90
        8
 70
   128
 43
0.0
 10
756.7911558078
 20
188.0481743978
 10
756.789272301
 20
188.0807900594
 10
756.78374099
 20
188.1775641606
 10
756.7747049258
 20
188.3353495763
 10
756.7624978946
 20
188.549008386
 10
756.7474536822
 20
188.8115430043
 10
756.7301206515
 20
189.1144180463
 10
756.7110471652
 20
189.4477510617
  0
LINE
  5
1DF
330
1F
100
AcDbEntity
  8
0
  6
Continuous
 62
     7
370
    15
100
AcDbLine
 10
882.2297506259
 20
188.9615917371
 30
0.0
 11
882.2297506259
 21
186.3162660764
 31
0.0
  0
ARC
  5
1E0
330
1F
100
AcDbEntity
  8
0
  6
Continuous
 62
     7
370
    15
100
AcDbCircle
 10
884.0297460323
 20
189.1624333481
 30
0.0
 40
3.00000000000001
100
AcDbArc
 50
271.7470027024
 51
0.0
  0
LINE
  5
1E1
330
1F
100
AcDbEntity
  8
0
  6
Continuous
 62
     7
370
    15
100
AcDbLine
 10
752.0020656512
 20
271.7396879361
 30
0.0
 11
751.0618381427
 21
288.1706857846
 31
0.0
  0
LINE
  5
1E2
330
1F
100
AcDbEntity
  8
0
  6
Continuous
 62
     7
370
    15
100
AcDbLine
 10
773.8513164447
 20
287.5898742841
 30
0.0
 11
775.568311684
 21
273.8539600537
 31
0.0
  0
ARC
  5
1E3
330
1F
100
AcDbEntity
  8
0
  6
Continuous
 62
     7
370
    15
100
AcDbCircle
 10
754.9543986318
 20
290.1624333481
 30
0.0
 40
4.0
100
AcDbArc
 50
90.0
 51
183.2750680322
  0
LWPOLYLINE
  5
1E4
330
1F
100
AcDbEntity
  8
0
  6
Continuous
 62
     7
370
    15
100
AcDbPolyline
 90
        8
 70
   128
 43
0.0
 10
751.0618381427
 20
288.1706857846
 10
751.0366611407
 20
288.6104488538
 10
751.0144882129
 20
288.9980936215
 10
750.9957008289
 20
289.3261099027
 10
750.9807281421
 20
289.5881080793
 10
750.9698085712
 20
289.7789621518
 10
750.9631566928
 20
289.8949766324
 10
750.9609394
 20
289.9339103864
  0
LINE
  5
1E5
330
1F
100
AcDbEntity
  8
0
  6
Continuous
 62
     7
370
    15
100
AcDbLine
 10
754.9544029163
 20
294.1624307798
 30
0.0
 11
766.8502740787
 21
294.1624307798
 31
0.0
  0
ARC
  5
1E6
330
1F
100
AcDbEntity
  8
0
  6
Continuous
 62
     7
370
    15
100
AcDbCircle
 10
766.8502705025
 20
287.1624333481
 30
0.0
 40
7.0
100
AcDbArc
 50
7.1250163489
 51
90.0
  0
LWPOLYLINE
  5
1E7
330
1F
100
AcDbEntity
  8
0
  6
Continuous
 62
     7
370
    15
100
AcDbPolyline
 90
        6
 70
   128
 43
0.0
 10
773.7962179111
 20
288.030686395
 10
773.7986020969
 20
288.0116367505
 10
773.8056592868
 20
287.9552269147
 10
773.8171033786
 20
287.8636026548
 10
773.8325290607
 20
287.7402448819
 10
773.8513164447
 20
287.5898742841
  0
LINE
  5
1E8
330
1F
100
AcDbEntity
  8
0
  6
Continuous
 62
     7
370
    15
100
AcDbLine
 10
883.8297538684
 20
242.5624275373
 30
0.0
 11
883.8297538684
 21
240.4630565808
 31
0.0
  0
LINE
  5
1E9
330
1F
100
AcDbEntity
  8
0
  6
Continuous
 62
     7
370
    15
100
AcDbLine
 10
883.8297538684
 20
240.4630565808
 30
0.0
 11
883.8297538684
 21
188.9615917371
 31
0.0
  0
LINE
  5
1EA
330
1F
100
AcDbEntity
  8
0
  6
Continuous
 62
     7
370
    15
100
AcDbLine
 10
883.8297538684
 20
188.9615917371
 30
0.0
 11
883.8297538684
 21
186.2080240415
 31
0.0
  0
ENDSEC
  0
SECTION
  2
OBJECTS
  0
DICTIONARY
  5
C
330
0
100
AcDbDictionary
281
     1
  3
ACAD_GROUP
350
D
  3
ACAD_LAYOUT
350
1A
  3
ACAD_MLINESTYLE
350
17
  3
ACAD_PLOTSETTINGS
350
19
  3
ACAD_PLOTSTYLENAME
350
E
  3
ACAD_SCALELIST
350
47
  0
DICTIONARY
  5
D
102
{ACAD_REACTORS
330
C
102
}
330
C
100
AcDbDictionary
281
     1
  0
DICTIONARY
  5
1A
102
{ACAD_REACTORS
330
C
102
}
330
C
100
AcDbDictionary
281
     1
  3
Layout1
350
1E
  3
Layout2
350
26
  3
Model
350
22
  0
DICTIONARY
  5
17
102
{ACAD_REACTORS
330
C
102
}
330
C
100
AcDbDictionary
281
     1
  3
Standard
350
18
  0
DICTIONARY
  5
19
102
{ACAD_REACTORS
330
C
102
}
330
C
100
AcDbDictionary
281
     1
  0
ACDBDICTIONARYWDFLT
  5
E
102
{ACAD_REACTORS
330
C
102
}
330
C
100
AcDbDictionary
281
     1
  3
Normal
350
F
100
AcDbDictionaryWithDefault
340
F
  0
DICTIONARY
  5
47
102
{ACAD_REACTORS
330
C
102
}
330
C
100
AcDbDictionary
281
     1
  3
A0
350
48
  3
A1
350
49
  3
A2
350
4A
  3
A3
350
4B
  3
A4
350
4C
  3
A5
350
4D
  3
A6
350
4E
  3
A7
350
4F
  3
A8
350
50
  3
A9
350
51
  3
B0
350
52
  3
B1
350
53
  3
B2
350
54
  3
B3
350
55
  3
B4
350
56
  3
B5
350
57
  3
B6
350
58
  3
B7
350
59
  3
B8
350
5A
  3
B9
350
5B
  3
C0
350
5C
  3
C1
350
5D
  3
C2
350
5E
  3
C3
350
5F
  3
C4
350
60
  3
C5
350
61
  3
C6
350
62
  3
C7
350
63
  3
C8
350
64
  3
C9
350
65
  3
D0
350
66
  3
D1
350
67
  3
D2
350
68
  0
LAYOUT
  5
1E
102
{ACAD_REACTORS
330
1A
102
}
330
1A
100
AcDbPlotSettings
  1

  2
none_device
  4

  6

 40
0.0
 41
0.0
 42
0.0
 43
0.0
 44
0.0
 45
0.0
 46
0.0
 47
0.0
 48
0.0
 49
0.0
140
0.0
141
0.0
142
1.0
143
1.0
 70
   688
 72
     1
 73
     0
 74
     5
  7

 75
    16
147
1.0
148
0.0
149
0.0
100
AcDbLayout
  1
Layout1
 70
     1
 71
     1
 10
0.0
 20
0.0
 11
420.0
 21
297.0
 12
0.0
 22
0.0
 32
0.0
 14
1.0000000000E+20
 24
1.0000000000E+20
 34
1.0000000000E+20
 15
-1.0000000000E+20
 25
-1.0000000000E+20
 35
-1.0000000000E+20
146
0.0
 13
0.0
 23
0.0
 33
0.0
 16
1.0
 26
0.0
 36
0.0
 17
0.0
 27
1.0
 37
0.0
 76
     0
330
1B
  0
LAYOUT
  5
26
102
{ACAD_REACTORS
330
1A
102
}
330
1A
100
AcDbPlotSettings
  1

  2
none_device
  4

  6

 40
0.0
 41
0.0
 42
0.0
 43
0.0
 44
0.0
 45
0.0
 46
0.0
 47
0.0
 48
0.0
 49
0.0
140
0.0
141
0.0
142
1.0
143
1.0
 70
   688
 72
     1
 73
     0
 74
     5
  7

 75
    16
147
1.0
148
0.0
149
0.0
100
AcDbLayout
  1
Layout2
 70
     1
 71
     2
 10
0.0
 20
0.0
 11
0.0
 21
0.0
 12
0.0
 22
0.0
 32
0.0
 14
0.0
 24
0.0
 34
0.0
 15
0.0
 25
0.0
 35
0.0
146
0.0
 13
0.0
 23
0.0
 33
0.0
 16
1.0
 26
0.0
 36
0.0
 17
0.0
 27
1.0
 37
0.0
 76
     0
330
23
  0
LAYOUT
  5
22
102
{ACAD_REACTORS
330
1A
102
}
330
1A
100
AcDbPlotSettings
  1

  2
none_device
  4
Letter_(8.50_x_11.00_Inches)
  6

 40
6.35
 41
6.35
 42
6.35000508
 43
6.35000508
 44
215.9
 45
279.4
 46
0.0
 47
0.0
 48
0.0
 49
0.0
140
0.0
141
0.0
142
1.0
143
1.0
 70
  1712
 72
     1
 73
     0
 74
     0
  7

 75
     0
147
1.0
148
0.0
149
0.0
100
AcDbLayout
  1
Model
 70
     1
 71
     0
 10
0.0
 20
0.0
 11
1189.0
 21
841.0
 12
0.0
 22
0.0
 32
0.0
 14
0.0
 24
0.0
 34
0.0
 15
1189.0
 25
841.0
 35
0.0
146
0.0
 13
0.0
 23
0.0
 33
0.0
 16
1.0
 26
0.0
 36
0.0
 17
0.0
 27
1.0
 37
0.0
 76
     0
330
1F
331
29
  0
MLINESTYLE
  5
18
102
{ACAD_REACTORS
330
17
102
}
330
17
100
AcDbMlineStyle
  2
Standard
 70
     0
  3

 62
   256
 51
90.0
 52
90.0
 71
     2
 49
0.5
 62
   256
  6
BYLAYER
 49
-0.5
 62
   256
  6
BYLAYER
  0
ACDBPLACEHOLDER
  5
F
102
{ACAD_REACTORS
330
E
102
}
330
E
  0
SCALE
  5
48
102
{ACAD_REACTORS
330
47
102
}
330
47
100
AcDbScale
 70
     0
300
1:1
140
1.0
141
1.0
290
     1
  0
SCALE
  5
49
102
{ACAD_REACTORS
330
47
102
}
330
47
100
AcDbScale
 70
     0
300
1:2
140
1.0
141
2.0
290
     0
  0
SCALE
  5
4A
102
{ACAD_REACTORS
330
47
102
}
330
47
100
AcDbScale
 70
     0
300
1:4
140
1.0
141
4.0
290
     0
  0
SCALE
  5
4B
102
{ACAD_REACTORS
330
47
102
}
330
47
100
AcDbScale
 70
     0
300
1:5
140
1.0
141
5.0
290
     0
  0
SCALE
  5
4C
102
{ACAD_REACTORS
330
47
102
}
330
47
100
AcDbScale
 70
     0
300
1:8
140
1.0
141
8.0
290
     0
  0
SCALE
  5
4D
102
{ACAD_REACTORS
330
47
102
}
330
47
100
AcDbScale
 70
     0
300
1:10
140
1.0
141
10.0
290
     0
  0
SCALE
  5
4E
102
{ACAD_REACTORS
330
47
102
}
330
47
100
AcDbScale
 70
     0
300
1:16
140
1.0
141
16.0
290
     0
  0
SCALE
  5
4F
102
{ACAD_REACTORS
330
47
102
}
330
47
100
AcDbScale
 70
     0
300
1:20
140
1.0
141
20.0
290
     0
  0
SCALE
  5
50
102
{ACAD_REACTORS
330
47
102
}
330
47
100
AcDbScale
 70
     0
300
1:30
140
1.0
141
30.0
290
     0
  0
SCALE
  5
51
102
{ACAD_REACTORS
330
47
102
}
330
47
100
AcDbScale
 70
     0
300
1:40
140
1.0
141
40.0
290
     0
  0
SCALE
  5
52
102
{ACAD_REACTORS
330
47
102
}
330
47
100
AcDbScale
 70
     0
300
1:50
140
1.0
141
50.0
290
     0
  0
SCALE
  5
53
102
{ACAD_REACTORS
330
47
102
}
330
47
100
AcDbScale
 70
     0
300
1:100
140
1.0
141
100.0
290
     0
  0
SCALE
  5
54
102
{ACAD_REACTORS
330
47
102
}
330
47
100
AcDbScale
 70
     0
300
2:1
140
2.0
141
1.0
290
     0
  0
SCALE
  5
55
102
{ACAD_REACTORS
330
47
102
}
330
47
100
AcDbScale
 70
     0
300
4:1
140
4.0
141
1.0
290
     0
  0
SCALE
  5
56
102
{ACAD_REACTORS
330
47
102
}
330
47
100
AcDbScale
 70
     0
300
8:1
140
8.0
141
1.0
290
     0
  0
SCALE
  5
57
102
{ACAD_REACTORS
330
47
102
}
330
47
100
AcDbScale
 70
     0
300
10:1
140
10.0
141
1.0
290
     0
  0
SCALE
  5
58
102
{ACAD_REACTORS
330
47
102
}
330
47
100
AcDbScale
 70
     0
300
100:1
140
100.0
141
1.0
290
     0
  0
SCALE
  5
59
102
{ACAD_REACTORS
330
47
102
}
330
47
100
AcDbScale
 70
     0
300
1/128" = 1'-0"
140
0.0078125
141
12.0
290
     0
  0
SCALE
  5
5A
102
{ACAD_REACTORS
330
47
102
}
330
47
100
AcDbScale
 70
     0
300
1/64" = 1'-0"
140
0.015625
141
12.0
290
     0
  0
SCALE
  5
5B
102
{ACAD_REACTORS
330
47
102
}
330
47
100
AcDbScale
 70
     0
300
1/32" = 1'-0"
140
0.03125
141
12.0
290
     0
  0
SCALE
  5
5C
102
{ACAD_REACTORS
330
47
102
}
330
47
100
AcDbScale
 70
     0
300
1/16" = 1'-0"
140
0.0625
141
12.0
290
     0
  0
SCALE
  5
5D
102
{ACAD_REACTORS
330
47
102
}
330
47
100
AcDbScale
 70
     0
300
3/32" = 1'-0"
140
0.09375
141
12.0
290
     0
  0
SCALE
  5
5E
102
{ACAD_REACTORS
330
47
102
}
330
47
100
AcDbScale
 70
     0
300
1/8" = 1'-0"
140
0.125
141
12.0
290
     0
  0
SCALE
  5
5F
102
{ACAD_REACTORS
330
47
102
}
330
47
100
AcDbScale
 70
     0
300
3/16" = 1'-0"
140
0.1875
141
12.0
290
     0
  0
SCALE
  5
60
102
{ACAD_REACTORS
330
47
102
}
330
47
100
AcDbScale
 70
     0
300
1/4" = 1'-0"
140
0.25
141
12.0
290
     0
  0
SCALE
  5
61
102
{ACAD_REACTORS
330
47
102
}
330
47
100
AcDbScale
 70
     0
300
3/8" = 1'-0"
140
0.375
141
12.0
290
     0
  0
SCALE
  5
62
102
{ACAD_REACTORS
330
47
102
}
330
47
100
AcDbScale
 70
     0
300
1/2" = 1'-0"
140
0.5
141
12.0
290
     0
  0
SCALE
  5
63
102
{ACAD_REACTORS
330
47
102
}
330
47
100
AcDbScale
 70
     0
300
3/4" = 1'-0"
140
0.75
141
12.0
290
     0
  0
SCALE
  5
64
102
{ACAD_REACTORS
330
47
102
}
330
47
100
AcDbScale
 70
     0
300
1" = 1'-0"
140
1.0
141
12.0
290
     0
  0
SCALE
  5
65
102
{ACAD_REACTORS
330
47
102
}
330
47
100
AcDbScale
 70
     0
300
1-1/2" = 1'-0"
140
1.5
141
12.0
290
     0
  0
SCALE
  5
66
102
{ACAD_REACTORS
330
47
102
}
330
47
100
AcDbScale
 70
     0
300
3" = 1'-0"
140
3.0
141
12.0
290
     0
  0
SCALE
  5
67
102
{ACAD_REACTORS
330
47
102
}
330
47
100
AcDbScale
 70
     0
300
6" = 1'-0"
140
6.0
141
12.0
290
     0
  0
SCALE
  5
68
102
{ACAD_REACTORS
330
47
102
}
330
47
100
AcDbScale
 70
     0
300
1'-0" = 1'-0"
140
12.0
141
12.0
290
     0
  0
ENDSEC
  0
EOF
