  0
SECTION
  2
HEADER
  9
$ACADVER
  1
AC1015
  9
$ACADMAINTVER
 70
     6
  9
$DWGCODEPAGE
  3
ANSI_1252
  9
$INSBASE
 10
0.0
 20
0.0
 30
0.0
  9
$EXTMIN
 10
0.0
 20
0.0
 30
0.0
  9
$EXTMAX
 10
2000.0
 20
2000.0
 30
0.0
  9
$LIMMIN
 10
0.0
 20
0.0
  9
$LIMMAX
 10
2000.0
 20
2000.0
  9
$ORTHOMODE
 70
     0
  9
$REGENMODE
 70
     1
  9
$FILLMODE
 70
     1
  9
$QTEXTMODE
 70
     0
  9
$MIRRTEXT
 70
     1
  9
$LTSCALE
 40
1.0
  9
$ATTMODE
 70
     1
  9
$TEXTSIZE
 40
3.5
  9
$TRACEWID
 40
1.0
  9
$TEXTSTYLE
  7
Standard
  9
$CLAYER
  8
0
  9
$CELTYPE
  6
ByLayer
  9
$CECOLOR
 62
   256
  9
$CELTSCALE
 40
1.0
  9
$DISPSILH
 70
     0
  9
$DIMSCALE
 40
1.0
  9
$DIMASZ
 40
3.556
  9
$DIMEXO
 40
1.0
  9
$DIMDLI
 40
3.75
  9
$DIMRND
 40
0.0
  9
$DIMDLE
 40
0.0
  9
$DIMEXE
 40
1.0
  9
$DIMTP
 40
0.0
  9
$DIMTM
 40
0.0
  9
$DIMTXT
 40
3.5
  9
$DIMCEN
 40
2.5
  9
$DIMTSZ
 40
0.0
  9
$DIMTOL
 70
     0
  9
$DIMLIM
 70
     0
  9
$DIMTIH
 70
     1
  9
$DIMTOH
 70
     1
  9
$DIMSE1
 70
     0
  9
$DIMSE2
 70
     0
  9
$DIMTAD
 70
     1
  9
$DIMZIN
 70
     0
  9
$DIMBLK
  1

  9
$DIMASO
 70
     1
  9
$DIMSHO
 70
     1
  9
$DIMPOST
  1

  9
$DIMAPOST
  1

  9
$DIMALT
 70
     0
  9
$DIMALTD
 70
     3
  9
$DIMALTF
 40
0.0393700787
  9
$DIMLFAC
 40
1.0
  9
$DIMTOFL
 70
     1
  9
$DIMTVP
 40
0.0
  9
$DIMTIX
 70
     0
  9
$DIMSOXD
 70
     0
  9
$DIMSAH
 70
     0
  9
$DIMBLK1
  1

  9
$DIMBLK2
  1

  9
$DIMSTYLE
  2
ISO-25
  9
$DIMCLRD
 70
     0
  9
$DIMCLRE
 70
     0
  9
$DIMCLRT
 70
     0
  9
$DIMTFAC
 40
1.0
  9
$DIMGAP
 40
1.524
  9
$DIMJUST
 70
     0
  9
$DIMSD1
 70
     0
  9
$DIMSD2
 70
     0
  9
$DIMTOLJ
 70
     0
  9
$DIMTZIN
 70
     0
  9
$DIMALTZ
 70
     0
  9
$DIMALTTZ
 70
     0
  9
$DIMUPT
 70
     0
  9
$DIMDEC
 70
     2
  9
$DIMTDEC
 70
     2
  9
$DIMALTU
 70
     2
  9
$DIMALTTD
 70
     3
  9
$DIMTXSTY
  7
Standard
  9
$DIMAUNIT
 70
     0
  9
$DIMADEC
 70
     2
  9
$DIMALTRND
 40
0.0
  9
$DIMAZIN
 70
     0
  9
$DIMDSEP
 70
    44
  9
$DIMATFIT
 70
     3
  9
$DIMFRAC
 70
     0
  9
$DIMLDRBLK
  1

  9
$DIMLUNIT
 70
     2
  9
$DIMLWD
 70
    -2
  9
$DIMLWE
 70
    -2
  9
$DIMTMOVE
 70
     0
  9
$LUNITS
 70
     2
  9
$LUPREC
 70
     2
  9
$SKETCHINC
 40
1.0
  9
$FILLETRAD
 40
10.0
  9
$AUNITS
 70
     0
  9
$AUPREC
 70
     2
  9
$MENU
  1
.
  9
$ELEVATION
 40
0.0
  9
$PELEVATION
 40
0.0
  9
$THICKNESS
 40
0.0
  9
$LIMCHECK
 70
     0
  9
$CHAMFERA
 40
0.0
  9
$CHAMFERB
 40
0.0
  9
$CHAMFERC
 40
0.0
  9
$CHAMFERD
 40
0.0
  9
$SKPOLY
 70
     0
  9
$TDCREATE
 40
2458395.422339468
  9
$TDUCREATE
 40
2458395.380672801
  9
$TDUPDATE
 40
2458395.42234081
  9
$TDUUPDATE
 40
2458395.380674143
  9
$TDINDWG
 40
0.0000000116
  9
$TDUSRTIMER
 40
0.0000000116
  9
$USRTIMER
 70
     1
  9
$ANGBASE
 50
0.0
  9
$ANGDIR
 70
     0
  9
$PDMODE
 70
     0
  9
$PDSIZE
 40
-1.0
  9
$PLINEWID
 40
0.0
  9
$SPLFRAME
 70
     0
  9
$SPLINETYPE
 70
     6
  9
$SPLINESEGS
 70
     8
  9
$HANDSEED
  5
29F
  9
$SURFTAB1
 70
     6
  9
$SURFTAB2
 70
     6
  9
$SURFTYPE
 70
     6
  9
$SURFU
 70
     6
  9
$SURFV
 70
     6
  9
$UCSBASE
  2

  9
$UCSNAME
  2

  9
$UCSORG
 10
0.0
 20
0.0
 30
0.0
  9
$UCSXDIR
 10
1.0
 20
0.0
 30
0.0
  9
$UCSYDIR
 10
0.0
 20
1.0
 30
0.0
  9
$UCSORTHOREF
  2

  9
$UCSORTHOVIEW
 70
     0
  9
$UCSORGTOP
 10
0.0
 20
0.0
 30
0.0
  9
$UCSORGBOTTOM
 10
0.0
 20
0.0
 30
0.0
  9
$UCSORGLEFT
 10
0.0
 20
0.0
 30
0.0
  9
$UCSORGRIGHT
 10
0.0
 20
0.0
 30
0.0
  9
$UCSORGFRONT
 10
0.0
 20
0.0
 30
0.0
  9
$UCSORGBACK
 10
0.0
 20
0.0
 30
0.0
  9
$PUCSBASE
  2

  9
$PUCSNAME
  2

  9
$PUCSORG
 10
0.0
 20
0.0
 30
0.0
  9
$PUCSXDIR
 10
1.0
 20
0.0
 30
0.0
  9
$PUCSYDIR
 10
0.0
 20
1.0
 30
0.0
  9
$PUCSORTHOREF
  2

  9
$PUCSORTHOVIEW
 70
     0
  9
$PUCSORGTOP
 10
0.0
 20
0.0
 30
0.0
  9
$PUCSORGBOTTOM
 10
0.0
 20
0.0
 30
0.0
  9
$PUCSORGLEFT
 10
0.0
 20
0.0
 30
0.0
  9
$PUCSORGRIGHT
 10
0.0
 20
0.0
 30
0.0
  9
$PUCSORGFRONT
 10
0.0
 20
0.0
 30
0.0
  9
$PUCSORGBACK
 10
0.0
 20
0.0
 30
0.0
  9
$USERI1
 70
     0
  9
$USERI2
 70
     0
  9
$USERI3
 70
     0
  9
$USERI4
 70
     0
  9
$USERI5
 70
     0
  9
$USERR1
 40
0.0
  9
$USERR2
 40
0.0
  9
$USERR3
 40
0.0
  9
$USERR4
 40
0.0
  9
$USERR5
 40
0.0
  9
$WORLDVIEW
 70
     1
  9
$SHADEDGE
 70
     3
  9
$SHADEDIF
 70
    70
  9
$TILEMODE
 70
     1
  9
$MAXACTVP
 70
    64
  9
$PINSBASE
 10
0.0
 20
0.0
 30
0.0
  9
$PLIMCHECK
 70
     0
  9
$PEXTMIN
 10
1.0000000000E+20
 20
1.0000000000E+20
 30
1.0000000000E+20
  9
$PEXTMAX
 10
-1.0000000000E+20
 20
-1.0000000000E+20
 30
-1.0000000000E+20
  9
$PLIMMIN
 10
0.0
 20
0.0
  9
$PLIMMAX
 10
420.0
 20
297.0
  9
$UNITMODE
 70
     0
  9
$VISRETAIN
 70
     1
  9
$PLINEGEN
 70
     0
  9
$PSLTSCALE
 70
     1
  9
$TREEDEPTH
 70
  3020
  9
$CMLSTYLE
  2
Standard
  9
$CMLJUST
 70
     0
  9
$CMLSCALE
 40
20.0
  9
$PROXYGRAPHICS
 70
     1
  9
$MEASUREMENT
 70
     1
  9
$CELWEIGHT
370
    -1
  9
$ENDCAPS
280
     0
  9
$JOINSTYLE
280
     0
  9
$LWDISPLAY
290
     1
  9
$INSUNITS
 70
     4
  9
$HYPERLINKBASE
  1

  9
$STYLESHEET
  1

  9
$XEDIT
290
     1
  9
$CEPSNTYPE
380
     0
  9
$PSTYLEMODE
290
     1
  9
$FINGERPRINTGUID
  2
{B39B00C1-3ED3-4D9E-B6B8-BA08183F3BAF}
  9
$VERSIONGUID
  2
{FAEB1C32-E019-11D5-929B-00C0DF256EC4}
  9
$EXTNAMES
290
     1
  9
$PSVPSCALE
 40
0.0
  9
$OLESTARTUP
290
     0
  0
ENDSEC
  0
SECTION
  2
CLASSES
  0
CLASS
  1
ACDBDICTIONARYWDFLT
  2
AcDbDictionaryWithDefault
  3
ObjectDBX Classes
 90
        0
280
     0
281
     0
  0
CLASS
  1
VISUALSTYLE
  2
AcDbVisualStyle
  3
ObjectDBX Classes
 90
     4095
280
     0
281
     0
  0
CLASS
  1
MATERIAL
  2
AcDbMaterial
  3
ObjectDBX Classes
 90
     1153
280
     0
281
     0
  0
CLASS
  1
SCALE
  2
AcDbScale
  3
ObjectDBX Classes
 90
     1153
280
     0
281
     0
  0
CLASS
  1
TABLESTYLE
  2
AcDbTableStyle
  3
ObjectDBX Classes
 90
     4095
280
     0
281
     0
  0
CLASS
  1
MLEADERSTYLE
  2
AcDbMLeaderStyle
  3
ACDB_MLEADERSTYLE_CLASS
 90
     4095
280
     0
281
     0
  0
CLASS
  1
SUN
  2
AcDbSun
  3
SCENEOE
 90
     1153
280
     0
281
     0
  0
CLASS
  1
ACDBPLACEHOLDER
  2
AcDbPlaceHolder
  3
ObjectDBX Classes
 90
        0
280
     0
281
     0
  0
CLASS
  1
LAYOUT
  2
AcDbLayout
  3
ObjectDBX Classes
 90
        0
280
     0
281
     0
  0
ENDSEC
  0
SECTION
  2
TABLES
  0
TABLE
  2
VPORT
  5
8
330
0
100
AcDbSymbolTable
 70
     1
  0
VPORT
  5
29
330
8
100
AcDbSymbolTableRecord
100
AcDbViewportTableRecord
  2
*Active
 70
     0
 10
0.0
 20
0.0
 11
1.0
 21
1.0
 12
1000.0
 22
1000.0
 13
0.0
 23
0.0
 14
10.0
 24
10.0
 15
10.0
 25
10.0
 16
0.0
 26
0.0
 36
1.0
 17
0.0
 27
0.0
 37
0.0
 40
2000.0
 41
1.0
 42
50.0
 43
0.0
 44
0.0
 50
0.0
 51
0.0
 71
     0
 72
  2000
 73
     1
 74
     3
 75
     0
 76
     0
 77
     0
 78
     0
281
     0
 65
     1
110
0.0
120
0.0
130
0.0
111
1.0
121
0.0
131
0.0
112
0.0
122
1.0
132
0.0
 79
     0
146
0.0
  0
ENDTAB
  0
TABLE
  2
LTYPE
  5
5
330
0
100
AcDbSymbolTable
 70
     6
  0
LTYPE
  5
14
330
5
100
AcDbSymbolTableRecord
100
AcDbLinetypeTableRecord
  2
ByBlock
 70
     0
  3

 72
    65
 73
     0
 40
0.0
  0
LTYPE
  5
15
330
5
100
AcDbSymbolTableRecord
100
AcDbLinetypeTableRecord
  2
ByLayer
 70
     0
  3

 72
    65
 73
     0
 40
0.0
  0
LTYPE
  5
16
330
5
100
AcDbSymbolTableRecord
100
AcDbLinetypeTableRecord
  2
Continuous
 70
     0
  3
Solid line
 72
    65
 73
     0
 40
0.0
  0
LTYPE
  5
6E
330
5
100
AcDbSymbolTableRecord
100
AcDbLinetypeTableRecord
  2
HIDDEN
 70
     0
  3
Hidden __ __ __ __ __ __ __ __ __ __ __ __ __ __
 72
    65
 73
     2
 40
1.905
 49
1.27
 74
     0
 49
-0.635
 74
     0
  0
LTYPE
  5
6F
330
5
100
AcDbSymbolTableRecord
100
AcDbLinetypeTableRecord
  2
PHANTOM
 70
     0
  3
Phantom ______  __  __  ______  __  __  ______
 72
    65
 73
     6
 40
12.7
 49
6.35
 74
     0
 49
-1.27
 74
     0
 49
1.27
 74
     0
 49
-1.27
 74
     0
 49
1.27
 74
     0
 49
-1.27
 74
     0
  0
LTYPE
  5
70
330
5
100
AcDbSymbolTableRecord
100
AcDbLinetypeTableRecord
  2
CENTER
 70
     0
  3
Center ____ _ ____ _ ____ _ ____ _ ____ _ ____
 72
    65
 73
     4
 40
10.16
 49
6.35
 74
     0
 49
-1.27
 74
     0
 49
1.27
 74
     0
 49
-1.27
 74
     0
  0
LTYPE
  5
71
330
5
100
AcDbSymbolTableRecord
100
AcDbLinetypeTableRecord
  2
CENTERX2
 70
     0
  3
Center (2x) ________  __  ________  __  _____
 72
    65
 73
     4
 40
20.32
 49
12.7
 74
     0
 49
-2.54
 74
     0
 49
2.54
 74
     0
 49
-2.54
 74
     0
  0
LTYPE
  5
72
330
5
100
AcDbSymbolTableRecord
100
AcDbLinetypeTableRecord
  2
DOT2
 70
     0
  3
Dot (.5x) ........................................
 72
    65
 73
     2
 40
0.635
 49
0.0
 74
     0
 49
-0.635
 74
     0
  0
ENDTAB
  0
TABLE
  2
LAYER
  5
2
330
0
100
AcDbSymbolTable
 70
     1
  0
LAYER
  5
10
330
2
100
AcDbSymbolTableRecord
100
AcDbLayerTableRecord
  2
0
 70
     0
 62
     7
  6
Continuous
370
    -3
390
F
  0
ENDTAB
  0
TABLE
  2
STYLE
  5
3
330
0
100
AcDbSymbolTable
 70
     1
  0
STYLE
  5
11
330
3
100
AcDbSymbolTableRecord
100
AcDbTextStyleTableRecord
  2
Standard
 70
     0
 40
0.0
 41
1.0
 50
0.0
 71
     0
 42
3.5
  3
txt
  4

  0
ENDTAB
  0
TABLE
  2
VIEW
  5
6
330
0
100
AcDbSymbolTable
 70
     0
  0
ENDTAB
  0
TABLE
  2
UCS
  5
7
330
0
100
AcDbSymbolTable
 70
     0
  0
ENDTAB
  0
TABLE
  2
APPID
  5
9
330
0
100
AcDbSymbolTable
 70
     1
  0
APPID
  5
12
330
9
100
AcDbSymbolTableRecord
100
AcDbRegAppTableRecord
  2
ACAD
 70
     0
  0
ENDTAB
  0
TABLE
  2
DIMSTYLE
  5
A
330
0
100
AcDbSymbolTable
 70
     1
100
AcDbDimStyleTable
  0
DIMSTYLE
105
27
330
A
100
AcDbSymbolTableRecord
100
AcDbDimStyleTableRecord
  2
ISO-25
 70
     0
 41
2.5
 42
0.625
 43
3.75
 44
1.25
 73
     0
 74
     0
 77
     1
 78
     8
140
2.5
141
2.5
143
0.0393700787
147
0.625
171
     3
172
     1
178
     0
271
     2
272
     2
274
     3
278
    44
283
     0
284
     8
340
11
  0
ENDTAB
  0
TABLE
  2
BLOCK_RECORD
  5
1
330
0
100
AcDbSymbolTable
 70
     1
  0
BLOCK_RECORD
  5
1F
330
1
100
AcDbSymbolTableRecord
100
AcDbBlockTableRecord
  2
*Model_Space
340
22
  0
BLOCK_RECORD
  5
1B
330
1
100
AcDbSymbolTableRecord
100
AcDbBlockTableRecord
  2
*Paper_Space
340
1E
  0
BLOCK_RECORD
  5
23
330
1
100
AcDbSymbolTableRecord
100
AcDbBlockTableRecord
  2
*Paper_Space0
340
26
  0
ENDTAB
  0
ENDSEC
  0
SECTION
  2
BLOCKS
  0
BLOCK
  5
20
330
1F
100
AcDbEntity
  8
0
100
AcDbBlockBegin
  2
*Model_Space
 70
     0
 10
0.0
 20
0.0
 30
0.0
  3
*Model_Space
  1

  0
ENDBLK
  5
21
330
1F
100
AcDbEntity
  8
0
100
AcDbBlockEnd
  0
BLOCK
  5
1C
330
1B
100
AcDbEntity
 67
     1
  8
0
100
AcDbBlockBegin
  2
*Paper_Space
 70
     0
 10
0.0
 20
0.0
 30
0.0
  3
*Paper_Space
  1

  0
ENDBLK
  5
1D
330
1B
100
AcDbEntity
 67
     1
  8
0
100
AcDbBlockEnd
  0
BLOCK
  5
24
330
23
100
AcDbEntity
  8
0
100
AcDbBlockBegin
  2
*Paper_Space0
 70
     0
 10
0.0
 20
0.0
 30
0.0
  3
*Paper_Space0
  1

  0
ENDBLK
  5
25
330
23
100
AcDbEntity
  8
0
100
AcDbBlockEnd
  0
ENDSEC
  0
SECTION
  2
ENTITIES
  0
SPLINE
  5
73
330
1F
100
AcDbEntity
  8
0
  6
Continuous
 62
     7
370
    15
100
AcDbSpline
210
0.0
220
0.0
230
1.0
 70
     8
 71
     3
 72
    64
 73
    60
 74
     0
 42
0.000000001
 43
0.00000001
 40
0.0
 40
0.0
 40
0.0
 40
0.0
 40
0.0028145621723838
 40
0.0383458651180825
 40
0.0708309937726442
 40
0.1003893580236703
 40
0.1228671892444601
 40
0.1425356263898007
 40
0.1591176892999349
 40
0.169683633045741
 40
0.1788321339031635
 40
0.1868322939471122
 40
0.194082619841265
 40
0.2019078653391991
 40
0.2123641948886577
 40
0.225733930672481
 40
0.2382847595857946
 40
0.252637940323899
 40
0.2669969657002687
 40
0.2829765811422738
 40
0.2952273410194131
 40
0.3038172627621482
 40
0.3122178781434449
 40
0.3273151155667274
 40
0.3460801230273258
 40
0.3680260753200783
 40
0.3911840217424387
 40
0.4153561513882443
 40
0.4476621657641423
 40
0.4816217102224493
 40
0.5172288932243955
 40
0.5511947717755248
 40
0.5806624587176002
 40
0.6056483650224153
 40
0.6261788696004288
 40
0.6386965445214727
 40
0.6519543158706155
 40
0.6661467328097967
 40
0.6831035073835463
 40
0.7033002348292993
 40
0.7266769565277641
 40
0.7427765935993835
 40
0.7550616223669576
 40
0.7602771182068766
 40
0.7642989501895261
 40
0.7683005213892773
 40
0.7702568969213636
 40
0.7725924066726575
 40
0.7788367719475445
 40
0.787538436568112
 40
0.7988629846040355
 40
0.816884359666864
 40
0.8392180081439022
 40
0.8659015738793313
 40
0.896956794223568
 40
0.9244325713510324
 40
0.9546186592105762
 40
0.9875182782192513
 40
1.0
 40
1.0
 40
1.0
 40
1.0
 10
499.0886082236578
 20
487.3225308582459
 30
0.0
 10
499.0939917595227
 20
487.3277730017663
 30
0.0
 10
499.1673375687417
 20
487.399192468118
 30
0.0
 10
498.8712960448666
 20
487.5762791972763
 30
0.0
 10
498.0998787201419
 20
487.7954175587336
 30
0.0
 10
496.8340224139966
 20
487.9368437362797
 30
0.0
 10
495.2322570928628
 20
487.9889222367992
 30
0.0
 10
493.5046278352233
 20
487.9755796451785
 30
0.0
 10
491.6888574153289
 20
487.9142153252879
 30
0.0
 10
489.863926711885
 20
487.8288387776412
 30
0.0
 10
488.1345467111172
 20
487.738711166378
 30
0.0
 10
486.2672738075364
 20
487.6378840916106
 30
0.0
 10
484.1648588008257
 20
487.5248192049269
 30
0.0
 10
481.6264280429297
 20
487.3914523519002
 30
0.0
 10
478.5279597857424
 20
487.2341770806754
 30
0.0
 10
474.949464610964
 20
487.0605860705865
 30
0.0
 10
470.9924631477554
 20
486.8785208677682
 30
0.0
 10
466.9362655064581
 20
486.7025140470475
 30
0.0
 10
462.5407898500002
 20
486.5242952335577
 30
0.0
 10
458.3448840061743
 20
486.366927091703
 30
0.0
 10
454.7094670611609
 20
486.2410031506761
 30
0.0
 10
451.8115921477366
 20
486.146742103027
 30
0.0
 10
448.6140327856319
 20
486.0477220391288
 30
0.0
 10
444.3968208411992
 20
485.926397722624
 30
0.0
 10
438.8278310726191
 20
485.7834844194472
 30
0.0
 10
432.4574431787761
 20
485.6433400475442
 30
0.0
 10
425.5438144834829
 20
485.5217232193151
 30
0.0
 10
417.5951902769567
 20
485.4188441148682
 30
0.0
 10
408.5679918753911
 20
485.3520505247643
 30
0.0
 10
398.4006279801782
 20
485.3408317746338
 30
0.0
 10
388.0719130524739
 20
485.3966591243658
 30
0.0
 10
378.190445449777
 20
485.5135560461687
 30
0.0
 10
369.3651210708642
 20
485.6693393475003
 30
0.0
 10
361.8826112009093
 20
485.8394482498362
 30
0.0
 10
356.0960979468002
 20
485.9961154873388
 30
0.0
 10
351.49739459297
 20
486.1352408683019
 30
0.0
 10
347.5463583905278
 20
486.2649316591725
 30
0.0
 10
343.1855044095133
 20
486.4199492170976
 30
0.0
 10
338.1333762656455
 20
486.6157615512788
 30
0.0
 10
332.1725226806533
 20
486.8689953049341
 30
0.0
 10
326.2930812991418
 20
487.1437137363351
 30
0.0
 10
321.1930473534126
 20
487.4011463816431
 30
0.0
 10
317.8891933095815
 20
487.5767557947635
 30
0.0
 10
315.7671492700073
 20
487.6930494304299
 30
0.0
 10
314.4776286497275
 20
487.7648325216039
 30
0.0
 10
313.464371359158
 20
487.8219843443771
 30
0.0
 10
312.7357512631834
 20
487.8636166420588
 30
0.0
 10
312.0225028706585
 20
487.9044366936094
 30
0.0
 10
311.2421748769366
 20
487.9474725057989
 30
0.0
 10
310.4548784049672
 20
487.9827107631639
 30
0.0
 10
309.6553317748962
 20
487.9988717649983
 30
0.0
 10
308.9135338391822
 20
487.9718480505982
 30
0.0
 10
308.2543628118747
 20
487.8757759625617
 30
0.0
 10
307.7200518572054
 20
487.7019133296552
 30
0.0
 10
307.3469538279254
 20
487.4801797826876
 30
0.0
 10
307.0940276712429
 20
487.248470491133
 30
0.0
 10
306.9431785674306
 20
487.0533550456205
 30
0.0
 10
306.8750722898417
 20
486.931577328443
 30
0.0
 10
306.8801673835446
 20
486.8831551675388
 30
0.0
 10
306.8815687423616
 20
486.8698370960602
 30
0.0
  0
SPLINE
  5
74
330
1F
100
AcDbEntity
  8
0
  6
Continuous
 62
     7
370
    15
100
AcDbSpline
210
0.0
220
0.0
230
1.0
 70
     8
 71
     3
 72
    35
 73
    31
 74
     0
 42
0.000000001
 43
0.00000001
 40
0.0
 40
0.0
 40
0.0
 40
0.0
 40
0.0727309229098052
 40
0.1388478100505245
 40
0.1980984978342253
 40
0.2505116723911559
 40
0.296105616430844
 40
0.3348963067902408
 40
0.3669002715063981
 40
0.3921368984392185
 40
0.4044854948205601
 40
0.4142121539868836
 40
0.42133845603859
 40
0.4259220105999294
 40
0.4275509047947967
 40
0.4293198117059545
 40
0.4336342171985452
 40
0.4465872560392513
 40
0.4661962462616594
 40
0.4927776856010763
 40
0.5264491300645355
 40
0.5672643609592886
 40
0.6099259394470272
 40
0.6583561790894743
 40
0.7088699190040876
 40
0.7574182947120258
 40
0.8040411750946928
 40
0.8901929234005351
 40
0.9695397736515413
 40
1.0
 40
1.0
 40
1.0
 40
1.0
 10
601.5116859169152
 20
498.7115949580568
 30
0.0
 10
598.4460267690453
 20
498.2701898931267
 30
0.0
 10
592.5934946958447
 20
497.4275204458165
 30
0.0
 10
584.214729621791
 20
496.2722473341033
 30
0.0
 10
576.6670072046443
 20
495.2691857240798
 30
0.0
 10
569.9582562472044
 20
494.4141122232551
 30
0.0
 10
564.0874279389069
 20
493.6971943106965
 30
0.0
 10
559.0554974505551
 20
493.108394120791
 30
0.0
 10
554.8645871448579
 20
492.6370913257367
 30
0.0
 10
551.7898827963943
 20
492.3028788574874
 30
0.0
 10
549.6661526292102
 20
492.0767520786537
 30
0.0
 10
548.3334560206926
 20
491.9362906074508
 30
0.0
 10
547.3326027998727
 20
491.8308416533911
 30
0.0
 10
546.6849886592702
 20
491.7623843129689
 30
0.0
 10
546.2807782528286
 20
491.7177295453951
 30
0.0
 10
545.9086657145833
 20
491.6748636972142
 30
0.0
 10
545.1225145979913
 20
491.5794220956539
 30
0.0
 10
544.0484396654879
 20
491.4371014613518
 30
0.0
 10
542.685571434799
 20
491.246933000694
 30
0.0
 10
541.1385695862257
 20
491.0228191643133
 30
0.0
 10
539.4019808497573
 20
490.7674845723601
 30
0.0
 10
537.5650695241519
 20
490.4972020132867
 30
0.0
 10
535.6320105737151
 20
490.2150124052152
 30
0.0
 10
533.6517529271683
 20
489.9283142384093
 30
0.0
 10
531.7140507091387
 20
489.6492708370274
 30
0.0
 10
530.0097918175435
 20
489.4007398057094
 30
0.0
 10
528.1437105965078
 20
489.1221114663526
 30
0.0
 10
526.498770517786
 20
488.8519864226114
 30
0.0
 10
525.5643519731638
 20
488.6516594151672
 30
0.0
 10
525.6049972938603
 20
488.5861651305933
 30
0.0
 10
525.6162722108035
 20
488.567997169161
 30
0.0
  0
LWPOLYLINE
  5
75
330
1F
100
AcDbEntity
  8
0
  6
Continuous
 62
     7
370
    15
100
AcDbPolyline
 90
       27
 70
   128
 43
0.0
 10
275.6939956047
 20
488.9301133241
 10
275.705041922
 20
488.9730738124
 10
275.6123478811
 20
489.0801783778
 10
275.318163906
 20
489.227001171
 10
274.8290813557
 20
489.3833793391
 10
274.1452112113
 20
489.5511655734
 10
273.2667092166
 20
489.731249397
 10
272.1937764769
 20
489.9238846377
 10
270.9266602257
 20
490.1256882762
 10
269.8490653477
 20
490.2801435772
 10
268.6625486847
 20
490.4351669109
 10
267.3672676591
 20
490.5894594613
 10
266.6788940343
 20
490.6661593289
 10
265.9633955621
 20
490.7426044305
 10
264.2217508443
 20
490.9193930721
 10
261.5209651597
 20
491.1891970075
 10
257.8293629208
 20
491.5641623916
 10
253.1514265303
 20
492.0562725765
 10
248.1259898412
 20
492.6082974062
 10
242.3154167191
 20
493.2767354655
 10
235.7219470648
 20
494.0723971236
 10
228.3463387533
 20
495.0052049868
 10
220.1869481654
 20
496.0839237194
 10
211.4059444359
 20
497.2932089233
 10
201.8566473601
 20
498.6576607087
 10
201.5164684197
 20
498.7077755069
 10
201.5164684197
 20
498.7077755069
  0
SPLINE
  5
76
330
1F
100
AcDbEntity
  8
0
  6
Continuous
 62
     7
370
    15
100
AcDbSpline
210
0.0
220
0.0
230
1.0
 70
     8
 71
     3
 72
     9
 73
     5
 74
     0
 42
0.000000001
 43
0.00000001
 40
0.0
 40
0.0
 40
0.0
 40
0.0
 40
0.4996285454912454
 40
1.0
 40
1.0
 40
1.0
 40
1.0
 10
603.0024976393624
 20
488.7239382703303
 30
0.0
 10
602.7484568487263
 20
490.4016427980964
 30
0.0
 10
602.2399975284399
 20
493.7595464705469
 30
0.0
 10
601.7555981736336
 20
497.0665225416141
 30
0.0
 10
601.5132185639062
 20
498.7212389683196
 30
0.0
  0
SPLINE
  5
77
330
1F
100
AcDbEntity
  8
0
  6
Continuous
 62
     7
370
    15
100
AcDbSpline
210
0.0
220
0.0
230
1.0
 70
     8
 71
     3
 72
     9
 73
     5
 74
     0
 42
0.000000001
 43
0.00000001
 40
0.0
 40
0.0
 40
0.0
 40
0.0
 40
0.500371877658193
 40
0.9999999999999999
 40
0.9999999999999999
 40
0.9999999999999999
 40
0.9999999999999999
 10
201.5132185639062
 20
498.7189071919225
 30
0.0
 10
201.2707387179057
 20
497.0641933435472
 30
0.0
 10
200.7861394491872
 20
493.7572252219183
 30
0.0
 10
200.2774522986082
 20
490.3993037215184
 30
0.0
 10
200.023297892705
 20
488.7215917073024
 30
0.0
  0
LINE
  5
78
330
1F
100
AcDbEntity
  8
0
  6
Continuous
 62
     7
370
    15
100
AcDbLine
 10
208.3418806619
 20
829.5142492901
 30
0.0
 11
205.1022835843
 21
828.1985384946
 31
0.0
  0
LINE
  5
79
330
1F
100
AcDbEntity
  8
0
  6
Continuous
 62
     7
370
    15
100
AcDbLine
 10
597.9156991332
 20
828.2031718205
 30
0.0
 11
594.6789959447
 21
829.516901473
 31
0.0
  0
SPLINE
  5
7A
330
1F
100
AcDbEntity
  8
0
  6
Continuous
 62
     7
370
    15
100
AcDbSpline
210
0.0
220
0.0
230
1.0
 70
     8
 71
     3
 72
    24
 73
    20
 74
     0
 42
0.000000001
 43
0.00000001
 40
0.0
 40
0.0
 40
0.0
 40
0.0
 40
0.0434429084094934
 40
0.0864194754637658
 40
0.1298273925372704
 40
0.1753447768119288
 40
0.225243054923889
 40
0.2827640333934978
 40
0.3515510577338688
 40
0.4297873501360565
 40
0.5053385660054756
 40
0.5770260722092179
 40
0.6463282079222133
 40
0.7142201899822626
 40
0.7812705011093962
 40
0.8478381631658585
 40
0.9141776238265028
 40
0.9804961117242816
 40
1.0
 40
1.0
 40
1.0
 40
1.0
 10
163.4143046502321
 20
53.65119705024679
 30
0.0
 10
163.8998352673689
 20
53.67949909430736
 30
0.0
 10
164.86568453462
 20
53.73579937188588
 30
0.0
 10
166.2185351180437
 20
54.15877727918639
 30
0.0
 10
167.4473417926483
 20
54.77286554087613
 30
0.0
 10
168.563117931085
 20
55.57753793254183
 30
0.0
 10
169.604830908748
 20
56.57722709539126
 30
0.0
 10
170.6229122205832
 20
57.83753078396781
 30
0.0
 10
171.6443039890464
 20
59.44349228878698
 30
0.0
 10
172.6338559187834
 20
61.39762599174248
 30
0.0
 10
173.5489927240129
 20
63.61397062704444
 30
0.0
 10
174.3580505929885
 20
65.95555498829553
 30
0.0
 10
175.0730962462453
 20
68.39298891404621
 30
0.0
 10
175.7050060109263
 20
70.92036259745615
 30
0.0
 10
176.2567007699835
 20
73.5227108682337
 30
0.0
 10
176.7273941967642
 20
76.17805994889792
 30
0.0
 10
177.1131397694618
 20
78.8592270337456
 30
0.0
 10
177.3434125183961
 20
80.90843847503959
 30
0.0
 10
177.4443648178525
 20
82.0512297608319
 30
0.0
 10
177.4673071139944
 20
82.31093911117094
 30
0.0
  0
SPLINE
  5
7B
330
1F
100
AcDbEntity
  8
0
  6
Continuous
 62
     7
370
    15
100
AcDbSpline
210
0.0
220
0.0
230
1.0
 70
     8
 71
     3
 72
    20
 73
    16
 74
     0
 42
0.000000001
 43
0.00000001
 40
0.0
 40
0.0
 40
0.0
 40
0.0
 40
0.0472399852567122
 40
0.137232183763757
 40
0.2274323741152543
 40
0.3175708013913034
 40
0.4072833036065495
 40
0.496220896258273
 40
0.5839494710445252
 40
0.6699009244525865
 40
0.7533238711177795
 40
0.8252639872748812
 40
0.8921882479696235
 40
0.9537428414344176
 40
1.0
 40
1.0
 40
1.0
 40
1.0
 10
165.5107016778802
 20
83.33054023174857
 30
0.0
 10
165.474769750762
 20
82.9338257847998
 30
0.0
 10
165.3703874822563
 20
81.7813700930896
 30
0.0
 10
165.1365573446602
 20
79.8390293365826
 30
0.0
 10
164.7882120537272
 20
77.53981346596872
 30
0.0
 10
164.3710975495545
 20
75.29000333802571
 30
0.0
 10
163.8969483148956
 20
73.14063833779261
 30
0.0
 10
163.3787129523855
 20
71.14037815218155
 30
0.0
 10
162.833306704469
 20
69.33669676601073
 30
0.0
 10
162.2818000248144
 20
67.77489543420701
 30
0.0
 10
161.7694113118045
 20
66.53926072627003
 30
0.0
 10
161.326621722638
 20
65.63531225701458
 30
0.0
 10
160.9918005559198
 20
65.05549074356654
 30
0.0
 10
160.7668175119351
 20
64.74197226138601
 30
0.0
 10
160.7508766020972
 20
64.72524994586703
 30
0.0
 10
160.7440370769048
 20
64.71807515475237
 30
0.0
  0
SPLINE
  5
7C
330
1F
100
AcDbEntity
  8
0
  6
Continuous
 62
     7
370
    15
100
AcDbSpline
210
0.0
220
0.0
230
1.0
 70
     8
 71
     3
 72
    24
 73
    20
 74
     0
 42
0.000000001
 43
0.00000001
 40
0.0
 40
0.0
 40
0.0
 40
0.0
 40
0.0349328506924202
 40
0.1013002514490581
 40
0.1676028522105888
 40
0.2339672980275041
 40
0.3005564207665355
 40
0.3676046027430555
 40
0.4354233700116654
 40
0.504475880326911
 40
0.5755170841082887
 40
0.6498658158507995
 40
0.7297528870615042
 40
0.7904992015699772
 40
0.8421550465281814
 40
0.8891820246928875
 40
0.933692253637597
 40
0.9769373993770791
 40
1.0
 40
1.0
 40
1.0
 40
1.0
 10
625.5591300138179
 20
82.31093911117094
 30
0.0
 10
625.6013171156867
 20
81.84517077179487
 30
0.0
 10
625.7236536540022
 20
80.49450946129244
 30
0.0
 10
625.9958053724952
 20
78.23408564262158
 30
0.0
 10
626.4005067911834
 20
75.56070353976396
 30
0.0
 10
626.8878082107178
 20
72.92817917818684
 30
0.0
 10
627.4517402785484
 20
70.36653742135046
 30
0.0
 10
628.0894018639922
 20
67.90107899718656
 30
0.0
 10
628.7996753760445
 20
65.55257337426812
 30
0.0
 10
629.5864994469055
 20
63.33455244043873
 30
0.0
 10
630.4643176111573
 20
61.24901364266111
 30
0.0
 10
631.4710421535457
 20
59.28115672366996
 30
0.0
 10
632.555794585272
 20
57.61132559977167
 30
0.0
 10
633.7099284896175
 20
56.26496690619231
 30
0.0
 10
634.858558035134
 20
55.25789097655465
 30
0.0
 10
636.0842695851984
 20
54.48353621668001
 30
0.0
 10
637.4125326269335
 20
53.94093518798537
 30
0.0
 10
638.6125525960681
 20
53.68312641104333
 30
0.0
 10
639.35418437314
 20
53.6594366299401
 30
0.0
 10
639.6121324775802
 20
53.65119705024679
 30
0.0
  0
SPLINE
  5
7D
330
1F
100
AcDbEntity
  8
0
  6
Continuous
 62
     7
370
    15
100
AcDbSpline
210
0.0
220
0.0
230
1.0
 70
     8
 71
     3
 72
    21
 73
    17
 74
     0
 42
0.000000001
 43
0.00000001
 40
0.0
 40
0.0
 40
0.0
 40
0.0
 40
0.0187940707197741
 40
0.0763514049649241
 40
0.13903435079644
 40
0.2075572593466228
 40
0.2817009770218578
 40
0.3606490002221654
 40
0.4433636874383063
 40
0.52885635620818
 40
0.6163082698980374
 40
0.7050849723060386
 40
0.7947019048453391
 40
0.8847781961904149
 40
0.9749934470149793
 40
1.0
 40
1.0
 40
1.0
 40
1.0
 10
642.2752494938999
 20
64.72347676614609
 30
0.0
 10
642.2809228157239
 20
64.71762841548845
 30
0.0
 10
642.3039708343538
 20
64.69386933763377
 30
0.0
 10
642.1567287080088
 20
64.8726759965822
 30
0.0
 10
641.8913572168113
 20
65.2939048615595
 30
0.0
 10
641.5069348978047
 20
66.01029419596738
 30
0.0
 10
641.0508196174154
 20
67.01640311113533
 30
0.0
 10
640.5450619996069
 20
68.31595330277085
 30
0.0
 10
640.0188297683632
 20
69.88665305484277
 30
0.0
 10
639.4963692443727
 20
71.69521753034135
 30
0.0
 10
638.9989926496928
 20
73.69925455604431
 30
0.0
 10
638.5441550831815
 20
75.85192636099225
 30
0.0
 10
638.1455993312331
 20
78.10446440942354
 30
0.0
 10
637.8151343241394
 20
80.40580243782047
 30
0.0
 10
637.619391873202
 20
82.15512939703461
 30
0.0
 10
637.5342202264778
 20
83.12093231799057
 30
0.0
 10
637.5157354499321
 20
83.33054023174857
 30
0.0
  0
LINE
  5
7E
330
1F
100
AcDbEntity
  8
0
  6
Continuous
 62
     7
370
    15
100
AcDbLine
 10
201.0153919054
 20
358.4533961409
 30
0.0
 11
208.958918333
 21
451.6051290586
 31
0.0
  0
LINE
  5
7F
330
1F
100
AcDbEntity
  8
0
  6
Continuous
 62
     7
370
    15
100
AcDbLine
 10
177.467307114
 20
82.3109391112
 30
0.0
 11
200.0005517169
 21
346.5526209562
 31
0.0
  0
LINE
  5
80
330
1F
100
AcDbEntity
  8
0
  6
Continuous
 62
     7
370
    15
100
AcDbLine
 10
197.0023128969
 20
452.6247301792
 30
0.0
 11
165.5107016779
 21
83.3305402317
 31
0.0
  0
LINE
  5
81
330
1F
100
AcDbEntity
  8
0
  6
Continuous
 62
     7
370
    15
100
AcDbLine
 10
637.5157354499
 20
83.3305402317
 30
0.0
 11
606.0241242309
 21
452.6247301792
 31
0.0
  0
LINE
  5
82
330
1F
100
AcDbEntity
  8
0
  6
Continuous
 62
     7
370
    15
100
AcDbLine
 10
603.0258854109
 20
346.5526209562
 30
0.0
 11
625.5591300138
 21
82.3109391112
 31
0.0
  0
LINE
  5
83
330
1F
100
AcDbEntity
  8
0
  6
Continuous
 62
     7
370
    15
100
AcDbLine
 10
594.0675187948
 20
451.6051290586
 30
0.0
 11
602.0110452224
 21
358.4533961409
 31
0.0
  0
LINE
  5
84
330
1F
100
AcDbEntity
  8
0
  6
Continuous
 62
     7
370
    15
100
AcDbLine
 10
650.810671486
 20
65.6511970502
 30
0.0
 11
641.7094335712
 21
65.6511970502
 31
0.0
  0
LINE
  5
85
330
1F
100
AcDbEntity
  8
0
  6
Continuous
 62
     7
370
    15
100
AcDbLine
 10
639.6121324776
 20
53.6511970502
 30
0.0
 11
643.5709231241
 21
53.6511970502
 31
0.0
  0
LINE
  5
86
330
1F
100
AcDbEntity
  8
0
  6
Continuous
 62
     7
370
    15
100
AcDbLine
 10
159.4555140038
 20
53.6511970502
 30
0.0
 11
163.4143046502
 21
53.6511970502
 31
0.0
  0
LINE
  5
87
330
1F
100
AcDbEntity
  8
0
  6
Continuous
 62
     7
370
    15
100
AcDbLine
 10
161.3243376538
 20
65.6511970502
 30
0.0
 11
152.2157656418
 21
65.6511970502
 31
0.0
  0
LINE
  5
88
330
1F
100
AcDbEntity
  8
0
  6
Continuous
 62
     7
370
    15
100
AcDbLine
 10
199.9920903076
 20
346.4533961409
 30
0.0
 11
603.0343468202
 21
346.4533961409
 31
0.0
  0
LINE
  5
89
330
1F
100
AcDbEntity
  8
0
  6
Continuous
 62
     7
370
    15
100
AcDbLine
 10
602.150584845
 20
358.4533961409
 30
0.0
 11
200.8758522828
 21
358.4533961409
 31
0.0
  0
ARC
  5
8A
330
1F
100
AcDbEntity
  8
0
  6
Continuous
 62
     7
370
    15
100
AcDbCircle
 10
651.4832034571
 20
59.6511970502
 30
0.0
 40
6.000000000000001
100
AcDbArc
 50
345.5224878145
 51
90.0
  0
LINE
  5
8B
330
1F
100
AcDbEntity
  8
0
  6
Continuous
 62
     7
370
    15
100
AcDbLine
 10
651.4832034571
 20
65.6511970502
 30
0.0
 11
650.810671486
 21
65.6511970502
 31
0.0
  0
ARC
  5
8C
330
1F
100
AcDbEntity
  8
0
  6
Continuous
 62
     7
370
    15
100
AcDbCircle
 10
151.5432336707
 20
59.6511970502
 30
0.0
 40
6.000000000000029
100
AcDbArc
 50
90.0
 51
194.4775121855
  0
LINE
  5
8D
330
1F
100
AcDbEntity
  8
0
  6
Continuous
 62
     7
370
    15
100
AcDbLine
 10
152.2157656418
 20
65.6511970502
 30
0.0
 11
151.5432336707
 21
65.6511970502
 31
0.0
  0
SPLINE
  5
8E
330
1F
100
AcDbEntity
  8
0
  6
Continuous
 62
     7
370
    15
100
AcDbSpline
210
0.0
220
0.0
230
1.0
 70
     8
 71
     3
 72
    18
 73
    14
 74
     0
 42
0.000000001
 43
0.00000001
 40
0.0
 40
0.0
 40
0.0
 40
0.0
 40
0.0442962653649902
 40
0.1459171329575688
 40
0.2475349416377514
 40
0.3489748052190024
 40
0.4501767673388476
 40
0.5511104391738472
 40
0.6517735877004436
 40
0.7521873807883251
 40
0.8523903778337928
 40
0.9524329609081877
 40
1.0
 40
1.0
 40
1.0
 40
1.0
 10
208.9589183330071
 20
451.6051290586135
 30
0.0
 10
208.9902070106032
 20
451.9003174801783
 30
0.0
 10
209.0932756122389
 20
452.8727030255984
 30
0.0
 10
209.4816041197087
 20
454.4962060671743
 30
0.0
 10
210.2491357486332
 20
456.4065144086886
 30
0.0
 10
211.306636168221
 20
458.1834727514535
 30
0.0
 10
212.6246484760254
 20
459.785927432061
 30
0.0
 10
214.1739787215172
 20
461.177681452619
 30
0.0
 10
215.918612871523
 20
462.3272720494382
 30
0.0
 10
217.8188792028931
 20
463.2106908970162
 30
0.0
 10
219.8313749604064
 20
463.8039013633615
 30
0.0
 10
221.5490001171281
 20
464.0587871468025
 30
0.0
 10
222.5791393040934
 20
464.0804102243042
 30
0.0
 10
222.91110052896
 20
464.0873782373491
 30
0.0
  0
SPLINE
  5
8F
330
1F
100
AcDbEntity
  8
0
  6
Continuous
 62
     7
370
    15
100
AcDbSpline
210
0.0
220
0.0
230
1.0
 70
     8
 71
     3
 72
    18
 73
    14
 74
     0
 42
0.000000001
 43
0.00000001
 40
0.0
 40
0.0
 40
0.0
 40
0.0
 40
0.0052079756873298
 40
0.1062417347938611
 40
0.2072438948626394
 40
0.308204006889037
 40
0.4091132667226907
 40
0.5099650591083471
 40
0.6107554507022136
 40
0.711483575379279
 40
0.8121518552216648
 40
0.9127660109946378
 40
1.0
 40
1.0
 40
1.0
 40
1.0
 10
212.9939980380432
 20
474.1434241518849
 30
0.0
 10
212.9474750222131
 20
474.1272464223492
 30
0.0
 10
211.9984141574209
 20
473.7972237505677
 30
0.0
 10
210.2539306060978
 20
472.8833877195987
 30
0.0
 10
207.8102657404239
 20
471.397188296379
 30
0.0
 10
205.5634673276922
 20
469.6227590820339
 30
0.0
 10
203.5251920751971
 20
467.6238728367704
 30
0.0
 10
201.724445962812
 20
465.4138824671741
 30
0.0
 10
200.1825178378167
 20
463.0229281120313
 30
0.0
 10
198.9164532141788
 20
460.479709436878
 30
0.0
 10
197.9485857777201
 20
457.8150680054445
 30
0.0
 10
197.2939253373999
 20
455.1850961824485
 30
0.0
 10
197.0947889733255
 20
453.4366729131874
 30
0.0
 10
197.0023128968929
 20
452.6247301791911
 30
0.0
  0
SPLINE
  5
90
330
1F
100
AcDbEntity
  8
0
  6
Continuous
 62
     7
370
    15
100
AcDbSpline
210
0.0
220
0.0
230
1.0
 70
     8
 71
     3
 72
    18
 73
    14
 74
     0
 42
0.000000001
 43
0.00000001
 40
0.0
 40
0.0
 40
0.0
 40
0.0
 40
0.0445005938313638
 40
0.1443228401667514
 40
0.2442216970426429
 40
0.344184090466594
 40
0.444273868572209
 40
0.5445501659157796
 40
0.6450625158626456
 40
0.7458447160407671
 40
0.8469080631261405
 40
0.9482355308111279
 40
1.0
 40
1.0
 40
1.0
 40
1.0
 10
580.1153365988523
 20
464.0873782373491
 30
0.0
 10
580.425892622045
 20
464.0812561290469
 30
0.0
 10
581.4330775478891
 20
464.0614011118006
 30
0.0
 10
583.1270225780426
 20
463.8184272698617
 30
0.0
 10
585.1361297709147
 20
463.2370285876082
 30
0.0
 10
587.0331885235893
 20
462.3680109933327
 30
0.0
 10
588.7757267013061
 20
461.2356749174376
 30
0.0
 10
590.3257476740239
 20
459.8637243120552
 30
0.0
 10
591.6487466995202
 20
458.2824176094878
 30
0.0
 10
592.7167030489957
 20
456.5260470442741
 30
0.0
 10
593.5001244642465
 20
454.6327032697079
 30
0.0
 10
593.9183846973415
 20
452.9700364555318
 30
0.0
 10
594.0298346064434
 20
451.9500228710716
 30
0.0
 10
594.0675187948052
 20
451.6051290586135
 30
0.0
  0
SPLINE
  5
91
330
1F
100
AcDbEntity
  8
0
  6
Continuous
 62
     7
370
    15
100
AcDbSpline
210
0.0
220
0.0
230
1.0
 70
     8
 71
     3
 72
    18
 73
    14
 74
     0
 42
0.000000001
 43
0.00000001
 40
0.0
 40
0.0
 40
0.0
 40
0.0
 40
0.0604091964256394
 40
0.1608110982156325
 40
0.2612444148348096
 40
0.36169621584349
 40
0.4621797657202542
 40
0.5627063697999257
 40
0.6632848081640246
 40
0.7639209964342413
 40
0.8646178515446011
 40
0.965375338995686
 40
0.9999999999999999
 40
0.9999999999999999
 40
0.9999999999999999
 40
0.9999999999999999
 10
606.0241242309195
 20
452.6247301791911
 30
0.0
 10
605.9646850148329
 20
453.187670294419
 30
0.0
 10
605.8064560334606
 20
454.6862338164626
 30
0.0
 10
605.2873969669087
 20
457.0856893973149
 30
0.0
 10
604.4006700091085
 20
459.7731087156625
 30
0.0
 10
603.2145856950731
 20
462.3474864798248
 30
0.0
 10
601.749411987459
 20
464.7777342935984
 30
0.0
 10
600.0214385552232
 20
467.0349270362416
 30
0.0
 10
598.0511589496689
 20
469.0900031759485
 30
0.0
 10
595.864879856662
 20
470.924765692041
 30
0.0
 10
593.4788180050728
 20
472.4917862629367
 30
0.0
 10
591.5112629416207
 20
473.5648336682304
 30
0.0
 10
590.309971183008
 20
474.0115023271529
 30
0.0
 10
590.0027348126018
 20
474.1257400687822
 30
0.0
  0
LINE
  5
92
330
1F
100
AcDbEntity
  8
0
  6
Continuous
 62
     7
370
    15
100
AcDbLine
 10
222.911100529
 20
464.0873782373
 30
0.0
 11
233.6283540464
 21
464.0873782373
 31
0.0
  0
LINE
  5
93
330
1F
100
AcDbEntity
  8
0
  6
Continuous
 62
     7
370
    15
100
AcDbLine
 10
569.4009263052
 20
464.0873782373
 30
0.0
 11
580.1153365989
 21
464.0873782373
 31
0.0
  0
LINE
  5
94
330
1F
100
AcDbEntity
  8
0
  6
Continuous
 62
     7
370
    15
100
AcDbLine
 10
600.864204614
 20
476.0873782373
 30
0.0
 11
593.070660015
 21
476.0873782373
 31
0.0
  0
LINE
  5
95
330
1F
100
AcDbEntity
  8
0
  6
Continuous
 62
     7
370
    15
100
AcDbLine
 10
209.9537299862
 20
476.0873782373
 30
0.0
 11
202.1622325138
 21
476.0873782373
 31
0.0
  0
SPLINE
  5
96
330
1F
100
AcDbEntity
  8
0
  6
Continuous
 62
     7
370
    15
100
AcDbSpline
210
0.0
220
0.0
230
1.0
 70
     8
 71
     3
 72
    20
 73
    16
 74
     0
 42
0.000000001
 43
0.00000001
 40
0.0
 40
0.0
 40
0.0
 40
0.0
 40
0.0528947045980593
 40
0.133003870983577
 40
0.2125543113248614
 40
0.2918017282760565
 40
0.3712157160179956
 40
0.4513130609749368
 40
0.5324981294825898
 40
0.6150053944978936
 40
0.6988644352425522
 40
0.7839107814239836
 40
0.8698513641162643
 40
0.956360541812035
 40
1.0
 40
1.0
 40
1.0
 40
1.0
 10
202.1622325138077
 20
476.087378237349
 30
0.0
 10
201.6666646935714
 20
476.0737878307712
 30
0.0
 10
200.420558132864
 20
476.0396147184184
 30
0.0
 10
198.455273225648
 20
475.701850372589
 30
0.0
 10
196.3206647888517
 20
475.0301860329358
 30
0.0
 10
194.303207728412
 20
474.0617916363582
 30
0.0
 10
192.4236168828501
 20
472.819199091284
 30
0.0
 10
190.6977200116931
 20
471.3150690342678
 30
0.0
 10
189.1402342623117
 20
469.5628020302878
 30
0.0
 10
187.7666555309237
 20
467.5763828689441
 30
0.0
 10
186.5937512574389
 20
465.3735523656231
 30
0.0
 10
185.636674666298
 20
462.9779414797616
 30
0.0
 10
184.913629937671
 20
460.418045751846
 30
0.0
 10
184.5017719452428
 20
458.178633645653
 30
0.0
 10
184.3644100893375
 20
456.7948353311556
 30
0.0
 10
184.3183520040821
 20
456.3308411580624
 30
0.0
  0
SPLINE
  5
97
330
1F
100
AcDbEntity
  8
0
  6
Continuous
 62
     7
370
    15
100
AcDbSpline
210
0.0
220
0.0
230
1.0
 70
     8
 71
     3
 72
    16
 73
    12
 74
     0
 42
0.000000001
 43
0.00000001
 40
0.0
 40
0.0
 40
0.0
 40
0.0
 40
0.0654118005039471
 40
0.1954672478980866
 40
0.3248289918687411
 40
0.4539199000654921
 40
0.5834441137388087
 40
0.7150370771770441
 40
0.8517363366126192
 40
0.9989979282675471
 40
1.0
 40
1.0
 40
1.0
 40
1.0
 10
196.2749574401963
 20
455.3112400374847
 30
0.0
 10
196.3064399833249
 20
455.6232604436434
 30
0.0
 10
196.4005179022133
 20
456.5556574975392
 30
0.0
 10
196.6876888934164
 20
458.008238742732
 30
0.0
 10
197.1760041151676
 20
459.569091932624
 30
0.0
 10
197.7881193173211
 20
460.9068795491131
 30
0.0
 10
198.4847906112279
 20
462.0003170210405
 30
0.0
 10
199.229122560327
 20
462.8517285125921
 30
0.0
 10
199.9988414031642
 20
463.447489760375
 30
0.0
 10
200.4953873381785
 20
463.7556981781159
 30
0.0
 10
200.7600515037856
 20
463.8239496757884
 30
0.0
 10
200.7618402932495
 20
463.8244109681573
 30
0.0
  0
SPLINE
  5
98
330
1F
100
AcDbEntity
  8
0
  6
Continuous
 62
     7
370
    15
100
AcDbSpline
210
0.0
220
0.0
230
1.0
 70
     8
 71
     3
 72
    20
 73
    16
 74
     0
 42
0.000000001
 43
0.00000001
 40
0.0
 40
0.0
 40
0.0
 40
0.0
 40
0.0486383665540966
 40
0.1364299832555225
 40
0.22453058578585
 40
0.3125829807605097
 40
0.4002436541953072
 40
0.4870736285780324
 40
0.5726380518688233
 40
0.6566407420141601
 40
0.739022455846822
 40
0.8199759845605341
 40
0.8998923598798351
 40
0.9792815323884717
 40
1.0
 40
1.0
 40
1.0
 40
1.0
 10
618.7080851237301
 20
456.3308411580624
 30
0.0
 10
618.6559885525052
 20
456.8477750821352
 30
0.0
 10
618.5098583502914
 20
458.2977679910669
 30
0.0
 10
618.0673476634547
 20
460.6189312799845
 30
0.0
 10
617.305087997546
 20
463.2320614137876
 30
0.0
 10
616.2857313383154
 20
465.6938411152079
 30
0.0
 10
615.0233231086404
 20
467.9654530752809
 30
0.0
 10
613.5329986858178
 20
470.0088632109067
 30
0.0
 10
611.8392349081076
 20
471.7902244084946
 30
0.0
 10
609.9725695345257
 20
473.2828143272694
 30
0.0
 10
607.967211272303
 20
474.4686367581525
 30
0.0
 10
605.8574667827237
 20
475.3396029508805
 30
0.0
 10
603.675516538314
 20
475.8902137531671
 30
0.0
 10
601.9964798616287
 20
476.0745576489052
 30
0.0
 10
601.0583597389658
 20
476.0851798470225
 30
0.0
 10
600.8642046140046
 20
476.087378237349
 30
0.0
  0
SPLINE
  5
99
330
1F
100
AcDbEntity
  8
0
  6
Continuous
 62
     7
370
    15
100
AcDbSpline
210
0.0
220
0.0
230
1.0
 70
     8
 71
     3
 72
    15
 73
    11
 74
     0
 42
0.000000001
 43
0.00000001
 40
0.0
 40
0.0
 40
0.0
 40
0.0
 40
0.141311170511856
 40
0.2793376553595801
 40
0.4087173750885161
 40
0.5462417549925566
 40
0.6791058945352204
 40
0.810261155394192
 40
0.9411572766077244
 40
1.0
 40
1.0
 40
1.0
 40
1.0
 10
602.2696736348928
 20
463.8134441446533
 30
0.0
 10
602.5178585884267
 20
463.7028108483218
 30
0.0
 10
603.008459598698
 20
463.4841158542179
 30
0.0
 10
603.7620405106328
 20
462.8783200329621
 30
0.0
 10
604.5196758827483
 20
462.0331627411025
 30
0.0
 10
605.2351489117452
 20
460.9184899597024
 30
0.0
 10
605.8665046699189
 20
459.5308325898853
 30
0.0
 10
606.3571253252102
 20
457.9373843512074
 30
0.0
 10
606.6336164191653
 20
456.4969913459167
 30
0.0
 10
606.7235798084761
 20
455.5919239064295
 30
0.0
 10
606.7514796876159
 20
455.3112400374847
 30
0.0
  0
LINE
  5
9A
330
1F
100
AcDbEntity
  8
0
  6
Continuous
 62
     7
370
    15
100
AcDbLine
 10
606.7514796876
 20
455.3112400375
 30
0.0
 11
638.311130697
 21
85.2191646123
 31
0.0
  0
LINE
  5
9B
330
1F
100
AcDbEntity
  8
0
  6
Continuous
 62
     7
370
    15
100
AcDbLine
 10
650.2677361331
 20
86.2387657328
 30
0.0
 11
618.7080851237
 21
456.3308411581
 31
0.0
  0
LINE
  5
9C
330
1F
100
AcDbEntity
  8
0
  6
Continuous
 62
     7
370
    15
100
AcDbLine
 10
184.3183520041
 20
456.3308411581
 30
0.0
 11
152.7587009947
 21
86.2387657328
 31
0.0
  0
LINE
  5
9D
330
1F
100
AcDbEntity
  8
0
  6
Continuous
 62
     7
370
    15
100
AcDbLine
 10
164.7153064308
 20
85.2191646123
 30
0.0
 11
196.2749574402
 21
455.3112400375
 31
0.0
  0
SPLINE
  5
9E
330
1F
100
AcDbEntity
  8
0
  6
Continuous
 62
     7
370
    15
100
AcDbSpline
210
0.0
220
0.0
230
1.0
 70
     8
 71
     3
 72
    17
 73
    13
 74
     0
 42
0.000000001
 43
0.00000001
 40
0.0
 40
0.0
 40
0.0
 40
0.0
 40
0.0577345679029045
 40
0.1676097457429654
 40
0.2775619007346408
 40
0.3875296379929755
 40
0.4974908515418355
 40
0.6074231066327347
 40
0.7173020797241332
 40
0.8270931816079337
 40
0.9367416578335807
 40
1.0
 40
1.0
 40
1.0
 40
1.0
 10
152.7587009947129
 20
86.23876573282874
 30
0.0
 10
152.7229652259855
 20
85.82093525347867
 30
0.0
 10
152.6192203929008
 20
84.60792781354665
 30
0.0
 10
152.439128068292
 20
82.53589905705483
 30
0.0
 10
152.2187821600136
 20
80.0408592560048
 30
0.0
 10
151.9946751227867
 20
77.54473438168641
 30
0.0
 10
151.7706479232896
 20
75.0896518431916
 30
0.0
 10
151.5503307252155
 20
72.71565223273235
 30
0.0
 10
151.3370183319804
 20
70.45758803575497
 30
0.0
 10
151.1352640885487
 20
68.36576790142689
 30
0.0
 10
150.971196834637
 20
66.69652014099059
 30
0.0
 10
150.8827556645198
 20
65.82819111864846
 30
0.0
 10
150.8503992667046
 20
65.51051102413786
 30
0.0
  0
SPLINE
  5
9F
330
1F
100
AcDbEntity
  8
0
  6
Continuous
 62
     7
370
    15
100
AcDbSpline
210
0.0
220
0.0
230
1.0
 70
     8
 71
     3
 72
    14
 73
    10
 74
     0
 42
0.000000001
 43
0.00000001
 40
0.0
 40
0.0
 40
0.0
 40
0.0
 40
0.0552094682057721
 40
0.2370517243424126
 40
0.4188147025165281
 40
0.6005394613985461
 40
0.7822584150810246
 40
0.9545114133693828
 40
1.0
 40
1.0
 40
1.0
 40
1.0
 10
163.5045985932724
 20
71.67796996832176
 30
0.0
 10
163.5265294424144
 20
71.91104320903952
 30
0.0
 10
163.6206934648972
 20
72.91178484640248
 30
0.0
 10
163.7937394158442
 20
74.79367893369538
 30
0.0
 10
164.0194232157821
 20
77.27783480612082
 30
0.0
 10
164.244450847283
 20
79.79812464681812
 30
0.0
 10
164.4606827680066
 20
82.25950713136953
 30
0.0
 10
164.6164368046971
 20
84.06144637418345
 30
0.0
 10
164.6982208531106
 20
85.019100288104
 30
0.0
 10
164.7153064308271
 20
85.21916461225109
 30
0.0
  0
SPLINE
  5
A0
330
1F
100
AcDbEntity
  8
0
  6
Continuous
 62
     7
370
    15
100
AcDbSpline
210
0.0
220
0.0
230
1.0
 70
     8
 71
     3
 72
    17
 73
    13
 74
     0
 42
0.000000001
 43
0.00000001
 40
0.0
 40
0.0
 40
0.0
 40
0.0
 40
0.0565415374130765
 40
0.1658259896774624
 40
0.2754930862666127
 40
0.3853723141359455
 40
0.4953750453997452
 40
0.6054505038000723
 40
0.7155664693925692
 40
0.8256998839224604
 40
0.9358290543083204
 40
1.0
 40
1.0
 40
1.0
 40
1.0
 10
652.1736775380149
 20
65.53377221522582
 30
0.0
 10
652.1449078958303
 20
65.81594636126775
 30
0.0
 10
652.0605317963079
 20
66.64351153140014
 30
0.0
 10
651.9013387908365
 20
68.26167942075534
 30
0.0
 10
651.7009227079849
 20
70.33706518503902
 30
0.0
 10
651.4884535094142
 20
72.58385850905947
 30
0.0
 10
651.2686659534733
 20
74.94978278755693
 30
0.0
 10
651.0448630064948
 20
77.40006127895849
 30
0.0
 10
650.8206956271312
 20
79.89448616615414
 30
0.0
 10
650.5999961991862
 20
82.39115380378847
 30
0.0
 10
650.415267608104
 20
84.51431194107839
 30
0.0
 10
650.3074358526382
 20
85.77472691068722
 30
0.0
 10
650.2677361330994
 20
86.23876573282874
 30
0.0
  0
SPLINE
  5
A1
330
1F
100
AcDbEntity
  8
0
  6
Continuous
 62
     7
370
    15
100
AcDbSpline
210
0.0
220
0.0
230
1.0
 70
     8
 71
     3
 72
    13
 73
     9
 74
     0
 42
0.000000001
 43
0.00000001
 40
0.0
 40
0.0
 40
0.0
 40
0.0
 40
0.0952523780672683
 40
0.2766093247632333
 40
0.4580099994992382
 40
0.6393960764842909
 40
0.8207925970756166
 40
1.0
 40
1.0
 40
1.0
 40
1.0
 10
638.3111306969852
 20
85.21916461225109
 30
0.0
 10
638.3471463617874
 20
84.79806065845796
 30
0.0
 10
638.4517344983145
 20
83.57519060862539
 30
0.0
 10
638.6331772384033
 20
81.48767568085047
 30
0.0
 10
638.8551486380718
 20
78.97410281091932
 30
0.0
 10
639.0807292016967
 20
76.4622021561856
 30
0.0
 10
639.3058751214169
 20
73.99258868832803
 30
0.0
 10
639.4521036045767
 20
72.42263584357922
 30
0.0
 10
639.524773991646
 20
71.64242477632787
 30
0.0
  0
SPLINE
  5
A2
330
1F
100
AcDbEntity
  8
0
  6
Continuous
 62
     7
370
    15
100
AcDbSpline
210
0.0
220
0.0
230
1.0
 70
    11
 71
     3
 72
    39
 73
    35
 74
     0
 42
0.000000001
 43
0.00000001
 40
0.0
 40
0.0
 40
0.0
 40
0.0
 40
0.0312177227449954
 40
0.0625287405307386
 40
0.0936997401827649
 40
0.1250352072377635
 40
0.1562162086399576
 40
0.1875016966571134
 40
0.218720319043222
 40
0.2499289820204254
 40
0.2811981095720199
 40
0.3123388045552406
 40
0.3436547850314264
 40
0.37478542847977
 40
0.4061037178313873
 40
0.437345787809685
 40
0.4685683034515246
 40
0.4999061760153625
 40
0.5310894440767371
 40
0.5624033508158136
 40
0.5936765665876703
 40
0.6248840973694785
 40
0.6562146563958837
 40
0.6873642000890552
 40
0.7186974066377433
 40
0.7498448474957039
 40
0.78114386627771
 40
0.8123373356387922
 40
0.8435661994108772
 40
0.8748505990838524
 40
0.9059999103842429
 40
0.9373336444315034
 40
0.9685250294869209
 40
1.0
 40
1.0
 40
1.0
 40
1.0
 10
235.0478797277987
 20
767.1038973972511
 30
0.0
 10
235.1239074262861
 20
768.4232322203621
 30
0.0
 10
235.2761900341722
 20
771.0658447357382
 30
0.0
 10
236.4713694641675
 20
774.827526237775
 30
0.0
 10
238.3016290741973
 20
778.2692683716255
 30
0.0
 10
240.7518592042765
 20
781.2657285418027
 30
0.0
 10
243.7144610329024
 20
783.7314254127057
 30
0.0
 10
247.0851559962024
 20
785.5842748575102
 30
0.0
 10
250.7570823744895
 20
786.7647588864756
 30
0.0
 10
254.608826992008
 20
787.2247390624935
 30
0.0
 10
258.5060474908909
 20
786.9322171912012
 30
0.0
 10
262.3114679587543
 20
785.8779293417068
 30
0.0
 10
265.8621597733116
 20
784.0849702832404
 30
0.0
 10
269.0153272711507
 20
781.6047124734853
 30
0.0
 10
271.6212818957353
 20
778.5376272699474
 30
0.0
 10
273.5662341031077
 20
775.0065683732374
 30
0.0
 10
274.7672550308549
 20
771.1668673876248
 30
0.0
 10
275.1797265116915
 20
767.18522513488
 30
0.0
 10
274.799992303606
 20
763.2203294745117
 30
0.0
 10
273.6581731879153
 20
759.4335909185346
 30
0.0
 10
271.8104822421783
 20
755.9632763650945
 30
0.0
 10
269.3387133945704
 20
752.9323925612099
 30
0.0
 10
266.3446115106542
 20
750.4485367544213
 30
0.0
 10
262.9326820970354
 20
748.5880980315476
 30
0.0
 10
259.234747926526
 20
747.419283852251
 30
0.0
 10
255.3673799050342
 20
746.9808103233771
 30
0.0
 10
251.476304809426
 20
747.2961176776618
 30
0.0
 10
247.6928787838655
 20
748.3670600397099
 30
0.0
 10
244.1641714275653
 20
750.168383391048
 30
0.0
 10
241.0376356907503
 20
752.6464171273474
 30
0.0
 10
238.4410279586221
 20
755.7162691267831
 30
0.0
 10
236.5184143124528
 20
759.2479931689227
 30
0.0
 10
235.2790153174865
 20
763.1064533824936
 30
0.0
 10
235.1251570105049
 20
765.7674021753425
 30
0.0
 10
235.0478797277987
 20
767.1038973972511
 30
0.0
  0
SPLINE
  5
A3
330
1F
100
AcDbEntity
  8
0
  6
Continuous
 62
     7
370
    15
100
AcDbSpline
210
0.0
220
0.0
230
1.0
 70
     8
 71
     3
 72
    12
 73
     8
 74
     0
 42
0.000000001
 43
0.00000001
 40
0.0
 40
0.0
 40
0.0
 40
0.0
 40
0.2499714980307361
 40
0.4999482582008883
 40
0.6666092642532219
 40
0.8332776003114327
 40
1.0
 40
1.0
 40
1.0
 40
1.0
 10
327.9347308495622
 20
658.5090810413787
 30
0.0
 10
327.547426072258
 20
651.7893352054396
 30
0.0
 10
326.7728083645131
 20
638.3497020764761
 30
0.0
 10
325.7402548764113
 20
620.3765101443223
 30
0.0
 10
324.8369933347586
 20
604.6478272344706
 30
0.0
 10
324.0627016531774
 20
591.162754828979
 30
0.0
 10
323.5468351051066
 20
582.2101035962424
 30
0.0
 10
323.2888600038465
 20
577.7330520856378
 30
0.0
  0
SPLINE
  5
A4
330
1F
100
AcDbEntity
  8
0
  6
Continuous
 62
     7
370
    15
100
AcDbSpline
210
0.0
220
0.0
230
1.0
 70
     8
 71
     3
 72
    15
 73
    11
 74
     0
 42
0.000000001
 43
0.00000001
 40
0.0
 40
0.0
 40
0.0
 40
0.0
 40
0.1248383576862519
 40
0.2499675273632797
 40
0.3745099936088623
 40
0.4997677311834904
 40
0.624281979985689
 40
0.7495257693801987
 40
0.8741950811837466
 40
1.0
 40
1.0
 40
1.0
 40
1.0
 10
302.3106487695497
 20
689.918093770387
 30
0.0
 10
304.1196138482836
 20
689.5554268819417
 30
0.0
 10
307.7417580049224
 20
688.8292482695231
 30
0.0
 10
312.8272199579075
 20
686.4879747607148
 30
0.0
 10
317.4292888858994
 20
683.3075066363078
 30
0.0
 10
321.3544309698214
 20
679.3152732243666
 30
0.0
 10
324.4835898997346
 20
674.6662126314967
 30
0.0
 10
326.6736266271892
 20
669.537114613206
 30
0.0
 10
327.9556812958341
 20
664.0787081810475
 30
0.0
 10
327.9417354077376
 20
660.3712264490981
 30
0.0
 10
327.9347308495622
 20
658.5090810413789
 30
0.0
  0
SPLINE
  5
A5
330
1F
100
AcDbEntity
  8
0
  6
Continuous
 62
     7
370
    15
100
AcDbSpline
210
0.0
220
0.0
230
1.0
 70
    24
 71
     3
 72
    11
 73
     7
 74
     0
 42
0.000000001
 43
0.00000001
 40
0.0
 40
0.0
 40
0.0
 40
0.0
 40
0.2501190051004888
 40
0.499979066424402
 40
0.7498137513210437
 40
1.0
 40
1.0
 40
1.0
 40
1.0
 10
218.5825408916911
 20
702.120416557153
 30
0.0
 10
225.472169556519
 20
701.1163394917568
 30
0.0
 10
239.244294175628
 20
699.1092248641686
 30
0.0
 10
260.090788645921
 20
696.0711094576897
 30
0.0
 10
281.1042024418254
 20
693.0086676506497
 30
0.0
 10
295.2385207227341
 20
690.9487678343761
 30
0.0
 10
302.3106487695497
 20
689.918093770387
 30
0.0
  0
SPLINE
  5
A6
330
1F
100
AcDbEntity
  8
0
  6
Continuous
 62
     7
370
    15
100
AcDbSpline
210
0.0
220
0.0
230
1.0
 70
     8
 71
     3
 72
    15
 73
    11
 74
     0
 42
0.000000001
 43
0.00000001
 40
0.0
 40
0.0
 40
0.0
 40
0.0
 40
0.1249376330514466
 40
0.2494577901783601
 40
0.3748042887320501
 40
0.4992574701957339
 40
0.6246306289961481
 40
0.7492103853683246
 40
0.8742326555408523
 40
1.0
 40
1.0
 40
1.0
 40
1.0
 10
190.4808727692821
 20
725.523636786567
 30
0.0
 10
191.0654227017931
 20
724.0008072657158
 30
0.0
 10
192.2325693080768
 20
720.9602367201425
 30
0.0
 10
194.7694282908094
 20
716.7698219886393
 30
0.0
 10
197.7980390196652
 20
712.9698767550766
 30
0.0
 10
201.321899527335
 20
709.6432211638386
 30
0.0
 10
205.2312112974649
 20
706.850302765169
 30
0.0
 10
209.4641565482945
 20
704.6394864014269
 30
0.0
 10
213.9305525493468
 20
702.9863638297719
 30
0.0
 10
217.028809892577
 20
702.409636783442
 30
0.0
 10
218.5825408916911
 20
702.120416557153
 30
0.0
  0
SPLINE
  5
A7
330
1F
100
AcDbEntity
  8
0
  6
Continuous
 62
     7
370
    15
100
AcDbSpline
210
0.0
220
0.0
230
1.0
 70
     8
 71
     3
 72
    15
 73
    11
 74
     0
 42
0.000000001
 43
0.00000001
 40
0.0
 40
0.0
 40
0.0
 40
0.0
 40
0.1253126906535317
 40
0.2498044998513742
 40
0.3741496877463588
 40
0.4990482899911519
 40
0.6247253390302275
 40
0.7497145168393012
 40
0.8745422653156568
 40
1.0
 40
1.0
 40
1.0
 40
1.0
 10
187.6584559267434
 20
805.9674146551444
 30
0.0
 10
186.8711761883002
 20
802.6908716067347
 30
0.0
 10
185.301773917235
 20
796.1592490457567
 30
0.0
 10
183.8472625567379
 20
786.1460683283392
 30
0.0
 10
183.0632297366148
 20
776.0441222729262
 30
0.0
 10
183.0298880183217
 20
765.8402150971436
 30
0.0
 10
183.7368639650313
 20
755.6094576489365
 30
0.0
 10
185.2116393064815
 20
745.435887029823
 30
0.0
 10
187.3781807932214
 20
735.3641986597083
 30
0.0
 10
189.4449080778305
 20
728.8093237717
 30
0.0
 10
190.4808727692821
 20
725.5236367865668
 30
0.0
  0
SPLINE
  5
A8
330
1F
100
AcDbEntity
  8
0
  6
Continuous
 62
     7
370
    15
100
AcDbSpline
210
0.0
220
0.0
230
1.0
 70
     8
 71
     3
 72
    15
 73
    11
 74
     0
 42
0.000000001
 43
0.00000001
 40
0.0
 40
0.0
 40
0.0
 40
0.0
 40
0.1249430022509197
 40
0.2496352022177445
 40
0.3748520349016851
 40
0.4993969411251412
 40
0.6247263663172361
 40
0.7490552207327998
 40
0.8745414775023592
 40
1.0
 40
1.0
 40
1.0
 40
1.0
 10
221.5132185639062
 20
832.0873782373494
 30
0.0
 10
219.5970272607554
 20
831.9976411508217
 30
0.0
 10
215.7684910896036
 20
831.8183471100333
 30
0.0
 10
210.2245786662847
 20
830.3670020829566
 30
0.0
 10
204.9944863969725
 20
828.1221686928073
 30
0.0
 10
200.1902445663524
 20
825.0352835919234
 30
0.0
 10
195.9347407217089
 20
821.2106159738847
 30
0.0
 10
192.3412467182197
 20
816.6926313274072
 30
0.0
 10
189.4400072216651
 20
811.61314819272
 30
0.0
 10
188.252262602101
 20
807.8491871707375
 30
0.0
 10
187.6584559267433
 20
805.9674146551444
 30
0.0
  0
SPLINE
  5
A9
330
1F
100
AcDbEntity
  8
0
  6
Continuous
 62
     7
370
    15
100
AcDbSpline
210
0.0
220
0.0
230
1.0
 70
    24
 71
     3
 72
    22
 73
    18
 74
     0
 42
0.000000001
 43
0.00000001
 40
0.0
 40
0.0
 40
0.0
 40
0.0
 40
0.0718174611236709
 40
0.143283210380014
 40
0.2145315867288984
 40
0.2857413045503002
 40
0.3570579160394201
 40
0.4285906846491315
 40
0.5004007253996249
 40
0.5630750217338286
 40
0.6255221667201988
 40
0.6878146664845617
 40
0.7500233746647631
 40
0.8122349233248974
 40
0.8745615692943245
 40
0.9371279549050329
 40
1.0
 40
1.0
 40
1.0
 40
1.0
 10
581.5132185639061
 20
832.0873782373494
 30
0.0
 10
573.1397960301534
 20
832.0873782373494
 30
0.0
 10
556.4339581498864
 20
832.0873782373494
 30
0.0
 10
531.0296370849856
 20
832.0873782373494
 30
0.0
 10
505.4297636433004
 20
832.0873782373496
 30
0.0
 10
479.63649897082
 20
832.0873782373494
 30
0.0
 10
453.6799756312153
 20
832.0873782373494
 30
0.0
 10
427.5719072469313
 20
832.0873782373494
 30
0.0
 10
402.4777925284895
 20
832.0873782373494
 30
0.0
 10
378.490828664188
 20
832.0873782373496
 30
0.0
 10
355.6894693954903
 20
832.0873782373494
 30
0.0
 10
332.9968276944794
 20
832.0873782373494
 30
0.0
 10
310.4161450992513
 20
832.0873782373494
 30
0.0
 10
287.9575370225958
 20
832.0873782373494
 30
0.0
 10
265.6375986281539
 20
832.0873782373495
 30
0.0
 10
243.4627758213502
 20
832.0873782373494
 30
0.0
 10
228.8416135872694
 20
832.0873782373494
 30
0.0
 10
221.5132185639062
 20
832.0873782373494
 30
0.0
  0
SPLINE
  5
AA
330
1F
100
AcDbEntity
  8
0
  6
Continuous
 62
     7
370
    15
100
AcDbSpline
210
0.0
220
0.0
230
1.0
 70
     8
 71
     3
 72
    15
 73
    11
 74
     0
 42
0.000000001
 43
0.00000001
 40
0.0
 40
0.0
 40
0.0
 40
0.0
 40
0.1248989672041086
 40
0.2497209348632229
 40
0.3747959911725162
 40
0.4996340419898636
 40
0.6247435487825099
 40
0.7493677115542018
 40
0.8747833569161491
 40
1.0
 40
1.0
 40
1.0
 40
1.0
 10
615.367981201069
 20
805.9674146551444
 30
0.0
 10
614.7788868635166
 20
807.8417146054551
 30
0.0
 10
613.6010613619188
 20
811.5891590101858
 30
0.0
 10
610.7036996674477
 20
816.6626889848068
 30
0.0
 10
607.1198485103886
 20
821.1817787161086
 30
0.0
 10
602.8577879326574
 20
825.0189375287113
 30
0.0
 10
598.0624238322602
 20
828.1055189549434
 30
0.0
 10
592.8256258769893
 20
830.3605196943107
 30
0.0
 10
587.2758911473966
 20
831.8118021502135
 30
0.0
 10
583.4330923630926
 20
831.9955681784386
 30
0.0
 10
581.513218563906
 20
832.0873782373494
 30
0.0
  0
SPLINE
  5
AB
330
1F
100
AcDbEntity
  8
0
  6
Continuous
 62
     7
370
    15
100
AcDbSpline
210
0.0
220
0.0
230
1.0
 70
     8
 71
     3
 72
    15
 73
    11
 74
     0
 42
0.000000001
 43
0.00000001
 40
0.0
 40
0.0
 40
0.0
 40
0.0
 40
0.1253286913905742
 40
0.2497155426471104
 40
0.3739506633389578
 40
0.498798051735244
 40
0.6244876636984417
 40
0.7495670942348442
 40
0.8745111366372395
 40
1.0
 40
1.0
 40
1.0
 40
1.0
 10
612.5455643585302
 20
725.5236367865671
 30
0.0
 10
613.580567961486
 20
728.8058940397792
 30
0.0
 10
615.6427971564625
 20
735.345742513414
 30
0.0
 10
617.8035287778055
 20
745.3813583915403
 30
0.0
 10
619.2769859264298
 20
755.4991309921886
 30
0.0
 10
619.9921297199398
 20
765.7079698166896
 30
0.0
 10
619.9683280745843
 20
775.9313363871851
 30
0.0
 10
619.1870781870749
 20
786.0877083943485
 30
0.0
 10
617.7293872460937
 20
796.1378951596085
 30
0.0
 10
616.1562573395207
 20
802.6861595372019
 30
0.0
 10
615.367981201069
 20
805.9674146551444
 30
0.0
  0
SPLINE
  5
AC
330
1F
100
AcDbEntity
  8
0
  6
Continuous
 62
     7
370
    15
100
AcDbSpline
210
0.0
220
0.0
230
1.0
 70
     8
 71
     3
 72
    15
 73
    11
 74
     0
 42
0.000000001
 43
0.00000001
 40
0.0
 40
0.0
 40
0.0
 40
0.0
 40
0.1250954691891244
 40
0.2496344123619166
 40
0.3751411620401939
 40
0.4995703591419637
 40
0.6245499351979187
 40
0.7496469500367735
 40
0.8741733403233929
 40
1.0
 40
1.0
 40
1.0
 40
1.0
 10
584.4438962361212
 20
702.120416557153
 30
0.0
 10
585.9894940798487
 20
702.4064679538734
 30
0.0
 10
589.0738136956409
 20
702.9772981589039
 30
0.0
 10
593.5372110744319
 20
704.6292080222545
 30
0.0
 10
597.766663691208
 20
706.8324729868873
 30
0.0
 10
601.683131202338
 20
709.6261567738745
 30
0.0
 10
605.2042044492242
 20
712.9433904352353
 30
0.0
 10
608.2389248715083
 20
716.7432731543998
 30
0.0
 10
610.7825462316439
 20
720.9395532122546
 30
0.0
 10
611.9558603522514
 20
723.9903272830152
 30
0.0
 10
612.5455643585303
 20
725.523636786567
 30
0.0
  0
SPLINE
  5
AD
330
1F
100
AcDbEntity
  8
0
  6
Continuous
 62
     7
370
    15
100
AcDbSpline
210
0.0
220
0.0
230
1.0
 70
    24
 71
     3
 72
    11
 73
     7
 74
     0
 42
0.000000001
 43
0.00000001
 40
0.0
 40
0.0
 40
0.0
 40
0.0
 40
0.2501844504654327
 40
0.5000199957653734
 40
0.7498787045002164
 40
1.0
 40
1.0
 40
1.0
 40
1.0
 10
500.7157883582626
 20
689.918093770387
 30
0.0
 10
507.7877939433939
 20
690.9487499871199
 30
0.0
 10
521.9219425531558
 20
693.0086250759495
 30
0.0
 10
542.9356696762948
 20
696.0711125465084
 30
0.0
 10
563.783540244007
 20
699.1094285019466
 30
0.0
 10
577.5547000594661
 20
701.1164025214898
 30
0.0
 10
584.4438962361212
 20
702.120416557153
 30
0.0
  0
SPLINE
  5
AE
330
1F
100
AcDbEntity
  8
0
  6
Continuous
 62
     7
370
    15
100
AcDbSpline
210
0.0
220
0.0
230
1.0
 70
     8
 71
     3
 72
    15
 73
    11
 74
     0
 42
0.000000001
 43
0.00000001
 40
0.0
 40
0.0
 40
0.0
 40
0.0
 40
0.1248588076731486
 40
0.2499761431157683
 40
0.3745532304217317
 40
0.4998005208732761
 40
0.6242770335286002
 40
0.7495619611205692
 40
0.8741539404848943
 40
1.0
 40
1.0
 40
1.0
 40
1.0
 10
475.0917062782501
 20
658.5090810413787
 30
0.0
 10
475.0840701420818
 20
660.3571155649397
 30
0.0
 10
475.06878205866
 20
664.0570110801514
 30
0.0
 10
476.3410556038256
 20
669.5000671724822
 30
0.0
 10
478.5276164713677
 20
674.6384106582259
 30
0.0
 10
481.6455622077355
 20
679.2827333552381
 30
0.0
 10
485.5726465937528
 20
683.2867632166184
 30
0.0
 10
490.1641651346833
 20
686.468359443109
 30
0.0
 10
495.2633001572565
 20
688.8227363928656
 30
0.0
 10
498.8922349379164
 20
689.5517577750314
 30
0.0
 10
500.7157883582626
 20
689.918093770387
 30
0.0
  0
SPLINE
  5
AF
330
1F
100
AcDbEntity
  8
0
  6
Continuous
 62
     7
370
    15
100
AcDbSpline
210
0.0
220
0.0
230
1.0
 70
     8
 71
     3
 72
    12
 73
     8
 74
     0
 42
0.000000001
 43
0.00000001
 40
0.0
 40
0.0
 40
0.0
 40
0.0
 40
0.1667223754313849
 40
0.3333906914289282
 40
0.5000516854694865
 40
0.7500284522049662
 40
0.9999999999999999
 40
0.9999999999999999
 40
0.9999999999999999
 40
0.9999999999999999
 10
479.7375931168652
 20
577.7327740230407
 30
0.0
 10
479.4796144232893
 20
582.2098406958903
 30
0.0
 10
478.9637406852704
 20
591.1625223606796
 30
0.0
 10
478.1894427232096
 20
604.6476395593177
 30
0.0
 10
477.2861771502685
 20
620.376375542537
 30
0.0
 10
476.2536233683237
 20
638.3496299175713
 30
0.0
 10
475.4790092795528
 20
651.7893107655398
 30
0.0
 10
475.0917062782501
 20
658.5090810413787
 30
0.0
  0
SPLINE
  5
B0
330
1F
100
AcDbEntity
  8
0
  6
Continuous
 62
     7
370
    15
100
AcDbSpline
210
0.0
220
0.0
230
1.0
 70
     8
 71
     3
 72
    12
 73
     8
 74
     0
 42
0.000000001
 43
0.00000001
 40
0.0
 40
0.0
 40
0.0
 40
0.0
 40
0.2010946504065013
 40
0.4020259239636514
 40
0.6017330856143639
 40
0.8008024099074527
 40
1.0
 40
1.0
 40
1.0
 40
1.0
 10
482.5954085671921
 20
534.765647275777
 30
0.0
 10
482.3832250594997
 20
537.4477956854529
 30
0.0
 10
481.9590304299687
 20
542.8099134266652
 30
0.0
 10
481.3628163091658
 20
551.3489496268376
 30
0.0
 10
480.7953579278899
 20
560.038825800086
 30
0.0
 10
480.2539418385667
 20
568.844504132396
 30
0.0
 10
479.909854890932
 20
574.7673887605099
 30
0.0
 10
479.737756008812
 20
577.7297848363588
 30
0.0
  0
SPLINE
  5
B1
330
1F
100
AcDbEntity
  8
0
  6
Continuous
 62
     7
370
    15
100
AcDbSpline
210
0.0
220
0.0
230
1.0
 70
     8
 71
     3
 72
    10
 73
     6
 74
     0
 42
0.000000001
 43
0.00000001
 40
0.0
 40
0.0
 40
0.0
 40
0.0
 40
0.3330768012687974
 40
0.6654158796728645
 40
1.0
 40
1.0
 40
1.0
 40
1.0
 10
484.0534928705038
 20
519.1197137092694
 30
0.0
 10
483.8885474753874
 20
520.7024968503684
 30
0.0
 10
483.5590220182821
 20
523.8645574686818
 30
0.0
 10
483.070171728046
 20
529.1079031444935
 30
0.0
 10
482.7540177071506
 20
532.8755049800809
 30
0.0
 10
482.5954085671921
 20
534.765647275777
 30
0.0
  0
SPLINE
  5
B2
330
1F
100
AcDbEntity
  8
0
  6
Continuous
 62
     7
370
    15
100
AcDbSpline
210
0.0
220
0.0
230
1.0
 70
     8
 71
     3
 72
    15
 73
    11
 74
     0
 42
0.000000001
 43
0.00000001
 40
0.0
 40
0.0
 40
0.0
 40
0.0
 40
0.1249075696527679
 40
0.2500099103251108
 40
0.3747959867367061
 40
0.5000718115166186
 40
0.6246669043886223
 40
0.7499715715637858
 40
0.8743952744043055
 40
1.0
 40
1.0
 40
1.0
 40
1.0
 10
511.5126144508453
 20
503.1259893690672
 30
0.0
 10
509.7543645628522
 20
503.2433847860949
 30
0.0
 10
506.2351231105664
 20
503.4783586773108
 30
0.0
 10
501.2369328178485
 20
504.37354737953
 30
0.0
 10
496.6379670026541
 20
505.6789239038588
 30
0.0
 10
492.5899625520518
 20
507.4424310699942
 30
0.0
 10
489.1885704839948
 20
509.6672346564892
 30
0.0
 10
486.5708273961106
 20
512.3600804493307
 30
0.0
 10
484.7270529398571
 20
515.4893549253774
 30
0.0
 10
484.2787188037721
 20
517.9057893951606
 30
0.0
 10
484.0534928705038
 20
519.1197137092693
 30
0.0
  0
LINE
  5
B3
330
1F
100
AcDbEntity
  8
0
  6
Continuous
 62
     7
370
    15
100
AcDbLine
 10
564.3474348454
 20
501.1985986963
 30
0.0
 11
511.5126144508
 21
503.1259893691
 31
0.0
  0
LINE
  5
B4
330
1F
100
AcDbEntity
  8
0
  6
Continuous
 62
     7
370
    15
100
AcDbLine
 10
569.2868818651
 20
500.9605632238
 30
0.0
 11
564.3474348454
 21
501.1985986963
 31
0.0
  0
SPLINE
  5
B5
330
1F
100
AcDbEntity
  8
0
  6
Continuous
 62
     7
370
    15
100
AcDbSpline
210
0.0
220
0.0
230
1.0
 70
     8
 71
     3
 72
    12
 73
     8
 74
     0
 42
0.000000001
 43
0.00000001
 40
0.0
 40
0.0
 40
0.0
 40
0.0
 40
0.0594986346823287
 40
0.2942917384378723
 40
0.5298459087806618
 40
0.76443260999846
 40
1.0
 40
1.0
 40
1.0
 40
1.0
 10
593.3665500427738
 20
497.5475316583929
 30
0.0
 10
593.04492462748
 20
497.6034859011591
 30
0.0
 10
591.4541032061487
 20
497.8802463926315
 30
0.0
 10
587.6713902901939
 20
498.5628210990553
 30
0.0
 10
582.1582660263637
 20
499.4877071677912
 30
0.0
 10
575.9759786826872
 20
500.3879301976792
 30
0.0
 10
571.5196792514715
 20
500.7694202998672
 30
0.0
 10
569.2868818650778
 20
500.960563223777
 30
0.0
  0
SPLINE
  5
B6
330
1F
100
AcDbEntity
  8
0
  6
Continuous
 62
     7
370
    15
100
AcDbSpline
210
0.0
220
0.0
230
1.0
 70
     8
 71
     3
 72
    13
 73
     9
 74
     0
 42
0.000000001
 43
0.00000001
 40
0.0
 40
0.0
 40
0.0
 40
0.0
 40
0.1586638689440778
 40
0.3173451775938751
 40
0.4760403948298477
 40
0.6347443566536506
 40
0.7934449063305066
 40
1.0
 40
1.0
 40
1.0
 40
1.0
 10
601.513225249003
 20
494.4536790317113
 30
0.0
 10
601.5132249994202
 20
495.1797356057251
 30
0.0
 10
601.5132245002275
 20
496.6319285590229
 30
0.0
 10
601.5132237515127
 20
497.680861940808
 30
0.0
 10
601.5132230027913
 20
498.2697419110716
 30
0.0
 10
601.513222254099
 20
498.5661676196581
 30
0.0
 10
601.5132214300959
 20
498.7226550291902
 30
0.0
 10
601.5132208556963
 20
498.7062094531117
 30
0.0
 10
601.5132205308687
 20
498.696909343533
 30
0.0
  0
SPLINE
  5
B7
330
1F
100
AcDbEntity
  8
0
  6
Continuous
 62
     7
370
    15
100
AcDbSpline
210
0.0
220
0.0
230
1.0
 70
     8
 71
     3
 72
    20
 73
    16
 74
     0
 42
0.000000001
 43
0.00000001
 40
0.0
 40
0.0
 40
0.0
 40
0.0
 40
0.0626364884971816
 40
0.1247397382324264
 40
0.1872131023981177
 40
0.2500143218218205
 40
0.3332799457111471
 40
0.4169341654700874
 40
0.5001350814568852
 40
0.5832027959985117
 40
0.6668265766459366
 40
0.7496640754664592
 40
0.8324243388566409
 40
0.916153135446807
 40
1.0
 40
1.0
 40
1.0
 40
1.0
 10
546.6351697834176
 20
465.8021603935971
 30
0.0
 10
548.5729859903386
 20
466.0233218077326
 30
0.0
 10
552.4321213313106
 20
466.4637618382687
 30
0.0
 10
558.0070436595108
 20
467.7659194822222
 30
0.0
 10
563.3495442359529
 20
469.4130702135012
 30
0.0
 10
568.9846301809994
 20
471.5748893233692
 30
0.0
 10
574.780550965149
 20
474.2254539351281
 30
0.0
 10
580.5473040521099
 20
477.2752632444322
 30
0.0
 10
585.7394802822004
 20
480.3530414467762
 30
0.0
 10
590.3174810621523
 20
483.3593428826186
 30
0.0
 10
594.2154926262677
 20
486.1939631109972
 30
0.0
 10
597.3748733216437
 20
488.7726607600619
 30
0.0
 10
599.7062003174397
 20
491.0348380564442
 30
0.0
 10
601.223032013027
 20
492.984477905515
 30
0.0
 10
601.4164442897661
 20
493.9637150042999
 30
0.0
 10
601.5132185639061
 20
494.4536785218363
 30
0.0
  0
SPLINE
  5
B8
330
1F
100
AcDbEntity
  8
0
  6
Continuous
 62
     7
370
    15
100
AcDbSpline
210
0.0
220
0.0
230
1.0
 70
     8
 71
     3
 72
    16
 73
    12
 74
     0
 42
0.000000001
 43
0.00000001
 40
0.0
 40
0.0
 40
0.0
 40
0.0
 40
0.1120327533868409
 40
0.2239667787226176
 40
0.335862665475669
 40
0.447807893447628
 40
0.5598943495341676
 40
0.6699569533385886
 40
0.7799385002248768
 40
0.8899328481650125
 40
1.0
 40
1.0
 40
1.0
 40
1.0
 10
256.3912673443945
 20
465.8030358821943
 30
0.0
 10
267.1889334368059
 20
464.9159197541354
 30
0.0
 10
288.7747502567277
 20
463.1424692626689
 30
0.0
 10
321.2410662816746
 20
461.0177827265615
 30
0.0
 10
353.7572460531143
 20
459.4672479202792
 30
0.0
 10
386.3350760534461
 20
458.6650930893153
 30
0.0
 10
418.750379086128
 20
458.6985650181931
 30
0.0
 10
450.9577441235053
 20
459.5385651909241
 30
0.0
 10
482.9162141626941
 20
461.0841780209428
 30
0.0
 10
514.8178247773402
 20
463.1881601647674
 30
0.0
 10
536.0270492016692
 20
464.9306348271853
 30
0.0
 10
546.6351697834177
 20
465.8021603935972
 30
0.0
  0
SPLINE
  5
B9
330
1F
100
AcDbEntity
  8
0
  6
Continuous
 62
     7
370
    15
100
AcDbSpline
210
0.0
220
0.0
230
1.0
 70
     8
 71
     3
 72
    20
 73
    16
 74
     0
 42
0.000000001
 43
0.00000001
 40
0.0
 40
0.0
 40
0.0
 40
0.0
 40
0.0833308546512798
 40
0.1662149913810305
 40
0.2498230163154902
 40
0.3329310723557964
 40
0.4161653192719568
 40
0.4996939864731081
 40
0.5826798997358724
 40
0.6660730570957989
 40
0.7494529990035695
 40
0.811703327571066
 40
0.8743381284304493
 40
0.937173338182865
 40
1.0
 40
1.0
 40
1.0
 40
1.0
 10
201.5132185639062
 20
494.4514659956955
 30
0.0
 10
201.6085084024853
 20
493.9648415845598
 30
0.0
 10
201.7985772523056
 20
492.9942014460275
 30
0.0
 10
203.3027392975797
 20
491.0525327403378
 30
0.0
 10
205.6260511106292
 20
488.791667946736
 30
0.0
 10
208.7906544736053
 20
486.2071041187802
 30
0.0
 10
212.6924301778007
 20
483.3695265299776
 30
0.0
 10
217.2630905705843
 20
480.3668152751591
 30
0.0
 10
222.4522823427889
 20
477.2893982337571
 30
0.0
 10
228.2094661486932
 20
474.2460025940579
 30
0.0
 10
233.9837501936391
 20
471.6020602351443
 30
0.0
 10
239.6059668001404
 20
469.4387559533392
 30
0.0
 10
244.9550673311602
 20
467.7848120421353
 30
0.0
 10
250.5603755537144
 20
466.4707945994179
 30
0.0
 10
254.4477248909451
 20
466.0256120270062
 30
0.0
 10
256.391267344394
 20
465.8030358821943
 30
0.0
  0
SPLINE
  5
BA
330
1F
100
AcDbEntity
  8
0
  6
Continuous
 62
     7
370
    15
100
AcDbSpline
210
0.0
220
0.0
230
1.0
 70
     8
 71
     3
 72
    12
 73
     8
 74
     0
 42
0.000000001
 43
0.00000001
 40
0.0
 40
0.0
 40
0.0
 40
0.0
 40
0.3762912957841648
 40
0.5322364972609646
 40
0.6881710974213833
 40
0.8440942756800873
 40
1.0
 40
1.0
 40
1.0
 40
1.0
 10
201.5132107498094
 20
498.7062565717833
 30
0.0
 10
201.5132084026467
 20
498.702610509849
 30
0.0
 10
201.5132050827569
 20
498.6974534220967
 30
0.0
 10
201.5132007905168
 20
498.2428999277737
 30
0.0
 10
201.5131978724543
 20
497.6474560319101
 30
0.0
 10
201.5131949545052
 20
496.5965523552584
 30
0.0
 10
201.5131930089848
 20
495.166469449985
 30
0.0
 10
201.5131920362792
 20
494.4514680202249
 30
0.0
  0
SPLINE
  5
BB
330
1F
100
AcDbEntity
  8
0
  6
Continuous
 62
     7
370
    15
100
AcDbSpline
210
0.0
220
0.0
230
1.0
 70
     8
 71
     3
 72
    12
 73
     8
 74
     0
 42
0.000000001
 43
0.00000001
 40
0.0
 40
0.0
 40
0.0
 40
0.0
 40
0.2343296663840433
 40
0.4698595015644729
 40
0.704535539128013
 40
0.9397926295111507
 40
1.0
 40
1.0
 40
1.0
 40
1.0
 10
233.7235872287489
 20
500.9621801758202
 30
0.0
 10
231.5040073405614
 20
500.7713705755974
 30
0.0
 10
227.0534795177757
 20
500.3887741035505
 30
0.0
 10
220.8787615081522
 20
499.4890067017781
 30
0.0
 10
215.3626564577301
 20
498.5619265228883
 30
0.0
 10
211.5784078073501
 20
497.878301264691
 30
0.0
 10
209.9804159729014
 20
497.6001102336801
 30
0.0
 10
209.6547900545393
 20
497.5434227037439
 30
0.0
  0
LINE
  5
BC
330
1F
100
AcDbEntity
  8
0
  6
Continuous
 62
     7
370
    15
100
AcDbLine
 10
238.6790022824
 20
501.2019049746
 30
0.0
 11
233.7235872287
 21
500.9621801758
 31
0.0
  0
LINE
  5
BD
330
1F
100
AcDbEntity
  8
0
  6
Continuous
 62
     7
370
    15
100
AcDbLine
 10
291.513822677
 20
503.1263259416
 30
0.0
 11
238.6790022824
 21
501.2019049746
 31
0.0
  0
SPLINE
  5
BE
330
1F
100
AcDbEntity
  8
0
  6
Continuous
 62
     7
370
    15
100
AcDbSpline
210
0.0
220
0.0
230
1.0
 70
     8
 71
     3
 72
    15
 73
    11
 74
     0
 42
0.000000001
 43
0.00000001
 40
0.0
 40
0.0
 40
0.0
 40
0.0
 40
0.1249074390094517
 40
0.2500098619615485
 40
0.3747958436944946
 40
0.5000719097253559
 40
0.624666727450523
 40
0.7499715038175803
 40
0.874394895100755
 40
1.0
 40
1.0
 40
1.0
 40
1.0
 10
291.513822676967
 20
503.1263259416048
 30
0.0
 10
293.2720798877411
 20
503.2439002757765
 30
0.0
 10
296.7913389970826
 20
503.4792324808844
 30
0.0
 10
301.7895453054314
 20
504.3745160121605
 30
0.0
 10
306.3885034448705
 20
505.6798301703158
 30
0.0
 10
310.4364870073809
 20
507.443184248235
 30
0.0
 10
313.8378662502939
 20
509.6678357503744
 30
0.0
 10
316.4556032142524
 20
512.3605658933569
 30
0.0
 10
318.2993817285949
 20
515.4897775681852
 30
0.0
 10
318.7477170895801
 20
517.906202820251
 30
0.0
 10
318.9729442573085
 20
519.1201258406313
 30
0.0
  0
SPLINE
  5
BF
330
1F
100
AcDbEntity
  8
0
  6
Continuous
 62
     7
370
    15
100
AcDbSpline
210
0.0
220
0.0
230
1.0
 70
     8
 71
     3
 72
    10
 73
     6
 74
     0
 42
0.000000001
 43
0.00000001
 40
0.0
 40
0.0
 40
0.0
 40
0.0
 40
0.333077074692651
 40
0.6654162208656147
 40
1.0
 40
1.0
 40
1.0
 40
1.0
 10
318.9729442573084
 20
519.1201258406313
 30
0.0
 10
319.1378840466197
 20
520.7028497324727
 30
0.0
 10
319.4673982029906
 20
523.8647910091416
 30
0.0
 10
319.9562319564453
 20
529.1079226360267
 30
0.0
 10
320.2723758449899
 20
532.8753657104202
 30
0.0
 10
320.4309798050065
 20
534.765427205792
 30
0.0
  0
SPLINE
  5
C0
330
1F
100
AcDbEntity
  8
0
  6
Continuous
 62
     7
370
    15
100
AcDbSpline
210
0.0
220
0.0
230
1.0
 70
     8
 71
     3
 72
    12
 73
     8
 74
     0
 42
0.000000001
 43
0.00000001
 40
0.0
 40
0.0
 40
0.0
 40
0.0
 40
0.2010946341189831
 40
0.4020258790357041
 40
0.601732955057195
 40
0.8008022906970038
 40
0.9999999999999999
 40
0.9999999999999999
 40
0.9999999999999999
 40
0.9999999999999999
 10
320.4309798050065
 20
534.765427205792
 30
0.0
 10
320.6431811109317
 20
537.4477800524863
 30
0.0
 10
321.0674113094195
 20
542.8103063366941
 30
0.0
 10
321.6636725621823
 20
551.3500408713326
 30
0.0
 10
322.2311739266013
 20
560.0406325638359
 30
0.0
 10
322.772629656825
 20
568.8470395459414
 30
0.0
 10
323.116741587785
 20
574.7704117980065
 30
0.0
 10
323.2888530121708
 20
577.733052566162
 30
0.0
  0
SPLINE
  5
C1
330
1F
100
AcDbEntity
  8
0
  6
Continuous
 62
     7
370
    15
100
AcDbSpline
210
0.0
220
0.0
230
1.0
 70
     8
 71
     3
 72
    15
 73
    11
 74
     0
 42
0.000000001
 43
0.00000001
 40
0.0
 40
0.0
 40
0.0
 40
0.0
 40
0.1249321707585292
 40
0.2498212265598403
 40
0.3747468490326305
 40
0.4998341501962247
 40
0.6250385506447564
 40
0.7500710696614009
 40
0.8750341202674163
 40
1.0
 40
1.0
 40
1.0
 40
1.0
 10
256.3975424135784
 20
458.7677716725015
 30
0.0
 10
268.4497252573691
 20
457.9161861947965
 30
0.0
 10
292.5499316531961
 20
456.2133091274315
 30
0.0
 10
328.7950162958055
 20
454.3027445512392
 30
0.0
 10
365.1030980207977
 20
453.0235928094693
 30
0.0
 10
401.4756887947572
 20
452.5870156906638
 30
0.0
 10
437.8585116763817
 20
453.0283193011049
 30
0.0
 10
474.1957810875977
 20
454.2991356160649
 30
0.0
 10
510.4616221438579
 20
456.2122274522384
 30
0.0
 10
534.5722372958095
 20
457.9153636895182
 30
0.0
 10
546.6276813345426
 20
458.7669414476744
 30
0.0
  0
SPLINE
  5
C2
330
1F
100
AcDbEntity
  8
0
  6
Continuous
 62
     7
370
    15
100
AcDbSpline
210
0.0
220
0.0
230
1.0
 70
     8
 71
     3
 72
    21
 73
    17
 74
     0
 42
0.000000001
 43
0.00000001
 40
0.0
 40
0.0
 40
0.0
 40
0.0
 40
0.0654416661861111
 40
0.1298641123915758
 40
0.1941048209408086
 40
0.2580853886433779
 40
0.3420481914052742
 40
0.4256162837794482
 40
0.508168680171062
 40
0.5901129732712193
 40
0.6721710145541492
 40
0.7532535761449234
 40
0.8140924864900675
 40
0.8756122978180905
 40
0.9376949808199375
 40
1.0
 40
1.0
 40
1.0
 40
1.0
 10
546.6276813345426
 20
458.7669414476744
 30
0.0
 10
548.5639029899945
 20
458.959578287329
 30
0.0
 10
552.4061906536908
 20
459.3418517478569
 30
0.0
 10
557.9807586656316
 20
460.4825178179595
 30
0.0
 10
563.3244074136239
 20
461.9298436036635
 30
0.0
 10
568.9577729079377
 20
463.830650015361
 30
0.0
 10
574.766805942901
 20
466.1653217388517
 30
0.0
 10
580.5715077646666
 20
468.8736995593667
 30
0.0
 10
585.8127761774743
 20
471.6316134824461
 30
0.0
 10
590.453493672376
 20
474.3470898751086
 30
0.0
 10
594.437323744845
 20
476.9279842328164
 30
0.0
 10
597.4271202020108
 20
479.0986375892381
 30
0.0
 10
599.5584564153154
 20
480.8790759678182
 30
0.0
 10
600.9879877019146
 20
482.3206405563108
 30
0.0
 10
601.9426121641958
 20
483.6000409197842
 30
0.0
 10
602.108466411228
 20
484.2832174360258
 30
0.0
 10
602.1915417624177
 20
484.6254162643758
 30
0.0
  0
SPLINE
  5
C3
330
1F
100
AcDbEntity
  8
0
  6
Continuous
 62
     7
370
    15
100
AcDbSpline
210
0.0
220
0.0
230
1.0
 70
     8
 71
     3
 72
    21
 73
    17
 74
     0
 42
0.000000001
 43
0.00000001
 40
0.0
 40
0.0
 40
0.0
 40
0.0
 40
0.0620114980778376
 40
0.123346191841108
 40
0.1846385829315222
 40
0.2462503306770945
 40
0.3276023712014989
 40
0.4092809037691303
 40
0.4916803335025944
 40
0.5740180683084853
 40
0.6573189753769386
 40
0.7413900396139025
 40
0.8047968457901369
 40
0.8691902873688209
 40
0.9343637614422932
 40
1.0
 40
1.0
 40
1.0
 40
1.0
 10
200.8343326609583
 20
484.6232490415229
 30
0.0
 10
200.9164926741446
 20
484.2828580264649
 30
0.0
 10
201.0799159917917
 20
483.6057910833048
 30
0.0
 10
202.0226057804064
 20
482.3370845575013
 30
0.0
 10
203.4423806282767
 20
480.9003697145266
 30
0.0
 10
205.5737188543338
 20
479.1154845307695
 30
0.0
 10
208.5693169819694
 20
476.9398025390158
 30
0.0
 10
212.5574525884883
 20
474.3562544049697
 30
0.0
 10
217.1912474921041
 20
471.6439411881707
 30
0.0
 10
222.4291743531089
 20
468.8863106474664
 30
0.0
 10
228.2246588959767
 20
466.1842547224744
 30
0.0
 10
234.0108164939085
 20
463.8547897373601
 30
0.0
 10
239.6312675244641
 20
461.9526013259779
 30
0.0
 10
244.981319434223
 20
460.4991836558623
 30
0.0
 10
250.5858017971104
 20
459.3480918390243
 30
0.0
 10
254.4557320009457
 20
458.9616674115545
 30
0.0
 10
256.3975424135776
 20
458.7677716725015
 30
0.0
  0
SPLINE
  5
C4
330
1F
100
AcDbEntity
  8
0
  6
Continuous
 62
     7
370
    15
100
AcDbSpline
210
0.0
220
0.0
230
1.0
 70
     8
 71
     3
 72
    22
 73
    18
 74
     0
 42
0.000000001
 43
0.00000001
 40
0.0
 40
0.0
 40
0.0
 40
0.0
 40
0.058864315027033
 40
0.1270310833105988
 40
0.1954337878950175
 40
0.2635251970222172
 40
0.3318541640588652
 40
0.3995592220385884
 40
0.467410922327654
 40
0.5348422709575213
 40
0.602026737976088
 40
0.669338738335726
 40
0.73630200370149
 40
0.8036327773964612
 40
0.8710491893801467
 40
0.9385571146737723
 40
1.0
 40
1.0
 40
1.0
 40
1.0
 10
245.051676395894
 20
784.3265729320965
 30
0.0
 10
246.1096994683755
 20
784.704091448065
 30
0.0
 10
248.39294725616
 20
785.5187885362966
 30
0.0
 10
252.1533803021976
 20
785.9025698845657
 30
0.0
 10
256.1120900033036
 20
785.6205989916274
 30
0.0
 10
259.9868614039648
 20
784.5601473561745
 30
0.0
 10
263.6018740061903
 20
782.7667057951877
 30
0.0
 10
266.8139408760576
 20
780.2851283031546
 30
0.0
 10
269.4697529698359
 20
777.2169875255092
 30
0.0
 10
271.4527831920565
 20
773.6842060452933
 30
0.0
 10
272.6774943833203
 20
769.8427306003073
 30
0.0
 10
273.0980218055149
 20
765.8595762432947
 30
0.0
 10
272.7095286592854
 20
761.8956835210686
 30
0.0
 10
271.5466072937295
 20
758.1079320987287
 30
0.0
 10
269.6542112028098
 20
754.6533798799225
 30
0.0
 10
267.2460851417009
 20
751.6832509512254
 30
0.0
 10
265.2608540115666
 20
750.1927808734368
 30
0.0
 10
264.3149248771272
 20
749.4825970317725
 30
0.0
  0
SPLINE
  5
C5
330
1F
100
AcDbEntity
  8
0
  6
Continuous
 62
     7
370
    15
100
AcDbSpline
210
0.0
220
0.0
230
1.0
 70
     8
 71
     3
 72
    10
 73
     6
 74
     0
 42
0.000000001
 43
0.00000001
 40
0.0
 40
0.0
 40
0.0
 40
0.0
 40
0.3228032242123378
 40
0.6638497587916152
 40
1.0
 40
1.0
 40
1.0
 40
1.0
 10
481.5318314967042
 20
549.0459744885746
 30
0.0
 10
481.3824317899667
 20
551.9369125500169
 30
0.0
 10
481.0751890121933
 20
557.8821708089852
 30
0.0
 10
480.6419835545501
 20
567.0332969521639
 30
0.0
 10
480.3618296901871
 20
573.2822343928848
 30
0.0
 10
480.2227655474619
 20
576.3841124630384
 30
0.0
  0
SPLINE
  5
C6
330
1F
100
AcDbEntity
  8
0
  6
Continuous
 62
     7
370
    15
100
AcDbSpline
210
0.0
220
0.0
230
1.0
 70
     8
 71
     3
 72
    12
 73
     8
 74
     0
 42
0.000000001
 43
0.00000001
 40
0.0
 40
0.0
 40
0.0
 40
0.0
 40
0.2049283124859686
 40
0.4060936429683146
 40
0.60505038375449
 40
0.8028164325219233
 40
1.0
 40
1.0
 40
1.0
 40
1.0
 10
480.2226368306264
 20
576.3872193464207
 30
0.0
 10
479.9762745137639
 20
581.9076096234996
 30
0.0
 10
479.4880736910902
 20
592.8470223919493
 30
0.0
 10
478.7208518735761
 20
609.2134686167379
 30
0.0
 10
477.9178807178532
 20
625.3749823377648
 30
0.0
 10
477.0816112726107
 20
641.4171002454711
 30
0.0
 10
476.494844237534
 20
652.0557878266758
 30
0.0
 10
476.2018934091352
 20
657.3672865198221
 30
0.0
  0
SPLINE
  5
C7
330
1F
100
AcDbEntity
  8
0
  6
Continuous
 62
     7
370
    15
100
AcDbSpline
210
0.0
220
0.0
230
1.0
 70
     8
 71
     3
 72
    15
 73
    11
 74
     0
 42
0.000000001
 43
0.00000001
 40
0.0
 40
0.0
 40
0.0
 40
0.0
 40
0.1230320301350533
 40
0.2468105540894975
 40
0.3706370061619413
 40
0.4957541896417051
 40
0.6206468036880205
 40
0.7468111306952238
 40
0.8726486391968162
 40
1.0
 40
1.0
 40
1.0
 40
1.0
 10
476.2018934091352
 20
657.3672865198221
 30
0.0
 10
476.1995766947545
 20
659.1974332657427
 30
0.0
 10
476.1949292093856
 20
662.8688311279896
 30
0.0
 10
477.5009077697715
 20
668.2738317373518
 30
0.0
 10
479.7336463596539
 20
673.3865380533197
 30
0.0
 10
482.9103684678628
 20
678.0160883144517
 30
0.0
 10
486.9078693522399
 20
682.0129012476734
 30
0.0
 10
491.5798680141298
 20
685.1913248420115
 30
0.0
 10
496.7667148464029
 20
687.5454971492601
 30
0.0
 10
500.4545154390556
 20
688.277339440653
 30
0.0
 10
502.30944067781
 20
688.645448480984
 30
0.0
  0
SPLINE
  5
C8
330
1F
100
AcDbEntity
  8
0
  6
Continuous
 62
     7
370
    15
100
AcDbSpline
210
0.0
220
0.0
230
1.0
 70
     8
 71
     3
 72
    11
 73
     7
 74
     0
 42
0.000000001
 43
0.00000001
 40
0.0
 40
0.0
 40
0.0
 40
0.0
 40
0.2507196054121988
 40
0.5010685723801175
 40
0.75090789041506
 40
0.9999999999999999
 40
0.9999999999999999
 40
0.9999999999999999
 40
0.9999999999999999
 10
502.3094406778101
 20
688.6454484809841
 30
0.0
 10
509.5081143708493
 20
689.685878372483
 30
0.0
 10
523.8948199676104
 20
691.7652000894182
 30
0.0
 10
545.2673724860614
 20
694.8630155796262
 30
0.0
 10
566.4259067778565
 20
697.9419837178154
 30
0.0
 10
580.3794782083403
 20
700.0046019469336
 30
0.0
 10
587.3458153670234
 20
701.0343665548885
 30
0.0
  0
SPLINE
  5
C9
330
1F
100
AcDbEntity
  8
0
  6
Continuous
 62
     7
370
    15
100
AcDbSpline
210
0.0
220
0.0
230
1.0
 70
     8
 71
     3
 72
    15
 73
    11
 74
     0
 42
0.000000001
 43
0.00000001
 40
0.0
 40
0.0
 40
0.0
 40
0.0
 40
0.1257415030306432
 40
0.2508215945005605
 40
0.3767228249192363
 40
0.5013396269494456
 40
0.6262584537873033
 40
0.7510292537878174
 40
0.8749910249224085
 40
0.9999999999999999
 40
0.9999999999999999
 40
0.9999999999999999
 40
0.9999999999999999
 10
587.3458153670234
 20
701.0343665548885
 30
0.0
 10
588.9047168636574
 20
701.3262110416331
 30
0.0
 10
592.0143198955199
 20
701.9083648869996
 30
0.0
 10
596.5138215622906
 20
703.5699298278014
 30
0.0
 10
600.7770546760207
 20
705.775971397366
 30
0.0
 10
604.7258093309158
 20
708.5641850270448
 30
0.0
 10
608.2780185372579
 20
711.8685029216141
 30
0.0
 10
611.3427452261719
 20
715.6499510556575
 30
0.0
 10
613.9144015586411
 20
719.8236194809801
 30
0.0
 10
615.1057616102925
 20
722.8611296373517
 30
0.0
 10
615.7039471452243
 20
724.386272800606
 30
0.0
  0
SPLINE
  5
CA
330
1F
100
AcDbEntity
  8
0
  6
Continuous
 62
     7
370
    15
100
AcDbSpline
210
0.0
220
0.0
230
1.0
 70
     8
 71
     3
 72
    15
 73
    11
 74
     0
 42
0.000000001
 43
0.00000001
 40
0.0
 40
0.0
 40
0.0
 40
0.0
 40
0.1249037694717055
 40
0.2488877559298681
 40
0.3728280735369134
 40
0.4975607728503813
 40
0.6233623369656758
 40
0.7487506004082428
 40
0.8741787844425116
 40
1.0
 40
1.0
 40
1.0
 40
1.0
 10
615.7039471452243
 20
724.3862728006061
 30
0.0
 10
616.7545210490306
 20
727.6497094122078
 30
0.0
 10
618.8479325006044
 20
734.1525509062343
 30
0.0
 10
621.0443193574308
 20
744.1451433397358
 30
0.0
 10
622.5437460415739
 20
754.2327163068965
 30
0.0
 10
623.2729508497425
 20
764.4283396824475
 30
0.0
 10
623.250671665696
 20
774.6553329351399
 30
0.0
 10
622.4607365864346
 20
784.8302654663264
 30
0.0
 10
620.991370037129
 20
794.9039125784683
 30
0.0
 10
619.4087130054634
 20
801.4686603405921
 30
0.0
 10
618.6161466078588
 20
804.756168866387
 30
0.0
  0
SPLINE
  5
CB
330
1F
100
AcDbEntity
  8
0
  6
Continuous
 62
     7
370
    15
100
AcDbSpline
210
0.0
220
0.0
230
1.0
 70
     8
 71
     3
 72
    13
 73
     9
 74
     0
 42
0.000000001
 43
0.00000001
 40
0.0
 40
0.0
 40
0.0
 40
0.0
 40
0.1775676872780886
 40
0.3549213812072617
 40
0.5327634365886349
 40
0.7106456241635727
 40
0.889364663643672
 40
1.0
 40
1.0
 40
1.0
 40
1.0
 10
618.6161466078588
 20
804.756168866387
 30
0.0
 10
618.024686271392
 20
806.6301215082832
 30
0.0
 10
616.8424783890574
 20
810.3757684228434
 30
0.0
 10
613.9289087730748
 20
815.4383414016904
 30
0.0
 10
610.3258095871488
 20
819.9509680523826
 30
0.0
 10
606.0230864851219
 20
823.7494946598
 30
0.0
 10
601.8414284192222
 20
826.5262099366619
 30
0.0
 10
598.9699940822493
 20
827.6673787884138
 30
0.0
 10
597.8720943087353
 20
828.1037074231131
 30
0.0
  0
SPLINE
  5
CC
330
1F
100
AcDbEntity
  8
0
  6
Continuous
 62
     7
370
    15
100
AcDbSpline
210
0.0
220
0.0
230
1.0
 70
     8
 71
     3
 72
    13
 73
     9
 74
     0
 42
0.000000001
 43
0.00000001
 40
0.0
 40
0.0
 40
0.0
 40
0.0
 40
0.1097980586118711
 40
0.2878082944373032
 40
0.4664825961942255
 40
0.643307865775124
 40
0.8216218064389065
 40
1.0
 40
1.0
 40
1.0
 40
1.0
 10
205.1464374522676
 20
828.0977077194722
 30
0.0
 10
204.0564832090633
 20
827.6657744332814
 30
0.0
 10
201.1994393257991
 20
826.5335687824627
 30
0.0
 10
197.0230137304212
 20
823.7654863144679
 30
0.0
 10
192.7238925052371
 20
819.9805718158382
 30
0.0
 10
189.1100499720712
 20
815.468799523085
 30
0.0
 10
186.1930182822435
 20
810.3999800905327
 30
0.0
 10
185.0015013692513
 20
806.6378112469657
 30
0.0
 10
184.4056355955389
 20
804.7563879751976
 30
0.0
  0
SPLINE
  5
CD
330
1F
100
AcDbEntity
  8
0
  6
Continuous
 62
     7
370
    15
100
AcDbSpline
210
0.0
220
0.0
230
1.0
 70
     8
 71
     3
 72
    15
 73
    11
 74
     0
 42
0.000000001
 43
0.00000001
 40
0.0
 40
0.0
 40
0.0
 40
0.0
 40
0.125641889821648
 40
0.2506159471501181
 40
0.3752760459207752
 40
0.5002869960045662
 40
0.6258535215687776
 40
0.7505470062939724
 40
0.8749687789874986
 40
1.0
 40
1.0
 40
1.0
 40
1.0
 10
184.4056355955392
 20
804.7563879751975
 30
0.0
 10
183.6146536993044
 20
801.4735750155937
 30
0.0
 10
182.0368942642555
 20
794.9253984452183
 30
0.0
 10
180.5725150026917
 20
784.8885771866748
 30
0.0
 10
179.7809022663328
 20
774.7680299246778
 30
0.0
 10
179.7489516295555
 20
764.5604687482354
 30
0.0
 10
180.4688116382781
 20
754.3430278586296
 30
0.0
 10
181.9680548373595
 20
744.199718408809
 30
0.0
 10
184.1685519674614
 20
734.1710872953872
 30
0.0
 10
186.2658773098069
 20
727.6533288785091
 30
0.0
 10
187.3171020095712
 20
724.3864877754227
 30
0.0
  0
SPLINE
  5
CE
330
1F
100
AcDbEntity
  8
0
  6
Continuous
 62
     7
370
    15
100
AcDbSpline
210
0.0
220
0.0
230
1.0
 70
     8
 71
     3
 72
    15
 73
    11
 74
     0
 42
0.000000001
 43
0.00000001
 40
0.0
 40
0.0
 40
0.0
 40
0.0
 40
0.1241003625109525
 40
0.2480381592864778
 40
0.3730599079529286
 40
0.4974702882753896
 40
0.6230501023382292
 40
0.7480327836806521
 40
0.8735985182180639
 40
1.0
 40
1.0
 40
1.0
 40
1.0
 10
187.3171020095712
 20
724.3864877754228
 30
0.0
 10
187.9099842890683
 20
722.8717529971359
 30
0.0
 10
189.0949721996966
 20
719.8442676730672
 30
0.0
 10
191.660292686387
 20
715.6761723806962
 30
0.0
 10
194.7204383880283
 20
711.8946976371336
 30
0.0
 10
198.2775256876071
 20
708.5811706938113
 30
0.0
 10
202.2208447969297
 20
705.7937357425193
 30
0.0
 10
206.4890199281411
 20
703.5801889088857
 30
0.0
 10
210.9924269551364
 20
701.917384285427
 30
0.0
 10
214.1164827062322
 20
701.3292631331996
 30
0.0
 10
215.6836916545876
 20
701.0342271908465
 30
0.0
  0
SPLINE
  5
CF
330
1F
100
AcDbEntity
  8
0
  6
Continuous
 62
     7
370
    15
100
AcDbSpline
210
0.0
220
0.0
230
1.0
 70
     8
 71
     3
 72
    11
 73
     7
 74
     0
 42
0.000000001
 43
0.00000001
 40
0.0
 40
0.0
 40
0.0
 40
0.0
 40
0.2490717281765412
 40
0.4988785853775558
 40
0.7492832600348628
 40
1.0
 40
1.0
 40
1.0
 40
1.0
 10
215.6836916545876
 20
701.0342271908464
 30
0.0
 10
222.6496898149719
 20
700.0044764933727
 30
0.0
 10
236.6022461064346
 20
697.9419358147974
 30
0.0
 10
257.7586541465971
 20
694.8625472466712
 30
0.0
 10
279.1307062066904
 20
691.7652121402397
 30
0.0
 10
293.5185146861409
 20
689.6858122960006
 30
0.0
 10
300.7168988141239
 20
688.6454649174627
 30
0.0
  0
SPLINE
  5
D0
330
1F
100
AcDbEntity
  8
0
  6
Continuous
 62
     7
370
    15
100
AcDbSpline
210
0.0
220
0.0
230
1.0
 70
     8
 71
     3
 72
    15
 73
    11
 74
     0
 42
0.000000001
 43
0.00000001
 40
0.0
 40
0.0
 40
0.0
 40
0.0
 40
0.1263237032064974
 40
0.2527041906196559
 40
0.3781271161312764
 40
0.5038112014144153
 40
0.6282014099847125
 40
0.7526948769527794
 40
0.8760336010113875
 40
1.0
 40
1.0
 40
1.0
 40
1.0
 10
300.7168988141239
 20
688.6454649174627
 30
0.0
 10
302.5568549095528
 20
688.2810251773312
 30
0.0
 10
306.2375941854672
 20
687.5519818764946
 30
0.0
 10
311.410372289372
 20
685.2108906223107
 30
0.0
 10
316.0931645404591
 20
682.0336015514185
 30
0.0
 10
320.0889366844982
 20
678.0486286052368
 30
0.0
 10
323.277112699255
 20
673.4142419379593
 30
0.0
 10
325.5133373917308
 20
668.3106810186407
 30
0.0
 10
326.8292122899824
 20
662.8903906252812
 30
0.0
 10
326.8259577934617
 20
659.2114361348571
 30
0.0
 10
326.8243264151496
 20
657.3672901883385
 30
0.0
  0
SPLINE
  5
D1
330
1F
100
AcDbEntity
  8
0
  6
Continuous
 62
     7
370
    15
100
AcDbSpline
210
0.0
220
0.0
230
1.0
 70
     8
 71
     3
 72
    12
 73
     8
 74
     0
 42
0.000000001
 43
0.00000001
 40
0.0
 40
0.0
 40
0.0
 40
0.0
 40
0.1970347436073681
 40
0.39484165402595
 40
0.5939528957087978
 40
0.7952461749891803
 40
1.0
 40
1.0
 40
1.0
 40
1.0
 10
326.8243264151497
 20
657.3672901883384
 30
0.0
 10
326.5316091465817
 20
652.0598195636754
 30
0.0
 10
325.945027468816
 20
641.4240786696125
 30
0.0
 10
325.1086893205419
 20
625.3807691349768
 30
0.0
 10
324.3052855154567
 20
609.2105668612961
 30
0.0
 10
323.5379410591386
 20
592.8412567865531
 30
0.0
 10
323.0497819468328
 20
581.9031493388446
 30
0.0
 10
322.8036222170818
 20
576.3874854795812
 30
0.0
  0
SPLINE
  5
D2
330
1F
100
AcDbEntity
  8
0
  6
Continuous
 62
     7
370
    15
100
AcDbSpline
210
0.0
220
0.0
230
1.0
 70
     8
 71
     3
 72
    10
 73
     6
 74
     0
 42
0.000000001
 43
0.00000001
 40
0.0
 40
0.0
 40
0.0
 40
0.0
 40
0.3231630880643266
 40
0.6640284996047385
 40
1.0
 40
1.0
 40
1.0
 40
1.0
 10
321.4936550779333
 20
549.0328596322383
 30
0.0
 10
321.6433222604225
 20
551.9287792762374
 30
0.0
 10
321.9508551387087
 20
557.8792521093161
 30
0.0
 10
322.3843497166478
 20
567.0359315960411
 30
0.0
 10
322.6645353144356
 20
573.2853633887464
 30
0.0
 10
322.8036151636842
 20
576.3874858335882
 30
0.0
  0
SPLINE
  5
D3
330
1F
100
AcDbEntity
  8
0
  6
Continuous
 62
     7
370
    15
100
AcDbSpline
210
0.0
220
0.0
230
1.0
 70
     8
 71
     3
 72
    13
 73
     9
 74
     0
 42
0.000000001
 43
0.00000001
 40
0.0
 40
0.0
 40
0.0
 40
0.0
 40
0.051866490955981
 40
0.4254503627296184
 40
0.5713064082155895
 40
0.7158471203452786
 40
0.8586652803450859
 40
1.0
 40
1.0
 40
1.0
 40
1.0
 10
200.0661896703712
 20
488.7918548080579
 30
0.0
 10
200.0688072417397
 20
488.8022255404382
 30
0.0
 10
200.0902786516553
 20
488.8872945661547
 30
0.0
 10
200.1826815520592
 20
488.7863595816754
 30
0.0
 10
200.3454483113972
 20
488.3210011596177
 30
0.0
 10
200.4784479357961
 20
487.7221594670614
 30
0.0
 10
200.6356435633422
 20
486.699602654598
 30
0.0
 10
200.7683338463488
 20
485.3129541273935
 30
0.0
 10
200.8343326283159
 20
484.6232494124862
 30
0.0
  0
SPLINE
  5
D4
330
1F
100
AcDbEntity
  8
0
  6
Continuous
 62
     7
370
    15
100
AcDbSpline
210
0.0
220
0.0
230
1.0
 70
     8
 71
     3
 72
    13
 73
     9
 74
     0
 42
0.000000001
 43
0.00000001
 40
0.0
 40
0.0
 40
0.0
 40
0.0
 40
0.1451768139262012
 40
0.2919126901464805
 40
0.4404526719783493
 40
0.590313445236013
 40
0.7407771531078083
 40
1.0
 40
1.0
 40
1.0
 40
1.0
 10
602.191541762418
 20
484.6254162643758
 30
0.0
 10
602.2586761069301
 20
485.3257758394655
 30
0.0
 10
602.3936657556058
 20
486.7340161920758
 30
0.0
 10
602.5529256701261
 20
487.755612193178
 30
0.0
 10
602.6869384005988
 20
488.3457990160421
 30
0.0
 10
602.7949796522856
 20
488.6508440564244
 30
0.0
 10
602.9003448968393
 20
488.8348818148741
 30
0.0
 10
602.9360629465982
 20
488.8171788032967
 30
0.0
 10
602.9586629915258
 20
488.8059774958428
 30
0.0
  0
SPLINE
  5
D5
330
1F
100
AcDbEntity
  8
0
  6
Continuous
 62
     7
370
    15
100
AcDbSpline
210
0.0
220
0.0
230
1.0
 70
     8
 71
     3
 72
    13
 73
     9
 74
     0
 42
0.000000001
 43
0.00000001
 40
0.0
 40
0.0
 40
0.0
 40
0.0
 40
0.183106078214779
 40
0.3666207413865529
 40
0.5507668452189443
 40
0.7353366955320987
 40
0.9201743032756236
 40
0.9999999999999999
 40
0.9999999999999999
 40
0.9999999999999999
 40
0.9999999999999999
 10
603.0127877939286
 20
488.6156303233636
 30
0.0
 10
603.0145414827974
 20
488.5018983957842
 30
0.0
 10
603.018052773736
 20
488.2741807579262
 30
0.0
 10
602.9773832485687
 20
487.6519390270495
 30
0.0
 10
602.9072176651598
 20
486.9856480267015
 30
0.0
 10
602.8022766584447
 20
486.4583694427893
 30
0.0
 10
602.6707769496716
 20
486.0574694670846
 30
0.0
 10
602.5285022254313
 20
486.0880138459175
 30
0.0
 10
602.4855904246754
 20
486.0972264049697
 30
0.0
  0
LINE
  5
D6
330
1F
100
AcDbEntity
  8
0
  6
Continuous
 62
     7
370
    15
100
AcDbLine
 10
601.6099403233
 20
494.873047897
 30
0.0
 11
601.5132185639
 21
496.0664966424
 31
0.0
  0
LINE
  5
D7
330
1F
100
AcDbEntity
  8
0
  6
Continuous
 62
     7
370
    15
100
AcDbLine
 10
201.3697570689
 20
494.2950811756
 30
0.0
 11
201.5132185639
 21
496.063356263
 31
0.0
  0
LINE
  5
D8
330
1F
100
AcDbEntity
  8
0
  6
Continuous
 62
     7
370
    15
100
AcDbLine
 10
658.2053177163
 20
48.1511970503
 30
0.0
 11
658.2053177163
 21
49.6115275354
 31
0.0
  0
LINE
  5
D9
330
1F
100
AcDbEntity
  8
0
  6
Continuous
 62
     7
370
    15
100
AcDbLine
 10
647.9196034306
 20
48.1511970503
 30
0.0
 11
647.9196034306
 21
49.6115275354
 31
0.0
  0
ARC
  5
DA
330
1F
100
AcDbEntity
  8
0
  6
Continuous
 62
     7
370
    15
100
AcDbCircle
 10
657.221838492
 20
48.134666438
 30
0.0
 40
0.9836181402500416
100
AcDbArc
 50
270.9964648129
 51
0.9629538805
  0
LINE
  5
DB
330
1F
100
AcDbEntity
  8
0
  6
Continuous
 62
     7
370
    15
100
AcDbLine
 10
657.2389443149
 20
47.1511970503
 30
0.0
 11
646.9532300292
 21
47.1511970503
 31
0.0
  0
ARC
  5
DC
330
1F
100
AcDbEntity
  8
0
  6
Continuous
 62
     7
370
    15
100
AcDbCircle
 10
646.9361242063
 20
48.134666438
 30
0.0
 40
0.9836181402501186
100
AcDbArc
 50
270.9964648129
 51
0.9629538805
  0
LINE
  5
DD
330
1F
100
AcDbEntity
  8
0
  6
Continuous
 62
     7
370
    15
100
AcDbLine
 10
647.916566703
 20
49.6907419078
 30
0.0
 11
647.266871658
 21
58.1511970503
 31
0.0
  0
ARC
  5
DE
330
1F
100
AcDbEntity
  8
0
  6
Continuous
 62
     7
370
    15
100
AcDbCircle
 10
646.8849992641
 20
49.6115307947
 30
0.0
 40
1.034604166519006
100
AcDbArc
 50
359.999819503
 51
4.3909624641
  0
LINE
  5
DF
330
1F
100
AcDbEntity
  8
0
  6
Continuous
 62
     7
370
    15
100
AcDbLine
 10
635.3567492119
 20
47.1511970502
 30
0.0
 11
646.9532300292
 21
47.1511970503
 31
0.0
  0
ARC
  5
E0
330
1F
100
AcDbEntity
  8
0
  6
Continuous
 62
     7
370
    15
100
AcDbCircle
 10
635.3738550347
 20
48.134666438
 30
0.0
 40
0.9836181402485444
100
AcDbArc
 50
179.0370461202
 51
269.0035351879
  0
LINE
  5
E1
330
1F
100
AcDbEntity
  8
0
  6
Continuous
 62
     7
370
    15
100
AcDbLine
 10
634.3903758104
 20
49.6115275354
 30
0.0
 11
634.3903758104
 21
48.1511970502
 31
0.0
  0
ARC
  5
E2
330
1F
100
AcDbEntity
  8
0
  6
Continuous
 62
     7
370
    15
100
AcDbCircle
 10
635.4249799767
 20
49.6115307947
 30
0.0
 40
1.034604166357344
100
AcDbArc
 50
175.6090375365
 51
180.0001804982
  0
LINE
  5
E3
330
1F
100
AcDbEntity
  8
0
  6
Continuous
 62
     7
370
    15
100
AcDbLine
 10
634.8272789005
 20
55.3406340012
 30
0.0
 11
634.393412538
 21
49.6907419077
 31
0.0
  0
ARC
  5
E4
330
1F
100
AcDbEntity
  8
0
  6
Continuous
 62
     7
370
    15
100
AcDbCircle
 10
641.1502469229
 20
59.4101350889
 30
0.0
 40
6.24483972047429
100
AcDbArc
 50
248.608760392
 51
348.3696645019
  0
ARC
  5
E5
330
1F
100
AcDbEntity
  8
0
  6
Continuous
 62
     7
370
    15
100
AcDbCircle
 10
657.1707135499
 20
49.6115307947
 30
0.0
 40
1.034604166424078
100
AcDbArc
 50
359.9998195027
 51
4.3909624642
  0
LINE
  5
E6
330
1F
100
AcDbEntity
  8
0
  6
Continuous
 62
     7
370
    15
100
AcDbLine
 10
657.5525859437
 20
58.1511970503
 30
0.0
 11
647.266871658
 21
58.1511970503
 31
0.0
  0
LINE
  5
E7
330
1F
100
AcDbEntity
  8
0
  6
Continuous
 62
     7
370
    15
100
AcDbLine
 10
658.2022809887
 20
49.6907419078
 30
0.0
 11
657.5525859437
 21
58.1511970503
 31
0.0
  0
LINE
  5
E8
330
1F
100
AcDbEntity
  8
0
  6
Continuous
 62
     7
370
    15
100
AcDbLine
 10
168.1981964355
 20
55.353158642
 30
0.0
 11
168.6330245898
 21
49.6907419077
 31
0.0
  0
ARC
  5
E9
330
1F
100
AcDbEntity
  8
0
  6
Continuous
 62
     7
370
    15
100
AcDbCircle
 10
167.601457151
 20
49.6115307947
 30
0.0
 40
1.034604166391677
100
AcDbArc
 50
359.9998195018
 51
4.3909624634
  0
LINE
  5
EA
330
1F
100
AcDbEntity
  8
0
  6
Continuous
 62
     7
370
    15
100
AcDbLine
 10
168.6360613174
 20
49.6115275354
 30
0.0
 11
168.6360613174
 21
48.1511970502
 31
0.0
  0
ARC
  5
EB
330
1F
100
AcDbEntity
  8
0
  6
Continuous
 62
     7
370
    15
100
AcDbCircle
 10
167.6525820931
 20
48.134666438
 30
0.0
 40
0.9836181402486898
100
AcDbArc
 50
270.9964648121
 51
0.9629538797
  0
LINE
  5
EC
330
1F
100
AcDbEntity
  8
0
  6
Continuous
 62
     7
370
    15
100
AcDbLine
 10
167.669687916
 20
47.1511970502
 30
0.0
 11
156.0732070986
 21
47.1511970503
 31
0.0
  0
ARC
  5
ED
330
1F
100
AcDbEntity
  8
0
  6
Continuous
 62
     7
370
    15
100
AcDbCircle
 10
156.0903129215
 20
48.134666438
 30
0.0
 40
0.9836181402498771
100
AcDbArc
 50
179.0370461195
 51
269.0035351871
  0
LINE
  5
EE
330
1F
100
AcDbEntity
  8
0
  6
Continuous
 62
     7
370
    15
100
AcDbLine
 10
155.1068336972
 20
48.1511970503
 30
0.0
 11
155.1068336972
 21
49.6115275354
 31
0.0
  0
ARC
  5
EF
330
1F
100
AcDbEntity
  8
0
  6
Continuous
 62
     7
370
    15
100
AcDbCircle
 10
156.1414378636
 20
49.6115307947
 30
0.0
 40
1.034604166437038
100
AcDbArc
 50
175.6090375358
 51
180.0001804972
  0
LINE
  5
F0
330
1F
100
AcDbEntity
  8
0
  6
Continuous
 62
     7
370
    15
100
AcDbLine
 10
155.1098704248
 20
49.6907419078
 30
0.0
 11
155.7595654698
 21
58.1511970503
 31
0.0
  0
ARC
  5
F1
330
1F
100
AcDbEntity
  8
0
  6
Continuous
 62
     7
370
    15
100
AcDbCircle
 10
161.875120506
 20
59.4093640358
 30
0.0
 40
6.24363656561167
100
AcDbArc
 50
191.6253839998
 51
292.1945817271
  0
LINE
  5
F2
330
1F
100
AcDbEntity
  8
0
  6
Continuous
 62
     7
370
    15
100
AcDbLine
 10
144.8211194115
 20
48.1511970503
 30
0.0
 11
144.8211194115
 21
49.6115275354
 31
0.0
  0
LINE
  5
F3
330
1F
100
AcDbEntity
  8
0
  6
Continuous
 62
     7
370
    15
100
AcDbLine
 10
145.7874928129
 20
47.1511970503
 30
0.0
 11
156.0732070986
 21
47.1511970503
 31
0.0
  0
ARC
  5
F4
330
1F
100
AcDbEntity
  8
0
  6
Continuous
 62
     7
370
    15
100
AcDbCircle
 10
145.8045986358
 20
48.134666438
 30
0.0
 40
0.9836181402499639
100
AcDbArc
 50
179.0370461195
 51
269.0035351871
  0
ARC
  5
F5
330
1F
100
AcDbEntity
  8
0
  6
Continuous
 62
     7
370
    15
100
AcDbCircle
 10
145.8557235779
 20
49.6115307947
 30
0.0
 40
1.034604166460685
100
AcDbArc
 50
175.6090375359
 51
180.0001804972
  0
LINE
  5
F6
330
1F
100
AcDbEntity
  8
0
  6
Continuous
 62
     7
370
    15
100
AcDbLine
 10
144.8241561391
 20
49.6907419078
 30
0.0
 11
145.4738511841
 21
58.1511970503
 31
0.0
  0
LINE
  5
F7
330
1F
100
AcDbEntity
  8
0
  6
Continuous
 62
     7
370
    15
100
AcDbLine
 10
145.4738511841
 20
58.1511970503
 30
0.0
 11
155.7595654698
 21
58.1511970503
 31
0.0
  0
ELLIPSE
  5
F8
330
1F
100
AcDbEntity
  8
0
  6
Continuous
 62
     7
370
    15
100
AcDbEllipse
 10
194.4819650778
 20
352.4533961409
 30
0.0
 11
6.49546759291576
 21
5.965139977200295
 31
0.0
210
0.0
220
0.0
230
1.0
 40
0.0994288245
 41
0.1078483987634682
 42
1.479737959246397
  0
ELLIPSE
  5
F9
330
1F
100
AcDbEntity
  8
0
  6
Continuous
 62
     7
370
    15
100
AcDbEllipse
 10
194.4819650778
 20
352.4533961409
 30
0.0
 11
-5.487297060278053
 21
5.975142304115082
 31
0.0
210
0.0
220
0.0
230
1.0
 40
0.0994288245
 41
3.232651021138237
 42
4.820237379138421
  0
ELLIPSE
  5
FA
330
1F
100
AcDbEntity
  8
0
  6
Continuous
 62
     7
370
    15
100
AcDbEllipse
 10
608.54447205
 20
352.4533961409
 30
0.0
 11
6.495467592915817
 21
-5.965139977200352
 31
0.0
210
0.0
220
0.0
230
1.0
 40
0.0994288245
 41
1.661854694343397
 42
3.033744254826332
  0
ELLIPSE
  5
FB
330
1F
100
AcDbEntity
  8
0
  6
Continuous
 62
     7
370
    15
100
AcDbEllipse
 10
608.54447205
 20
352.4533961409
 30
0.0
 11
5.487297060278139
 21
5.975142304115082
 31
0.0
210
0.0
220
0.0
230
1.0
 40
0.0994288245
 41
1.462947928041168
 42
3.050534286041619
  0
LWPOLYLINE
  5
FC
330
1F
100
AcDbEntity
  8
0
  6
Continuous
 62
     7
370
    15
100
AcDbPolyline
 90
        3
 70
   128
 43
0.0
 10
1727.7497099223
 20
522.7610735258
 10
1727.9950823209
 20
523.1305525101
 10
1728.0442661808
 20
523.2038606938
  0
SPLINE
  5
FD
330
1F
100
AcDbEntity
  8
0
  6
Continuous
 62
     7
370
    15
100
AcDbSpline
210
0.0
220
0.0
230
1.0
 70
     8
 71
     3
 72
    49
 73
    45
 74
     0
 42
0.000000001
 43
0.00000001
 40
0.0
 40
0.0
 40
0.0
 40
0.0
 40
0.0073311259508536
 40
0.0262994767906413
 40
0.046083684285866
 40
0.0664195831034681
 40
0.0846463643225731
 40
0.1000885974571589
 40
0.1108509079351729
 40
0.1197285251285598
 40
0.1267745672760944
 40
0.1309214905265157
 40
0.1341918732043307
 40
0.1367773355207412
 40
0.1393155157740835
 40
0.1469461731723122
 40
0.158077752432849
 40
0.1706816479101559
 40
0.1858534992748918
 40
0.2034880395184677
 40
0.2216310889500609
 40
0.239216523986731
 40
0.2722294363836014
 40
0.3033223578227715
 40
0.3380852765106802
 40
0.3705255346151127
 40
0.4026611474731954
 40
0.4513548192465681
 40
0.5025046646709235
 40
0.5564164277417883
 40
0.6117777343050548
 40
0.6644627137735081
 40
0.7141259674019779
 40
0.7349640204103285
 40
0.7551750489534137
 40
0.7747722435802809
 40
0.7953957464524731
 40
0.8190507346559561
 40
0.8457496547950206
 40
0.8737177234700085
 40
0.9044028845529313
 40
0.9377433800378923
 40
0.9737007967852831
 40
1.0
 40
1.0
 40
1.0
 40
1.0
 10
1728.533965170592
 20
523.927526730015
 30
0.0
 10
1728.556188535929
 20
523.9601500084765
 30
0.0
 10
1728.635912016989
 20
524.0771818478537
 30
0.0
 10
1728.783903074181
 20
524.2919160420403
 30
0.0
 10
1728.983103557689
 20
524.5810928747485
 30
0.0
 10
1729.17109843926
 20
524.8540619630268
 30
0.0
 10
1729.451878453879
 20
525.2599267510784
 30
0.0
 10
1729.797891877034
 20
525.7633464426059
 30
0.0
 10
1730.183292945359
 20
526.3316956771606
 30
0.0
 10
1730.580362754932
 20
526.9266095308933
 30
0.0
 10
1730.988219508099
 20
527.5488876640404
 30
0.0
 10
1731.39580234328
 20
528.1836819012784
 30
0.0
 10
1731.76796228076
 20
528.7734213773116
 30
0.0
 10
1732.20083454751
 20
529.4731342343558
 30
0.0
 10
1732.977157667664
 20
530.7583427036884
 30
0.0
 10
1734.21444477237
 20
532.9100485782503
 30
0.0
 10
1735.942759406879
 20
536.1927082979826
 30
0.0
 10
1737.900397517178
 20
540.3497987341965
 30
0.0
 10
1739.958172978213
 20
545.3124018358491
 30
0.0
 10
1741.987375588367
 20
550.9893748666827
 30
0.0
 10
1743.835011831437
 20
557.027648902946
 30
0.0
 10
1745.905447219235
 20
564.8934353048305
 30
0.0
 10
1747.90834934396
 20
574.353765658354
 30
0.0
 10
1749.842176435079
 20
585.8927055478301
 30
0.0
 10
1751.415685122532
 20
597.418327778754
 30
0.0
 10
1752.801207002558
 20
609.0918571141359
 30
0.0
 10
1754.278695552271
 20
622.4139489617635
 30
0.0
 10
1755.969704520905
 20
637.9399206324965
 30
0.0
 10
1758.1208229069
 20
656.0074324177307
 30
0.0
 10
1760.597329290747
 20
674.8291187809764
 30
0.0
 10
1763.186131857114
 20
693.8187277806746
 30
0.0
 10
1765.691918459342
 20
712.3123359522544
 30
0.0
 10
1767.575681495346
 20
726.7674195181824
 30
0.0
 10
1768.931734662977
 20
737.4158620702744
 30
0.0
 10
1769.838061035965
 20
744.5349782012311
 30
0.0
 10
1770.748534623069
 20
751.6279696760015
 30
0.0
 10
1771.718551177104
 20
759.1241979641235
 30
0.0
 10
1772.800621742956
 20
767.4533136851179
 30
0.0
 10
1773.993968554143
 20
776.6443958059352
 30
0.0
 10
1775.28583717635
 20
786.6615831379227
 30
0.0
 10
1776.656372570624
 20
797.4610523033394
 30
0.0
 10
1778.116524001272
 20
809.2021022102402
 30
0.0
 10
1779.510426694648
 20
820.4283894215514
 30
0.0
 10
1780.440977379659
 20
827.7365228624166
 30
0.0
 10
1780.834071986813
 20
830.8237140173262
 30
0.0
  0
LINE
  5
FE
330
1F
100
AcDbEntity
  8
0
  6
Continuous
 62
     7
370
    15
100
AcDbLine
 10
1327.2603738369
 20
452.7268307555
 30
0.0
 11
1328.8672814227
 21
454.8841836575
 31
0.0
  0
SPLINE
  5
FF
330
1F
100
AcDbEntity
  8
0
  6
Continuous
 62
     7
370
    15
100
AcDbSpline
210
0.0
220
0.0
230
1.0
 70
     8
 71
     3
 72
    18
 73
    14
 74
     0
 42
0.000000001
 43
0.00000001
 40
0.0
 40
0.0
 40
0.0
 40
0.0
 40
0.0776736626812489
 40
0.1719592566213831
 40
0.2630475048040783
 40
0.3517933155259449
 40
0.4382241479076035
 40
0.5613076292552469
 40
0.6790078796900009
 40
0.7906485975315996
 40
0.8944087539959774
 40
0.989363535391371
 40
1.0
 40
1.0
 40
1.0
 40
1.0
 10
1330.381335572902
 20
456.6098472829522
 30
0.0
 10
1331.555858374833
 20
457.9146501160985
 30
0.0
 10
1334.156097129296
 20
460.8033116968725
 30
0.0
 10
1338.835441900381
 20
464.5083675389277
 30
0.0
 10
1344.144562417442
 20
467.7146074857154
 30
0.0
 10
1349.646566949506
 20
470.1770041114228
 30
0.0
 10
1356.054748427183
 20
472.2901039255543
 30
0.0
 10
1363.301580619023
 20
473.8439362325349
 30
0.0
 10
1371.219927099086
 20
474.7864009831985
 30
0.0
 10
1378.743014053827
 20
475.2277200408284
 30
0.0
 10
1385.762900210846
 20
475.3817464695501
 30
0.0
 10
1390.500378969608
 20
475.3968322430286
 30
0.0
 10
1392.890034833816
 20
475.3557212300504
 30
0.0
 10
1393.130750716888
 20
475.3515800171079
 30
0.0
  0
SPLINE
  5
100
330
1F
100
AcDbEntity
  8
0
  6
Continuous
 62
     7
370
    15
100
AcDbSpline
210
0.0
220
0.0
230
1.0
 70
     8
 71
     3
 72
    16
 73
    12
 74
     0
 42
0.000000001
 43
0.00000001
 40
0.0
 40
0.0
 40
0.0
 40
0.0
 40
0.0901277271869328
 40
0.1988707760465176
 40
0.310599739103611
 40
0.4242699094981984
 40
0.5409023973459909
 40
0.665485145497016
 40
0.7934616431977083
 40
0.9186068374124955
 40
1.0
 40
1.0
 40
1.0
 40
1.0
 10
1435.895620373954
 20
474.1342336854779
 30
0.0
 10
1440.899541323848
 20
473.9841104070458
 30
0.0
 10
1451.940911983477
 20
473.6528568204276
 30
0.0
 10
1469.19370529249
 20
473.5158453404605
 30
0.0
 10
1487.753001106117
 20
473.5976969270345
 30
0.0
 10
1506.750926451415
 20
473.6505249957503
 30
0.0
 10
1526.462402695865
 20
473.5422226287192
 30
0.0
 10
1546.968974147608
 20
473.4568652367993
 30
0.0
 10
1567.947390413486
 20
473.6060966810339
 30
0.0
 10
1586.527065020927
 20
474.0142207062648
 30
0.0
 10
1597.979793023075
 20
474.6815504560182
 30
0.0
 10
1602.49311329337
 20
474.9445334663516
 30
0.0
  0
SPLINE
  5
101
330
1F
100
AcDbEntity
  8
0
  6
Continuous
 62
     7
370
    15
100
AcDbSpline
210
0.0
220
0.0
230
1.0
 70
     8
 71
     3
 72
    35
 73
    31
 74
     0
 42
0.000000001
 43
0.00000001
 40
0.0
 40
0.0
 40
0.0
 40
0.0
 40
0.0494735647540003
 40
0.0774826671345681
 40
0.1050214145697801
 40
0.1317650399244291
 40
0.1561854432063922
 40
0.1785816619629231
 40
0.1996890908988877
 40
0.2203918503462969
 40
0.2416312944262379
 40
0.2642849816734532
 40
0.2891612806447419
 40
0.3172482733065175
 40
0.3487502536851745
 40
0.3837122039728615
 40
0.4221623989956384
 40
0.4636595005586314
 40
0.5034054221370293
 40
0.5571225708156233
 40
0.6040889450848119
 40
0.6443139456988631
 40
0.6778134307172078
 40
0.7088248607202096
 40
0.7418299462573098
 40
0.7976774332456467
 40
0.8582758376286205
 40
0.9191982718648104
 40
0.9751759945314892
 40
1.0
 40
1.0
 40
1.0
 40
1.0
 10
1617.468784142927
 20
476.0873782373492
 30
0.0
 10
1620.803992875337
 20
476.362653173513
 30
0.0
 10
1626.027406011677
 20
476.7937730322764
 30
0.0
 10
1633.072058445992
 20
477.7090638893378
 30
0.0
 10
1638.57852157141
 20
478.5046686872641
 30
0.0
 10
1643.833789981568
 20
479.3791691038768
 30
0.0
 10
1648.712586991806
 20
480.2940576541125
 30
0.0
 10
1653.053333786648
 20
481.1989415173281
 30
0.0
 10
1656.830414462782
 20
482.0603402365505
 30
0.0
 10
1660.023404701343
 20
482.8457237739917
 30
0.0
 10
1662.615643054433
 20
483.5236308112457
 30
0.0
 10
1664.62805574766
 20
484.075873736534
 30
0.0
 10
1666.034610403225
 20
484.4749914064541
 30
0.0
 10
1667.344033049757
 20
484.8549249955254
 30
0.0
 10
1668.546041873422
 20
485.2111189725874
 30
0.0
 10
1669.659515799149
 20
485.5457138508197
 30
0.0
 10
1670.691559537443
 20
485.8582984956403
 30
0.0
 10
1671.583160938057
 20
486.1282458817936
 30
0.0
 10
1672.631802981165
 20
486.4470759214834
 30
0.0
 10
1673.773159226577
 20
486.7976218049315
 30
0.0
 10
1674.98321107364
 20
487.1755446573962
 30
0.0
 10
1676.071878082613
 20
487.5205581772732
 30
0.0
 10
1677.068113406717
 20
487.8409383357448
 30
0.0
 10
1678.026355732148
 20
488.1535976297849
 30
0.0
 10
1679.210169102499
 20
488.5455092032894
 30
0.0
 10
1680.739577735848
 20
489.0632688813058
 30
0.0
 10
1682.579771027293
 20
489.6872053024676
 30
0.0
 10
1684.793612355515
 20
490.4608354205392
 30
0.0
 10
1686.640952006728
 20
491.1187621799143
 30
0.0
 10
1688.165328286236
 20
491.7047819309182
 30
0.0
 10
1688.633649026051
 20
491.8848196335677
 30
0.0
  0
SPLINE
  5
102
330
1F
100
AcDbEntity
  8
0
  6
Continuous
 62
     7
370
    15
100
AcDbSpline
210
0.0
220
0.0
230
1.0
 70
     8
 71
     3
 72
    30
 73
    26
 74
     0
 42
0.000000001
 43
0.00000001
 40
0.0
 40
0.0
 40
0.0
 40
0.0
 40
0.0216713810350097
 40
0.1732640929121897
 40
0.3168364351217271
 40
0.3685783245279364
 40
0.4191677879680458
 40
0.468601811293174
 40
0.5147179360517402
 40
0.5545705262074135
 40
0.5888796681465992
 40
0.6188422068529964
 40
0.6462433998342514
 40
0.6733811324846862
 40
0.7025124790798107
 40
0.7334801715448213
 40
0.7659317739560231
 40
0.7884064252158284
 40
0.8115532521569636
 40
0.8340506169020739
 40
0.8655932810731758
 40
0.8965138444211144
 40
0.9291286933768614
 40
0.9654276683106106
 40
1.0
 40
1.0
 40
1.0
 40
1.0
 10
1717.033990478508
 20
525.1835369144405
 30
0.0
 10
1717.021067375396
 20
525.1730867442038
 30
0.0
 10
1716.917746330243
 20
525.0895369573251
 30
0.0
 10
1716.643772581318
 20
524.8534536731813
 30
0.0
 10
1716.255502052908
 20
524.4820650674645
 30
0.0
 10
1715.903956267871
 20
524.1281958373453
 30
0.0
 10
1715.654118770842
 20
523.871266767951
 30
0.0
 10
1715.40839103337
 20
523.6174498749017
 30
0.0
 10
1715.073903590094
 20
523.262181405087
 30
0.0
 10
1714.34894501767
 20
522.4872369154488
 30
0.0
 10
1713.271769907119
 20
521.3675177098761
 30
0.0
 10
1711.782288156768
 20
519.8856889835474
 30
0.0
 10
1709.824555011943
 20
518.0499108454351
 30
0.0
 10
1707.378854140747
 20
515.9190637821843
 30
0.0
 10
1704.547372944788
 20
513.6537382774357
 30
0.0
 10
1701.463177452581
 20
511.3961767118236
 30
0.0
 10
1698.50380500148
 20
509.4160922274366
 30
0.0
 10
1695.753963333179
 20
507.7112326596232
 30
0.0
 10
1693.315155258375
 20
506.2904065988645
 30
0.0
 10
1690.506463682668
 20
504.7517724758641
 30
0.0
 10
1687.449869008148
 20
503.1954809872874
 30
0.0
 10
1684.390417901487
 20
501.7532642223691
 30
0.0
 10
1681.836452938351
 20
500.6238117727768
 30
0.0
 10
1679.862449301883
 20
499.7935465845906
 30
0.0
 10
1679.037677299745
 20
499.4597297122156
 30
0.0
 10
1678.635338291412
 20
499.2968876794502
 30
0.0
  0
LINE
  5
103
330
1F
100
AcDbEntity
  8
0
  6
Continuous
 62
     7
370
    15
100
AcDbLine
 10
1780.8304622787
 20
830.8243128987
 30
0.0
 11
1770.9105497457
 21
832.0873782373
 31
0.0
  0
LINE
  5
104
330
1F
100
AcDbEntity
  8
0
  6
Continuous
 62
     7
370
    15
100
AcDbLine
 10
1319.1305571404
 20
458.7156877497
 30
0.0
 11
1327.1438048477
 21
452.7333914905
 31
0.0
  0
LINE
  5
105
330
1F
100
AcDbEntity
  8
0
  6
Continuous
 62
     7
370
    15
100
AcDbLine
 10
1379.8938869247
 20
53.6511970502
 30
0.0
 11
1383.5412106479
 21
53.6511970502
 31
0.0
  0
LINE
  5
106
330
1F
100
AcDbEntity
  8
0
  6
Continuous
 62
     7
370
    15
100
AcDbLine
 10
1383.5412106479
 20
65.6511970502
 30
0.0
 11
1378.1690073954
 21
65.6511970502
 31
0.0
  0
LINE
  5
107
330
1F
100
AcDbEntity
  8
0
  6
Continuous
 62
     7
370
    15
100
AcDbLine
 10
1789.2761389902
 20
65.6511970502
 30
0.0
 11
1383.5412106479
 21
65.6511970502
 31
0.0
  0
LINE
  5
108
330
1F
100
AcDbEntity
  8
0
  6
Continuous
 62
     7
370
    15
100
AcDbLine
 10
1784.353668859
 20
53.6511970502
 30
0.0
 11
1789.2761389902
 21
53.6511970502
 31
0.0
  0
LINE
  5
109
330
1F
100
AcDbEntity
  8
0
  6
Continuous
 62
     7
370
    15
100
AcDbLine
 10
1383.5412106479
 20
53.6511970502
 30
0.0
 11
1744.3077660808
 21
53.6511970502
 31
0.0
  0
LINE
  5
10A
330
1F
100
AcDbEntity
  8
0
  6
Continuous
 62
     7
370
    15
100
AcDbLine
 10
1378.1690073954
 20
65.6511970502
 30
0.0
 11
1336.0835676011
 21
65.6511970502
 31
0.0
  0
LINE
  5
10B
330
1F
100
AcDbEntity
  8
0
  6
Continuous
 62
     7
370
    15
100
AcDbLine
 10
1336.0835676011
 20
53.6511970502
 30
0.0
 11
1340.163542492
 21
53.6511970502
 31
0.0
  0
SPLINE
  5
10C
330
1F
100
AcDbEntity
  8
0
  6
Continuous
 62
     7
370
    15
100
AcDbSpline
210
0.0
220
0.0
230
1.0
 70
     8
 71
     3
 72
    25
 73
    21
 74
     0
 42
0.000000001
 43
0.00000001
 40
0.0
 40
0.0
 40
0.0
 40
0.0
 40
0.0349993046670268
 40
0.0935155827574136
 40
0.1520501660081492
 40
0.2105819162070102
 40
0.2691094566591198
 40
0.3276316251900681
 40
0.3861475110566301
 40
0.4446565021417536
 40
0.5031583188301086
 40
0.5616530320947135
 40
0.6201410640467386
 40
0.678623170152741
 40
0.7371004034637348
 40
0.7955740624251166
 40
0.8540456132452773
 40
0.9125161390295082
 40
0.9709872704722715
 40
1.0
 40
1.0
 40
1.0
 40
1.0
 10
1789.276138990235
 20
53.6511970502469
 30
0.0
 10
1789.847551512049
 20
53.662438152276
 30
0.0
 10
1791.374323985982
 20
53.69247355489604
 30
0.0
 10
1793.843504461801
 20
54.00378433731934
 30
0.0
 10
1796.638698946522
 20
54.65689552029773
 30
0.0
 10
1799.344595390621
 20
55.61766186067496
 30
0.0
 10
1801.927773195497
 20
56.86847214696977
 30
0.0
 10
1804.356838671623
 20
58.39566086695225
 30
0.0
 10
1806.602226039761
 20
60.18020431569093
 30
0.0
 10
1808.636632986197
 20
62.20047479750423
 30
0.0
 10
1810.435335623396
 20
64.43183463097124
 30
0.0
 10
1811.976491296174
 20
66.84712128364434
 30
0.0
 10
1813.241411511892
 20
69.41693883377043
 30
0.0
 10
1814.214745037878
 20
72.11001786561555
 30
0.0
 10
1814.884810650858
 20
74.89365165498118
 30
0.0
 10
1815.243167829636
 20
77.7338853353916
 30
0.0
 10
1815.286822702709
 20
80.59670478249647
 30
0.0
 10
1815.010390791069
 20
83.44552581700349
 30
0.0
 10
1814.532082675739
 20
85.78113364183926
 30
0.0
 10
1814.111229945654
 20
87.14327793249421
 30
0.0
 10
1813.971660357693
 20
87.5950129547498
 30
0.0
  0
SPLINE
  5
10D
330
1F
100
AcDbEntity
  8
0
  6
Continuous
 62
     7
370
    15
100
AcDbSpline
210
0.0
220
0.0
230
1.0
 70
     8
 71
     3
 72
    21
 73
    17
 74
     0
 42
0.000000001
 43
0.00000001
 40
0.0
 40
0.0
 40
0.0
 40
0.0
 40
0.0350310277889328
 40
0.1147825737837876
 40
0.1946136537705571
 40
0.274469972527359
 40
0.3543388941624692
 40
0.4342021073584083
 40
0.5140463736799422
 40
0.5938604072116306
 40
0.6736359047247398
 40
0.7533682365787824
 40
0.8330567319172157
 40
0.9127045808978811
 40
0.9881223492875639
 40
1.0
 40
1.0
 40
1.0
 40
1.0
 10
1802.566772690642
 20
83.86291739033003
 30
0.0
 10
1802.65611181948
 20
83.5700409867196
 30
0.0
 10
1802.948840174733
 20
82.61040293072286
 30
0.0
 10
1803.236772739036
 20
80.92709287028276
 30
0.0
 10
1803.289166770701
 20
78.8311154388448
 30
0.0
 10
1803.021596200531
 20
76.74954118378896
 30
0.0
 10
1802.444366156845
 20
74.73162320361394
 30
0.0
 10
1801.569200177306
 20
72.82260312569377
 30
0.0
 10
1800.416180948452
 20
71.06587517157026
 30
0.0
 10
1799.011325862739
 20
69.50118018459462
 30
0.0
 10
1797.386491405333
 20
68.1638517241827
 30
0.0
 10
1795.578517546881
 20
67.08419125190468
 30
0.0
 10
1793.628246966823
 20
66.28588436304005
 30
0.0
 10
1791.616069496473
 20
65.7976216449796
 30
0.0
 10
1790.148532920643
 20
65.65741562316663
 30
0.0
 10
1789.38062290314
 20
65.65194182942136
 30
0.0
 10
1789.276138990235
 20
65.6511970502469
 30
0.0
  0
LINE
  5
10E
330
1F
100
AcDbEntity
  8
0
  6
Continuous
 62
     7
370
    15
100
AcDbLine
 10
1681.4591359086
 20
453.9549928156
 30
0.0
 11
1802.5667726906
 21
83.8629173903
 31
0.0
  0
LINE
  5
10F
330
1F
100
AcDbEntity
  8
0
  6
Continuous
 62
     7
370
    15
100
AcDbLine
 10
1813.9716603577
 20
87.5950129547
 30
0.0
 11
1692.8640235756
 21
457.68708838
 31
0.0
  0
SPLINE
  5
110
330
1F
100
AcDbEntity
  8
0
  6
Continuous
 62
     7
370
    15
100
AcDbSpline
210
0.0
220
0.0
230
1.0
 70
     8
 71
     3
 72
    24
 73
    20
 74
     0
 42
0.000000001
 43
0.00000001
 40
0.0
 40
0.0
 40
0.0
 40
0.0
 40
0.0376606233362694
 40
0.1012911935597788
 40
0.1649248224858512
 40
0.2285112686977744
 40
0.2920366562667289
 40
0.3554891487331281
 40
0.4188599123910294
 40
0.4821441125173762
 40
0.5453417211379562
 40
0.6084579788559876
 40
0.6715033913826125
 40
0.7344932078207768
 40
0.7974464085256103
 40
0.8603805674296806
 40
0.9233146439437707
 40
0.9830910344105791
 40
1.0
 40
1.0
 40
1.0
 40
1.0
 10
1311.951759641035
 20
84.00632629433214
 30
0.0
 10
1311.850552328131
 20
83.44964225826202
 30
0.0
 10
1311.578347340191
 20
81.95239698046208
 30
0.0
 10
1311.388682415825
 20
79.48022303937674
 30
0.0
 10
1311.463670322139
 20
76.62106910727485
 30
0.0
 10
1311.853320620869
 20
73.79532731562111
 30
0.0
 10
1312.547223170796
 20
71.03974341869768
 30
0.0
 10
1313.538122873367
 20
68.38809479530438
 30
0.0
 10
1314.813084685593
 20
65.87319202113973
 30
0.0
 10
1316.356085987512
 20
63.525895370246
 30
0.0
 10
1318.147643158969
 20
61.37483892836437
 30
0.0
 10
1320.165305663224
 20
59.44602498390017
 30
0.0
 10
1322.383969144102
 20
57.76256858968709
 30
0.0
 10
1324.776269381687
 20
56.34436379205155
 30
0.0
 10
1327.312890956656
 20
55.20833661102687
 30
0.0
 10
1329.96298661598
 20
54.36682876234455
 30
0.0
 10
1332.648376408301
 20
53.84194161162448
 30
0.0
 10
1334.702619004872
 20
53.66420932973725
 30
0.0
 10
1335.83408224894
 20
53.65354787861187
 30
0.0
 10
1336.08356760108
 20
53.65119705024679
 30
0.0
  0
SPLINE
  5
111
330
1F
100
AcDbEntity
  8
0
  6
Continuous
 62
     7
370
    15
100
AcDbSpline
210
0.0
220
0.0
230
1.0
 70
     8
 71
     3
 72
    20
 73
    16
 74
     0
 42
0.000000001
 43
0.00000001
 40
0.0
 40
0.0
 40
0.0
 40
0.0
 40
0.0378977635747596
 40
0.1247627305144674
 40
0.2119833050465054
 40
0.2996040244980533
 40
0.3874395780698167
 40
0.4751929621161519
 40
0.5626462892888379
 40
0.6496554752003335
 40
0.7361557057865705
 40
0.822151323748819
 40
0.9076938496155944
 40
0.9880422114837576
 40
0.9999999999999999
 40
0.9999999999999999
 40
0.9999999999999999
 40
0.9999999999999999
 10
1336.08356760108
 20
65.65119705024681
 30
0.0
 10
1335.794302837029
 20
65.65717955534645
 30
0.0
 10
1334.8420181004
 20
65.67687448193671
 30
0.0
 10
1333.248937109951
 20
65.92037452586163
 30
0.0
 10
1331.365447614623
 20
66.50794617565492
 30
0.0
 10
1329.597822714831
 20
67.39087956249912
 30
0.0
 10
1327.986728392114
 20
68.54716689232387
 30
0.0
 10
1326.571275645892
 20
69.95251632640232
 30
0.0
 10
1325.38575569951
 20
71.57365709675977
 30
0.0
 10
1324.457837432135
 20
73.37241269304951
 30
0.0
 10
1323.808405752515
 20
75.30650758794266
 30
0.0
 10
1323.450645715008
 20
77.33142461944986
 30
0.0
 10
1323.394219392758
 20
79.36169633257428
 30
0.0
 10
1323.552636551954
 20
80.80139415857568
 30
0.0
 10
1323.696518661137
 20
81.53953118176149
 30
0.0
 10
1323.715157850679
 20
81.63515304858737
 30
0.0
  0
LINE
  5
112
330
1F
100
AcDbEntity
  8
0
  6
Continuous
 62
     7
370
    15
100
AcDbLine
 10
1378.0655870213
 20
351.2678095181
 30
0.0
 11
1398.1545747102
 21
450.929342996
 31
0.0
  0
LINE
  5
113
330
1F
100
AcDbEntity
  8
0
  6
Continuous
 62
     7
370
    15
100
AcDbLine
 10
1323.7151578507
 20
81.6351530486
 30
0.0
 11
1378.0655870213
 21
351.2678095181
 31
0.0
  0
LINE
  5
114
330
1F
100
AcDbEntity
  8
0
  6
Continuous
 62
     7
370
    15
100
AcDbLine
 10
1366.3021888117
 20
353.6389827637
 30
0.0
 11
1311.951759641
 21
84.0063262943
 31
0.0
  0
LINE
  5
115
330
1F
100
AcDbEntity
  8
0
  6
Continuous
 62
     7
370
    15
100
AcDbLine
 10
1386.3911765006
 20
453.3005162418
 30
0.0
 11
1366.3021888117
 21
353.6389827637
 31
0.0
  0
SPLINE
  5
116
330
1F
100
AcDbEntity
  8
0
  6
Continuous
 62
     7
370
    15
100
AcDbSpline
210
0.0
220
0.0
230
1.0
 70
     8
 71
     3
 72
    19
 73
    15
 74
     0
 42
0.000000001
 43
0.00000001
 40
0.0
 40
0.0
 40
0.0
 40
0.0
 40
0.0492743435110359
 40
0.1385700520137476
 40
0.2281343189175026
 40
0.3179724852520516
 40
0.4080813905752876
 40
0.4983513827167806
 40
0.5885116405733871
 40
0.6781861157366813
 40
0.766915741889833
 40
0.8542724946695871
 40
0.9399958903880699
 40
1.0
 40
1.0
 40
1.0
 40
1.0
 10
1692.864023575627
 20
457.6870883799834
 30
0.0
 10
1692.69185516944
 20
458.1894091776651
 30
0.0
 10
1692.207680580792
 20
459.6020433012787
 30
0.0
 10
1691.235182560501
 20
461.8472371571993
 30
0.0
 10
1689.891940002871
 20
464.3567589254012
 30
0.0
 10
1688.343609567411
 20
466.7025817201742
 30
0.0
 10
1686.607515897861
 20
468.8549284362943
 30
0.0
 10
1684.698926383226
 20
470.7818187655127
 30
0.0
 10
1682.639240758554
 20
472.4519876923335
 30
0.0
 10
1680.45545470727
 20
473.8352095705083
 30
0.0
 10
1678.180469731847
 20
474.9085201274128
 30
0.0
 10
1675.852370804282
 20
475.6473075787712
 30
0.0
 10
1673.728811945977
 20
476.0304431565687
 30
0.0
 10
1672.393798531022
 20
476.0707724335747
 30
0.0
 10
1671.844099343469
 20
476.087378237349
 30
0.0
  0
SPLINE
  5
117
330
1F
100
AcDbEntity
  8
0
  6
Continuous
 62
     7
370
    15
100
AcDbSpline
210
0.0
220
0.0
230
1.0
 70
     8
 71
     3
 72
    17
 73
    13
 74
     0
 42
0.000000001
 43
0.00000001
 40
0.0
 40
0.0
 40
0.0
 40
0.0
 40
0.0504951438882084
 40
0.1604580904669626
 40
0.2630006133324933
 40
0.3720148063283409
 40
0.4771391382717757
 40
0.5808132279126367
 40
0.68425118632852
 40
0.7878422064990808
 40
0.8918265653356179
 40
1.0
 40
1.0
 40
1.0
 40
1.0
 10
1671.844099343469
 20
464.087378237349
 30
0.0
 10
1671.973468190496
 20
464.0838329310105
 30
0.0
 10
1672.384562734675
 20
464.0725670341064
 30
0.0
 10
1673.146457158798
 20
463.9294770922472
 30
0.0
 10
1674.205017093986
 20
463.5362209139406
 30
0.0
 10
1675.349388170792
 20
462.8866720955814
 30
0.0
 10
1676.545990494605
 20
461.9545864407535
 30
0.0
 10
1677.714314438663
 20
460.7766882149564
 30
0.0
 10
1678.823171187389
 20
459.3685146509509
 30
0.0
 10
1679.835061417497
 20
457.7520110733334
 30
0.0
 10
1680.74580654852
 20
455.9459386965691
 30
0.0
 10
1681.218249975081
 20
454.6273201918634
 30
0.0
 10
1681.459135908576
 20
453.9549928155636
 30
0.0
  0
LINE
  5
118
330
1F
100
AcDbEntity
  8
0
  6
Continuous
 62
     7
370
    15
100
AcDbLine
 10
1390.0139212691
 20
471.2729648602
 30
0.0
 11
1386.3911765006
 21
453.3005162418
 31
0.0
  0
LINE
  5
119
330
1F
100
AcDbEntity
  8
0
  6
Continuous
 62
     7
370
    15
100
AcDbLine
 10
1398.1545747102
 20
450.929342996
 30
0.0
 11
1401.7773194788
 21
468.9017916145
 31
0.0
  0
LINE
  5
11A
330
1F
100
AcDbEntity
  8
0
  6
Continuous
 62
     7
370
    15
100
AcDbLine
 10
1648.3509776696
 20
464.0873782373
 30
0.0
 11
1671.8440993435
 21
464.0873782373
 31
0.0
  0
LINE
  5
11B
330
1F
100
AcDbEntity
  8
0
  6
Continuous
 62
     7
370
    15
100
AcDbLine
 10
1671.8440993435
 20
476.0873782373
 30
0.0
 11
1648.3509776696
 21
476.0873782373
 31
0.0
  0
LINE
  5
11C
330
1F
100
AcDbEntity
  8
0
  6
Continuous
 62
     7
370
    15
100
AcDbLine
 10
1648.3509776696
 20
476.0873782373
 30
0.0
 11
1642.4931132934
 21
476.0873782373
 31
0.0
  0
LINE
  5
11D
330
1F
100
AcDbEntity
  8
0
  6
Continuous
 62
     7
370
    15
100
AcDbLine
 10
1642.4931132934
 20
464.0873782373
 30
0.0
 11
1648.3509776696
 21
464.0873782373
 31
0.0
  0
SPLINE
  5
11E
330
1F
100
AcDbEntity
  8
0
  6
Continuous
 62
     7
370
    15
100
AcDbSpline
210
0.0
220
0.0
230
1.0
 70
     8
 71
     3
 72
    15
 73
    11
 74
     0
 42
0.000000001
 43
0.00000001
 40
0.0
 40
0.0
 40
0.0
 40
0.0
 40
0.1253286913905742
 40
0.2497155426471104
 40
0.3739506633389578
 40
0.498798051735244
 40
0.6244876636984417
 40
0.7495670942348442
 40
0.8745111366372395
 40
1.0
 40
1.0
 40
1.0
 40
1.0
 10
1719.823622425575
 20
725.5236367865671
 30
0.0
 10
1719.877245086813
 20
728.8058940397792
 30
0.0
 10
1719.984087437121
 20
735.345742513414
 30
0.0
 10
1720.544481498093
 20
745.3813583915403
 30
0.0
 10
1721.391341455813
 20
755.4991309921886
 30
0.0
 10
1722.539697672927
 20
765.7079698166896
 30
0.0
 10
1723.954969722589
 20
775.9313363871851
 30
0.0
 10
1725.613841782211
 20
786.0877083943485
 30
0.0
 10
1727.458363927079
 20
796.1378951596085
 30
0.0
 10
1728.851935513736
 20
802.6861595372019
 30
0.0
 10
1729.550237176171
 20
805.9674146551444
 30
0.0
  0
SPLINE
  5
11F
330
1F
100
AcDbEntity
  8
0
  6
Continuous
 62
     7
370
    15
100
AcDbSpline
210
0.0
220
0.0
230
1.0
 70
     8
 71
     3
 72
    15
 73
    11
 74
     0
 42
0.000000001
 43
0.00000001
 40
0.0
 40
0.0
 40
0.0
 40
0.0
 40
0.1249037694717055
 40
0.2488877559298681
 40
0.3728280735369134
 40
0.4975607728503813
 40
0.6233623369656758
 40
0.7487506004082428
 40
0.8741787844425116
 40
1.0
 40
1.0
 40
1.0
 40
1.0
 10
1729.243336929537
 20
724.3862728006061
 30
0.0
 10
1729.289400440419
 20
727.6497094122078
 30
0.0
 10
1729.381188253566
 20
734.1525509062343
 30
0.0
 10
1729.923700154493
 20
744.1451433397358
 30
0.0
 10
1730.757505989825
 20
754.2327163068965
 30
0.0
 10
1731.899120009584
 20
764.4283396824475
 30
0.0
 10
1733.314357925024
 20
774.6553329351399
 30
0.0
 10
1734.978797806287
 20
784.8302654663264
 30
0.0
 10
1736.830483726092
 20
794.9039125784683
 30
0.0
 10
1738.22951540882
 20
801.4686603405921
 30
0.0
 10
1738.930125508627
 20
804.756168866387
 30
0.0
  0
SPLINE
  5
120
330
1F
100
AcDbEntity
  8
0
  6
Continuous
 62
     7
370
    15
100
AcDbSpline
210
0.0
220
0.0
230
1.0
 70
    11
 71
     3
 72
    26
 73
    22
 74
     0
 42
0.000000001
 43
0.00000001
 40
0.0
 40
0.0
 40
0.0
 40
0.0
 40
0.0535242578592985
 40
0.1070517811586469
 40
0.1605121770046256
 40
0.2139751085841701
 40
0.2675259006105806
 40
0.3212118023323892
 40
0.3750328574070546
 40
0.4289417921320126
 40
0.482854410334873
 40
0.5366755026006911
 40
0.590338215137826
 40
0.6438411276071434
 40
0.6972597382783843
 40
0.7507184667483693
 40
0.8043315128469345
 40
0.8581408822876012
 40
0.9120883210302219
 40
0.9660442860006444
 40
0.9999999999999999
 40
0.9999999999999999
 40
0.9999999999999999
 40
0.9999999999999999
 10
1622.49311329337
 20
478.7354105612546
 30
0.0
 10
1622.449129123263
 20
478.7555604941943
 30
0.0
 10
1622.361158099636
 20
478.795861589393
 30
0.0
 10
1621.6743147458
 20
478.8138420421684
 30
0.0
 10
1620.662693447416
 20
478.7990233945761
 30
0.0
 10
1619.399628685394
 20
478.7515529406624
 30
0.0
 10
1618.036534582742
 20
478.677373619378
 30
0.0
 10
1616.722312783135
 20
478.5833998916286
 30
0.0
 10
1615.605803302251
 20
478.4785667003092
 30
0.0
 10
1614.814381966508
 20
478.3733112626178
 30
0.0
 10
1614.439534746497
 20
478.2790287574629
 30
0.0
 10
1614.524291748483
 20
478.2068568553997
 30
0.0
 10
1615.057521402674
 20
478.1660935591872
 30
0.0
 10
1615.976363756682
 20
478.1626272353134
 30
0.0
 10
1617.175835658987
 20
478.1978568626535
 30
0.0
 10
1618.522441581575
 20
478.2682839214182
 30
0.0
 10
1619.866900218702
 20
478.365653130463
 30
0.0
 10
1621.061528015067
 20
478.4780614914561
 30
0.0
 10
1621.961458394307
 20
478.5906038549395
 30
0.0
 10
1622.428583154767
 20
478.6789666510387
 30
0.0
 10
1622.475133365538
 20
478.7196836861193
 30
0.0
 10
1622.49311329337
 20
478.7354105612546
 30
0.0
  0
SPLINE
  5
121
330
1F
100
AcDbEntity
  8
0
  6
Continuous
 62
     7
370
    15
100
AcDbSpline
210
0.0
220
0.0
230
1.0
 70
    11
 71
     3
 72
    26
 73
    22
 74
     0
 42
0.000000001
 43
0.00000001
 40
0.0
 40
0.0
 40
0.0
 40
0.0
 40
0.0539617204060823
 40
0.1079237839839511
 40
0.1618584540590726
 40
0.2156390832596
 40
0.2692185162928344
 40
0.3226534471791038
 40
0.3760708451713038
 40
0.4295967054219497
 40
0.4832941018984969
 40
0.5371438535603228
 40
0.5910676201976621
 40
0.6449690450974235
 40
0.6987690443876191
 40
0.7524271405479057
 40
0.8059520002152624
 40
0.8594022210657739
 40
0.9128723337257962
 40
0.966460094521171
 40
0.9999999999999999
 40
0.9999999999999999
 40
0.9999999999999999
 40
0.9999999999999999
 10
1423.895620373954
 20
479.376735071601
 30
0.0
 10
1423.851097707173
 20
479.414151725194
 30
0.0
 10
1423.762052090467
 20
479.4889852703327
 30
0.0
 10
1423.06825478053
 20
479.6006099121489
 30
0.0
 10
1422.047060738802
 20
479.6939058815751
 30
0.0
 10
1420.77448908126
 20
479.7577803565962
 30
0.0
 10
1419.407945560197
 20
479.7842130192207
 30
0.0
 10
1418.098620547231
 20
479.7709899889455
 30
0.0
 10
1416.992122267947
 20
479.7211176452747
 30
0.0
 10
1416.210264117256
 20
479.6418363969498
 30
0.0
 10
1415.841231123766
 20
479.5431098465161
 30
0.0
 10
1415.92904016471
 20
479.4361322723722
 30
0.0
 10
1416.466213517847
 20
479.3320562824325
 30
0.0
 10
1417.392566121744
 20
479.2411180472542
 30
0.0
 10
1418.601874884881
 20
479.1721464462206
 30
0.0
 10
1419.95568696234
 20
479.1321678017396
 30
0.0
 10
1421.299796633259
 20
479.1259066348699
 30
0.0
 10
1422.486063341091
 20
479.1550750751961
 30
0.0
 10
1423.374767494038
 20
479.2179814997942
 30
0.0
 10
1423.832749110094
 20
479.2970205428244
 30
0.0
 10
1423.878145121767
 20
479.3545781845301
 30
0.0
 10
1423.895620373954
 20
479.376735071601
 30
0.0
  0
LINE
  5
122
330
1F
100
AcDbEntity
  8
0
  6
Continuous
 62
     7
370
    15
100
AcDbLine
 10
1688.5548490789
 20
491.8454995176
 30
0.0
 11
1688.7463148309
 21
491.941038358
 31
0.0
  0
LINE
  5
123
330
1F
100
AcDbEntity
  8
0
  6
Continuous
 62
     7
370
    15
100
AcDbLine
 10
1689.0594911967
 20
492.0973091611
 30
0.0
 11
1693.056021754
 21
494.0915242686
 31
0.0
  0
SPLINE
  5
124
330
1F
100
AcDbEntity
  8
0
  6
Continuous
 62
     7
370
    15
100
AcDbSpline
210
0.0
220
0.0
230
1.0
 70
     8
 71
     3
 72
    15
 73
    11
 74
     0
 42
0.000000001
 43
0.00000001
 40
0.0
 40
0.0
 40
0.0
 40
0.0
 40
0.118148996805848
 40
0.2376963773691024
 40
0.3586775137614815
 40
0.4822853599163761
 40
0.6076344043819618
 40
0.7362375140624844
 40
0.8664212733743544
 40
1.0
 40
1.0
 40
1.0
 40
1.0
 10
1693.056021754013
 20
494.0915242686171
 30
0.0
 10
1693.296166771597
 20
494.2230163016386
 30
0.0
 10
1693.779299106751
 20
494.4875566764797
 30
0.0
 10
1695.674686173749
 20
495.4805370538449
 30
0.0
 10
1698.311633597114
 20
496.9264297861242
 30
0.0
 10
1701.646173138133
 20
498.8833109908917
 30
0.0
 10
1705.515584708212
 20
501.3606200691484
 30
0.0
 10
1709.741793915256
 20
504.3721820176861
 30
0.0
 10
1714.181849326993
 20
507.8924818961237
 30
0.0
 10
1717.063359187528
 20
510.6058825167304
 30
0.0
 10
1718.52265851344
 20
511.9800453300569
 30
0.0
  0
SPLINE
  5
125
330
1F
100
AcDbEntity
  8
0
  6
Continuous
 62
     7
370
    15
100
AcDbSpline
210
0.0
220
0.0
230
1.0
 70
     8
 71
     3
 72
    10
 73
     6
 74
     0
 42
0.000000001
 43
0.00000001
 40
0.0
 40
0.0
 40
0.0
 40
0.0
 40
0.3326757648338818
 40
0.6655400746263371
 40
1.0
 40
1.0
 40
1.0
 40
1.0
 10
1718.522658513439
 20
511.9800453300567
 30
0.0
 10
1720.261557697405
 20
513.7832580416494
 30
0.0
 10
1723.740341591514
 20
517.390705440891
 30
0.0
 10
1728.348589241804
 20
523.3704967960845
 30
0.0
 10
1730.954171698537
 20
527.669242549456
 30
0.0
 10
1732.260077985331
 20
529.8237547162666
 30
0.0
  0
SPLINE
  5
126
330
1F
100
AcDbEntity
  8
0
  6
Continuous
 62
     7
370
    15
100
AcDbSpline
210
0.0
220
0.0
230
1.0
 70
     8
 71
     3
 72
    12
 73
     8
 74
     0
 42
0.000000001
 43
0.00000001
 40
0.0
 40
0.0
 40
0.0
 40
0.0
 40
0.2092194882706303
 40
0.4134277899921625
 40
0.6124851858282939
 40
0.8076435049411902
 40
1.0
 40
1.0
 40
1.0
 40
1.0
 10
1732.260077985331
 20
529.8237547162666
 30
0.0
 10
1733.837590702082
 20
532.850412767092
 30
0.0
 10
1736.954831842292
 20
538.8312349140051
 30
0.0
 10
1740.319453690795
 20
548.2573060678197
 30
0.0
 10
1742.918920260414
 20
557.6625911435128
 30
0.0
 10
1744.875899054241
 20
567.0309271305338
 30
0.0
 10
1745.803218966561
 20
573.2814482691787
 30
0.0
 10
1746.263526551223
 20
576.3841124630384
 30
0.0
  0
SPLINE
  5
127
330
1F
100
AcDbEntity
  8
0
  6
Continuous
 62
     7
370
    15
100
AcDbSpline
210
0.0
220
0.0
230
1.0
 70
     8
 71
     3
 72
    12
 73
     8
 74
     0
 42
0.000000001
 43
0.00000001
 40
0.0
 40
0.0
 40
0.0
 40
0.0
 40
0.2049283124859686
 40
0.4060936429683146
 40
0.60505038375449
 40
0.8028164325219233
 40
1.0
 40
1.0
 40
1.0
 40
1.0
 10
1746.263955269052
 20
576.3872193464207
 30
0.0
 10
1746.928925567066
 20
581.9076096234996
 30
0.0
 10
1748.246655691862
 20
592.8470223919493
 30
0.0
 10
1749.517498575362
 20
609.2134686167379
 30
0.0
 10
1750.842746983245
 20
625.3749823377648
 30
0.0
 10
1752.297977625738
 20
641.4171002454711
 30
0.0
 10
1753.529031360998
 20
652.0557878266758
 30
0.0
 10
1754.14365043465
 20
657.3672865198221
 30
0.0
  0
SPLINE
  5
128
330
1F
100
AcDbEntity
  8
0
  6
Continuous
 62
     7
370
    15
100
AcDbSpline
210
0.0
220
0.0
230
1.0
 70
     8
 71
     3
 72
    15
 73
    11
 74
     0
 42
0.000000001
 43
0.00000001
 40
0.0
 40
0.0
 40
0.0
 40
0.0
 40
0.1230320301350533
 40
0.2468105540894975
 40
0.3706370061619413
 40
0.4957541896417051
 40
0.6206468036880205
 40
0.7468111306952238
 40
0.8726486391968162
 40
1.0
 40
1.0
 40
1.0
 40
1.0
 10
1754.14365043465
 20
657.3672865198221
 30
0.0
 10
1754.359067492853
 20
659.1974332657427
 30
0.0
 10
1754.791208646967
 20
662.8688311279896
 30
0.0
 10
1755.312471371226
 20
668.2738317373518
 30
0.0
 10
1755.696744633441
 20
673.3865380533197
 30
0.0
 10
1755.900364488813
 20
678.0160883144517
 30
0.0
 10
1755.89676008677
 20
682.0129012476734
 30
0.0
 10
1755.661536995437
 20
685.1913248420115
 30
0.0
 10
1755.204978019623
 20
687.5454971492601
 30
0.0
 10
1754.710834659265
 20
688.277339440653
 30
0.0
 10
1754.46228570233
 20
688.645448480984
 30
0.0
  0
SPLINE
  5
129
330
1F
100
AcDbEntity
  8
0
  6
Continuous
 62
     7
370
    15
100
AcDbSpline
210
0.0
220
0.0
230
1.0
 70
     8
 71
     3
 72
    11
 73
     7
 74
     0
 42
0.000000001
 43
0.00000001
 40
0.0
 40
0.0
 40
0.0
 40
0.0
 40
0.2507196054121988
 40
0.5010685723801175
 40
0.75090789041506
 40
0.9999999999999999
 40
0.9999999999999999
 40
0.9999999999999999
 40
0.9999999999999999
 10
1754.462285702329
 20
688.6454484809841
 30
0.0
 10
1753.342373987638
 20
689.685878372483
 30
0.0
 10
1751.104206122186
 20
691.7652000894182
 30
0.0
 10
1746.671916250678
 20
694.8630155796262
 30
0.0
 10
1741.515104314565
 20
697.9419837178154
 30
0.0
 10
1737.580135999252
 20
700.0046019469336
 30
0.0
 10
1735.615598380351
 20
701.0343665548885
 30
0.0
  0
SPLINE
  5
12A
330
1F
100
AcDbEntity
  8
0
  6
Continuous
 62
     7
370
    15
100
AcDbSpline
210
0.0
220
0.0
230
1.0
 70
     8
 71
     3
 72
    15
 73
    11
 74
     0
 42
0.000000001
 43
0.00000001
 40
0.0
 40
0.0
 40
0.0
 40
0.0
 40
0.1257415030306432
 40
0.2508215945005605
 40
0.3767228249192363
 40
0.5013396269494456
 40
0.6262584537873033
 40
0.7510292537878174
 40
0.8749910249224085
 40
0.9999999999999999
 40
0.9999999999999999
 40
0.9999999999999999
 40
0.9999999999999999
 10
1735.615598380351
 20
701.0343665548885
 30
0.0
 10
1735.170858200909
 20
701.3262110416331
 30
0.0
 10
1734.283717215176
 20
701.9083648869996
 30
0.0
 10
1733.064925986876
 20
703.5699298278014
 30
0.0
 10
1731.963257894392
 20
705.775971397366
 30
0.0
 10
1731.010280657606
 20
708.5641850270448
 30
0.0
 10
1730.231635953974
 20
711.8685029216141
 30
0.0
 10
1729.660448710525
 20
715.6499510556575
 30
0.0
 10
1729.295175958718
 20
719.8236194809801
 30
0.0
 10
1729.260664991831
 20
722.8611296373517
 30
0.0
 10
1729.243336929537
 20
724.386272800606
 30
0.0
  0
SPLINE
  5
12B
330
1F
100
AcDbEntity
  8
0
  6
Continuous
 62
     7
370
    15
100
AcDbSpline
210
0.0
220
0.0
230
1.0
 70
     8
 71
     3
 72
    15
 73
    11
 74
     0
 42
0.000000001
 43
0.00000001
 40
0.0
 40
0.0
 40
0.0
 40
0.0
 40
0.1243467712679925
 40
0.2485436876698303
 40
0.373082592925179
 40
0.4976496018787296
 40
0.6228026399349363
 40
0.7477918261391974
 40
0.8738744707275412
 40
1.0
 40
1.0
 40
1.0
 40
1.0
 10
1738.930125508627
 20
804.756168866387
 30
0.0
 10
1739.376772403662
 20
806.6299940657784
 30
0.0
 10
1740.269527923136
 20
810.3753862489145
 30
0.0
 10
1741.930512736928
 20
815.4398696995651
 30
0.0
 10
1743.759430673656
 20
819.9452185306116
 30
0.0
 10
1745.727302858024
 20
823.7710057138814
 30
0.0
 10
1747.765263735311
 20
826.8487733221319
 30
0.0
 10
1749.817507893416
 20
829.0980754669641
 30
0.0
 10
1751.837114517885
 20
830.5456910999585
 30
0.0
 10
1753.087529583058
 20
830.7287694526631
 30
0.0
 10
1753.712843423966
 20
830.8203241940487
 30
0.0
  0
SPLINE
  5
12C
330
1F
100
AcDbEntity
  8
0
  6
Continuous
 62
     7
370
    15
100
AcDbSpline
210
0.0
220
0.0
230
1.0
 70
     8
 71
     3
 72
    14
 73
    10
 74
     0
 42
0.000000001
 43
0.00000001
 40
0.0
 40
0.0
 40
0.0
 40
0.0
 40
0.1433526396318361
 40
0.2865549785960956
 40
0.4293375503331225
 40
0.5718368311090126
 40
0.714281876550398
 40
0.8570300378485599
 40
1.0
 40
1.0
 40
1.0
 40
1.0
 10
1753.712843423966
 20
830.8203241940488
 30
0.0
 10
1756.284825002787
 20
830.8220146127956
 30
0.0
 10
1761.426091519828
 20
830.8253936779392
 30
0.0
 10
1767.710598214931
 20
830.8364359639504
 30
0.0
 10
1772.704586921458
 20
830.8407881686636
 30
0.0
 10
1776.399311609961
 20
830.835330300104
 30
0.0
 10
1778.947017245949
 20
830.8296421498329
 30
0.0
 10
1780.533797158126
 20
830.8252509237033
 30
0.0
 10
1780.730765530968
 20
830.8246279217751
 30
0.0
 10
1780.82932616993
 20
830.8243161789953
 30
0.0
  0
SPLINE
  5
12D
330
1F
100
AcDbEntity
  8
0
  6
Continuous
 62
     7
370
    15
100
AcDbSpline
210
0.0
220
0.0
230
1.0
 70
     8
 71
     3
 72
    12
 73
     8
 74
     0
 42
0.000000001
 43
0.00000001
 40
0.0
 40
0.0
 40
0.0
 40
0.0
 40
0.0002685077393782
 40
0.2505270612713997
 40
0.5004420582002265
 40
0.7502182016710445
 40
1.0
 40
1.0
 40
1.0
 40
1.0
 10
1327.144156843191
 20
452.7338563491526
 30
0.0
 10
1327.144038895937
 20
452.7337018726291
 30
0.0
 10
1327.033990004969
 20
452.589569902445
 30
0.0
 10
1327.410025249578
 20
453.0951457389882
 30
0.0
 10
1328.340915225709
 20
454.2813366334688
 30
0.0
 10
1329.959369705104
 20
456.2166762849387
 30
0.0
 10
1331.615012214454
 20
457.9168466449426
 30
0.0
 10
1332.442842839837
 20
458.7669414476744
 30
0.0
  0
SPLINE
  5
12E
330
1F
100
AcDbEntity
  8
0
  6
Continuous
 62
     7
370
    15
100
AcDbSpline
210
0.0
220
0.0
230
1.0
 70
     8
 71
     3
 72
    21
 73
    17
 74
     0
 42
0.000000001
 43
0.00000001
 40
0.0
 40
0.0
 40
0.0
 40
0.0
 40
0.0654416661861111
 40
0.1298641123915758
 40
0.1941048209408086
 40
0.2580853886433779
 40
0.3420481914052742
 40
0.4256162837794482
 40
0.508168680171062
 40
0.5901129732712193
 40
0.6721710145541492
 40
0.7532535761449234
 40
0.8140924864900675
 40
0.8756122978180905
 40
0.9376949808199375
 40
1.0
 40
1.0
 40
1.0
 40
1.0
 10
1332.442842839837
 20
458.7669414476744
 30
0.0
 10
1332.635526182283
 20
458.959578287329
 30
0.0
 10
1333.017891924136
 20
459.3418517478569
 30
0.0
 10
1334.197265106948
 20
460.4825178179595
 30
0.0
 10
1335.772153100682
 20
461.9298436036635
 30
0.0
 10
1337.978621766572
 20
463.830650015361
 30
0.0
 10
1340.935838409182
 20
466.1653217388517
 30
0.0
 10
1344.796151149574
 20
468.8736995593667
 30
0.0
 10
1349.263487297714
 20
471.6316134824461
 30
0.0
 10
1354.309993984838
 20
474.3470898751086
 30
0.0
 10
1359.897953251959
 20
476.9279842328164
 30
0.0
 10
1365.49086776449
 20
479.0986375892381
 30
0.0
 10
1370.901891211813
 20
480.8790759678182
 30
0.0
 10
1376.026408729834
 20
482.3206405563108
 30
0.0
 10
1381.356863308593
 20
483.6000409197842
 30
0.0
 10
1385.005601760608
 20
484.2832174360258
 30
0.0
 10
1386.833231946294
 20
484.6254162643758
 30
0.0
  0
SPLINE
  5
12F
330
1F
100
AcDbEntity
  8
0
  6
Continuous
 62
     7
370
    15
100
AcDbSpline
210
0.0
220
0.0
230
1.0
 70
     8
 71
     3
 72
    20
 73
    16
 74
     0
 42
0.000000001
 43
0.00000001
 40
0.0
 40
0.0
 40
0.0
 40
0.0
 40
0.0539528390076867
 40
0.1084850807084102
 40
0.1636877918662224
 40
0.2193813558346966
 40
0.2752989916317822
 40
0.3855508593105524
 40
0.4957833022560188
 40
0.5791780437002542
 40
0.6627588731060625
 40
0.7466272889816536
 40
0.8306886980584846
 40
0.9148720559089073
 40
1.0
 40
1.0
 40
1.0
 40
1.0
 10
1386.833231946294
 20
484.6254162643758
 30
0.0
 10
1391.434786705369
 20
485.3257700743948
 30
0.0
 10
1400.687312589156
 20
486.7339988349522
 30
0.0
 10
1414.77812130756
 20
487.7556828529414
 30
0.0
 10
1429.032640988806
 20
488.345529488392
 30
0.0
 10
1443.417511887546
 20
488.6518615473362
 30
0.0
 10
1462.551676855612
 20
488.8418173906053
 30
0.0
 10
1486.391220023369
 20
488.8324267213151
 30
0.0
 10
1512.600336585295
 20
488.6981585089118
 30
0.0
 10
1536.505787915305
 20
488.2635068028629
 30
0.0
 10
1558.132192344351
 20
487.6541021473422
 30
0.0
 10
1579.814374647995
 20
486.9877301866396
 30
0.0
 10
1601.551593543171
 20
486.4478374912937
 30
0.0
 10
1623.400874471695
 20
486.0021946649089
 30
0.0
 10
1638.002726488737
 20
486.0684425724469
 30
0.0
 10
1645.344384298223
 20
486.1017513244581
 30
0.0
  0
SPLINE
  5
130
330
1F
100
AcDbEntity
  8
0
  6
Continuous
 62
     7
370
    15
100
AcDbSpline
210
0.0
220
0.0
230
1.0
 70
     8
 71
     3
 72
    15
 73
    11
 74
     0
 42
0.000000001
 43
0.00000001
 40
0.0
 40
0.0
 40
0.0
 40
0.0
 40
0.1232164449738705
 40
0.2483985385992837
 40
0.374876193089599
 40
0.5023543033739063
 40
0.6292432743077706
 40
0.7550718364329144
 40
0.8783195516706588
 40
0.9999999999999999
 40
0.9999999999999999
 40
0.9999999999999999
 40
0.9999999999999999
 10
1645.344384298223
 20
486.1017513244581
 30
0.0
 10
1647.724960436496
 20
486.1574898072593
 30
0.0
 10
1652.524089594108
 20
486.2698559583399
 30
0.0
 10
1659.539126195583
 20
486.5748625511877
 30
0.0
 10
1666.233383051083
 20
487.0872664228786
 30
0.0
 10
1672.389303285348
 20
487.8377437065603
 30
0.0
 10
1677.827860012233
 20
488.8030081665771
 30
0.0
 10
1682.310283127425
 20
489.8635650229806
 30
0.0
 10
1685.822383621413
 20
490.8903290566996
 30
0.0
 10
1687.124690859304
 20
491.3394624593116
 30
0.0
 10
1687.771677821772
 20
491.5625921843444
 30
0.0
  0
LINE
  5
131
330
1F
100
AcDbEntity
  8
0
  6
Continuous
 62
     7
370
    15
100
AcDbLine
 10
1687.7716778218
 20
491.5625921843
 30
0.0
 11
1688.5548490789
 21
491.8454995176
 31
0.0
  0
SPLINE
  5
132
330
1F
100
AcDbEntity
  8
0
  6
Continuous
 62
     7
370
    15
100
AcDbSpline
210
0.0
220
0.0
230
1.0
 70
     8
 71
     3
 72
    12
 73
     8
 74
     0
 42
0.000000001
 43
0.00000001
 40
0.0
 40
0.0
 40
0.0
 40
0.0
 40
0.2499714980307361
 40
0.4999482582008883
 40
0.6666092642532219
 40
0.8332776003114327
 40
1.0
 40
1.0
 40
1.0
 40
1.0
 10
1744.271148630855
 20
658.5090810413787
 30
0.0
 10
1743.502192763513
 20
651.7893352054396
 30
0.0
 10
1741.964264841571
 20
638.3497020764761
 30
0.0
 10
1740.439345370047
 20
620.3765101443223
 30
0.0
 10
1739.15393712865
 20
604.6478272344706
 30
0.0
 10
1738.032010464746
 20
591.162754828979
 30
0.0
 10
1736.921749154166
 20
582.2101035962424
 30
0.0
 10
1736.366528477243
 20
577.7330520856378
 30
0.0
  0
SPLINE
  5
133
330
1F
100
AcDbEntity
  8
0
  6
Continuous
 62
     7
370
    15
100
AcDbSpline
210
0.0
220
0.0
230
1.0
 70
     8
 71
     3
 72
    15
 73
    11
 74
     0
 42
0.000000001
 43
0.00000001
 40
0.0
 40
0.0
 40
0.0
 40
0.0
 40
0.1253126906535317
 40
0.2498044998513742
 40
0.3741496877463588
 40
0.4990482899911519
 40
0.6247253390302275
 40
0.7497145168393012
 40
0.8745422653156568
 40
1.0
 40
1.0
 40
1.0
 40
1.0
 10
1729.548389536523
 20
805.9674146551444
 30
0.0
 10
1728.850666037165
 20
802.6908716067347
 30
0.0
 10
1727.45978959135
 20
796.1592490457567
 30
0.0
 10
1725.621230439892
 20
786.1460683283392
 30
0.0
 10
1723.968837310564
 20
776.0441222729262
 30
0.0
 10
1722.553320864438
 20
765.8402150971436
 30
0.0
 10
1721.398244525562
 20
755.6094576489365
 30
0.0
 10
1720.54501310667
 20
745.435887029823
 30
0.0
 10
1719.982552901575
 20
735.3641986597083
 30
0.0
 10
1719.876645851559
 20
728.8093237717
 30
0.0
 10
1719.823559038795
 20
725.5236367865668
 30
0.0
  0
SPLINE
  5
134
330
1F
100
AcDbEntity
  8
0
  6
Continuous
 62
     7
370
    15
100
AcDbSpline
210
0.0
220
0.0
230
1.0
 70
    24
 71
     3
 72
    14
 73
    10
 74
     0
 42
0.000000001
 43
0.00000001
 40
0.0
 40
0.0
 40
0.0
 40
0.0
 40
0.1435655126448383
 40
0.2864279414748752
 40
0.4288558345749359
 40
0.5712064479824359
 40
0.7137707454155799
 40
0.8567671481799901
 40
0.9999999999999999
 40
0.9999999999999999
 40
0.9999999999999999
 40
0.9999999999999999
 10
1744.246569805876
 20
832.0873782373494
 30
0.0
 10
1746.780721362619
 20
832.0873782373494
 30
0.0
 10
1751.836613968102
 20
832.0873782373494
 30
0.0
 10
1758.011834498389
 20
832.0873782373495
 30
0.0
 10
1762.91456202979
 20
832.0873782373494
 30
0.0
 10
1766.546004274123
 20
832.0873782373494
 30
0.0
 10
1769.05419005302
 20
832.0873782373494
 30
0.0
 10
1770.618035925997
 20
832.0873782373494
 30
0.0
 10
1770.812244861728
 20
832.0873782373496
 30
0.0
 10
1770.909429545922
 20
832.0873782373495
 30
0.0
  0
SPLINE
  5
135
330
1F
100
AcDbEntity
  8
0
  6
Continuous
 62
     7
370
    15
100
AcDbSpline
210
0.0
220
0.0
230
1.0
 70
     8
 71
     3
 72
    15
 73
    11
 74
     0
 42
0.000000001
 43
0.00000001
 40
0.0
 40
0.0
 40
0.0
 40
0.0
 40
0.1248989672041086
 40
0.2497209348632229
 40
0.3747959911725162
 40
0.4996340419898636
 40
0.6247435487825099
 40
0.7493677115542018
 40
0.8747833569161491
 40
1.0
 40
1.0
 40
1.0
 40
1.0
 10
1729.550237176171
 20
805.9674146551444
 30
0.0
 10
1729.996106063904
 20
807.8417146054551
 30
0.0
 10
1730.887568963589
 20
811.5891590101858
 30
0.0
 10
1732.544429153479
 20
816.6626889848068
 30
0.0
 10
1734.367450142451
 20
821.1817787161086
 30
0.0
 10
1736.327095320364
 20
825.0189375287113
 30
0.0
 10
1738.353271111353
 20
828.1055189549434
 30
0.0
 10
1740.390149855881
 20
830.3605196943107
 30
0.0
 10
1742.391196276699
 20
831.8118021502135
 30
0.0
 10
1743.628439420232
 20
831.9955681784386
 30
0.0
 10
1744.246569805876
 20
832.0873782373494
 30
0.0
  0
SPLINE
  5
136
330
1F
100
AcDbEntity
  8
0
  6
Continuous
 62
     7
370
    15
100
AcDbSpline
210
0.0
220
0.0
230
1.0
 70
     8
 71
     3
 72
    15
 73
    11
 74
     0
 42
0.000000001
 43
0.00000001
 40
0.0
 40
0.0
 40
0.0
 40
0.0
 40
0.1250954691891244
 40
0.2496344123619166
 40
0.3751411620401939
 40
0.4995703591419637
 40
0.6245499351979187
 40
0.7496469500367735
 40
0.8741733403233929
 40
1.0
 40
1.0
 40
1.0
 40
1.0
 10
1726.107740538003
 20
702.120416557153
 30
0.0
 10
1725.66641888322
 20
702.4064679538734
 30
0.0
 10
1724.785738929993
 20
702.9772981589039
 30
0.0
 10
1723.577137269932
 20
704.6292080222545
 30
0.0
 10
1722.485822570281
 20
706.8324729868873
 30
0.0
 10
1721.543773734467
 20
709.6261567738745
 30
0.0
 10
1720.776650281638
 20
712.9433904352353
 30
0.0
 10
1720.217386305782
 20
716.7432731543998
 30
0.0
 10
1719.864016580931
 20
720.9395532122546
 30
0.0
 10
1719.837133684978
 20
723.9903272830152
 30
0.0
 10
1719.823622425575
 20
725.523636786567
 30
0.0
  0
SPLINE
  5
137
330
1F
100
AcDbEntity
  8
0
  6
Continuous
 62
     7
370
    15
100
AcDbSpline
210
0.0
220
0.0
230
1.0
 70
     8
 71
     3
 72
    11
 73
     7
 74
     0
 42
0.000000001
 43
0.00000001
 40
0.0
 40
0.0
 40
0.0
 40
0.0
 40
0.2501844504654327
 40
0.5000199957653734
 40
0.7498787045002164
 40
1.0
 40
1.0
 40
1.0
 40
1.0
 10
1744.672462095555
 20
689.918093770387
 30
0.0
 10
1743.573373759022
 20
690.9487499871199
 30
0.0
 10
1741.37672986546
 20
693.0086250759495
 30
0.0
 10
1737.020953738576
 20
696.0711125465084
 30
0.0
 10
1731.939277000299
 20
699.1094285019466
 30
0.0
 10
1728.052266504323
 20
701.1164025214898
 30
0.0
 10
1726.107740538003
 20
702.120416557153
 30
0.0
  0
SPLINE
  5
138
330
1F
100
AcDbEntity
  8
0
  6
Continuous
 62
     7
370
    15
100
AcDbSpline
210
0.0
220
0.0
230
1.0
 70
     8
 71
     3
 72
    15
 73
    11
 74
     0
 42
0.000000001
 43
0.00000001
 40
0.0
 40
0.0
 40
0.0
 40
0.0
 40
0.1248588076731486
 40
0.2499761431157683
 40
0.3745532304217317
 40
0.4998005208732761
 40
0.6242770335286002
 40
0.7495619611205692
 40
0.8741539404848943
 40
1.0
 40
1.0
 40
1.0
 40
1.0
 10
1744.271275350358
 20
658.5090810413787
 30
0.0
 10
1744.489386661859
 20
660.3571155649397
 30
0.0
 10
1744.926060897622
 20
664.0570110801514
 30
0.0
 10
1745.455890205822
 20
669.5000671724822
 30
0.0
 10
1745.848926330264
 20
674.6384106582259
 30
0.0
 10
1746.061791711476
 20
679.2827333552381
 30
0.0
 10
1746.068405793677
 20
683.2867632166184
 30
0.0
 10
1745.844847730864
 20
686.468359443109
 30
0.0
 10
1745.401309064003
 20
688.8227363928656
 30
0.0
 10
1744.916220785758
 20
689.5517577750314
 30
0.0
 10
1744.672462095555
 20
689.918093770387
 30
0.0
  0
SPLINE
  5
139
330
1F
100
AcDbEntity
  8
0
  6
Continuous
 62
     7
370
    15
100
AcDbSpline
210
0.0
220
0.0
230
1.0
 70
     8
 71
     3
 72
    12
 73
     8
 74
     0
 42
0.000000001
 43
0.00000001
 40
0.0
 40
0.0
 40
0.0
 40
0.0
 40
0.1667223754313849
 40
0.3333906914289282
 40
0.5000516854694865
 40
0.7500284522049662
 40
0.9999999999999999
 40
0.9999999999999999
 40
0.9999999999999999
 40
0.9999999999999999
 10
1736.366773083805
 20
577.7327740230407
 30
0.0
 10
1736.921984651236
 20
582.2098406958903
 30
0.0
 10
1738.032227759734
 20
591.1625223606796
 30
0.0
 10
1739.154128090825
 20
604.6476395593177
 30
0.0
 10
1740.43951097275
 20
620.376375542537
 30
0.0
 10
1741.964408673664
 20
638.3496299175713
 30
0.0
 10
1743.502325142876
 20
651.7893107655398
 30
0.0
 10
1744.271275350358
 20
658.5090810413787
 30
0.0
  0
SPLINE
  5
13A
330
1F
100
AcDbEntity
  8
0
  6
Continuous
 62
     7
370
    15
100
AcDbSpline
210
0.0
220
0.0
230
1.0
 70
     8
 71
     3
 72
    12
 73
     8
 74
     0
 42
0.000000001
 43
0.00000001
 40
0.0
 40
0.0
 40
0.0
 40
0.0
 40
0.2010946504065013
 40
0.4020259239636514
 40
0.6017330856143639
 40
0.8008024099074527
 40
1.0
 40
1.0
 40
1.0
 40
1.0
 10
1723.566629888934
 20
534.765647275777
 30
0.0
 10
1724.963352491285
 20
537.4477956854529
 30
0.0
 10
1727.755662946068
 20
542.8099134266652
 30
0.0
 10
1730.799504638785
 20
551.3489496268376
 30
0.0
 10
1733.202147316052
 20
560.038825800086
 30
0.0
 10
1735.042375129367
 20
568.844504132396
 30
0.0
 10
1735.924936092719
 20
574.7673887605099
 30
0.0
 10
1736.366358693138
 20
577.7297848363588
 30
0.0
  0
SPLINE
  5
13B
330
1F
100
AcDbEntity
  8
0
  6
Continuous
 62
     7
370
    15
100
AcDbSpline
210
0.0
220
0.0
230
1.0
 70
     8
 71
     3
 72
    10
 73
     6
 74
     0
 42
0.000000001
 43
0.00000001
 40
0.0
 40
0.0
 40
0.0
 40
0.0
 40
0.3330768012687974
 40
0.6654158796728645
 40
1.0
 40
1.0
 40
1.0
 40
1.0
 10
1711.521378666318
 20
519.1197137092694
 30
0.0
 10
1713.048438939284
 20
520.7024968503684
 30
0.0
 10
1716.099177240417
 20
523.8645574686818
 30
0.0
 10
1720.139551113436
 20
529.1079031444935
 30
0.0
 10
1722.421709511847
 20
532.8755049800809
 30
0.0
 10
1723.566629888934
 20
534.765647275777
 30
0.0
  0
SPLINE
  5
13C
330
1F
100
AcDbEntity
  8
0
  6
Continuous
 62
     7
370
    15
100
AcDbSpline
210
0.0
220
0.0
230
1.0
 70
     8
 71
     3
 72
    15
 73
    11
 74
     0
 42
0.000000001
 43
0.00000001
 40
0.0
 40
0.0
 40
0.0
 40
0.0
 40
0.1249075696527679
 40
0.2500099103251108
 40
0.3747959867367061
 40
0.5000718115166186
 40
0.6246669043886223
 40
0.7499715715637858
 40
0.8743952744043055
 40
1.0
 40
1.0
 40
1.0
 40
1.0
 10
1688.76991660131
 20
503.1259893690672
 30
0.0
 10
1688.980543869027
 20
503.2433847860949
 30
0.0
 10
1689.40212684002
 20
503.4783586773108
 30
0.0
 10
1691.100922046296
 20
504.37354737953
 30
0.0
 10
1693.473050737463
 20
505.6789239038588
 30
0.0
 10
1696.471086668428
 20
507.4424310699942
 30
0.0
 10
1699.941681673006
 20
509.6672346564892
 30
0.0
 10
1703.71786076267
 20
512.3600804493307
 30
0.0
 10
1707.665799972365
 20
515.4893549253774
 30
0.0
 10
1710.232145011971
 20
517.9057893951606
 30
0.0
 10
1711.521378666318
 20
519.1197137092693
 30
0.0
  0
LINE
  5
13D
330
1F
100
AcDbEntity
  8
0
  6
Continuous
 62
     7
370
    15
100
AcDbLine
 10
1685.0165552056
 20
501.1985986963
 30
0.0
 11
1685.1740480181
 21
501.279472917
 31
0.0
  0
LINE
  5
13E
330
1F
100
AcDbEntity
  8
0
  6
Continuous
 62
     7
370
    15
100
AcDbLine
 10
1685.4853968494
 20
501.4393538264
 30
0.0
 11
1688.7699166013
 21
503.1259893691
 31
0.0
  0
LINE
  5
13F
330
1F
100
AcDbEntity
  8
0
  6
Continuous
 62
     7
370
    15
100
AcDbLine
 10
1684.3544479991
 20
500.9605632238
 30
0.0
 11
1685.0165552056
 21
501.1985986963
 31
0.0
  0
SPLINE
  5
140
330
1F
100
AcDbEntity
  8
0
  6
Continuous
 62
     7
370
    15
100
AcDbSpline
210
0.0
220
0.0
230
1.0
 70
     8
 71
     3
 72
    15
 73
    11
 74
     0
 42
0.000000001
 43
0.00000001
 40
0.0
 40
0.0
 40
0.0
 40
0.0
 40
0.1249601196645072
 40
0.2500127170096473
 40
0.3748707461875823
 40
0.4999965733265132
 40
0.6248208008781897
 40
0.7500496380514812
 40
0.8747641347936631
 40
1.0
 40
1.0
 40
1.0
 40
1.0
 10
1645.117091323577
 20
496.0664966424447
 30
0.0
 10
1647.418350955538
 20
496.1228192889297
 30
0.0
 10
1652.022573284035
 20
496.2355062638999
 30
0.0
 10
1658.717370746883
 20
496.5276581353711
 30
0.0
 10
1665.002525136479
 20
497.0048512401794
 30
0.0
 10
1670.679485574254
 20
497.6890919722729
 30
0.0
 10
1675.601330648243
 20
498.5533132914674
 30
0.0
 10
1679.595282430672
 20
499.4902340539276
 30
0.0
 10
1682.684333680438
 20
500.3872964826832
 30
0.0
 10
1683.796969614874
 20
500.7692087679929
 30
0.0
 10
1684.354447999072
 20
500.960563223777
 30
0.0
  0
SPLINE
  5
141
330
1F
100
AcDbEntity
  8
0
  6
Continuous
 62
     7
370
    15
100
AcDbSpline
210
0.0
220
0.0
230
1.0
 70
     8
 71
     3
 72
    19
 73
    15
 74
     0
 42
0.000000001
 43
0.00000001
 40
0.0
 40
0.0
 40
0.0
 40
0.0
 40
0.0559879389603828
 40
0.1119820318938523
 40
0.1679810327693693
 40
0.223983119359693
 40
0.2799840019010024
 40
0.3899869204237754
 40
0.499990613188879
 40
0.5999905907325127
 40
0.6999938318798088
 40
0.7999941371733758
 40
0.8999955000086829
 40
0.9999999999999999
 40
0.9999999999999999
 40
0.9999999999999999
 40
0.9999999999999999
 10
1385.117091601252
 20
494.4536790317113
 30
0.0
 10
1389.920835971723
 20
495.1797235990513
 30
0.0
 10
1399.52885272127
 20
496.6318925376821
 30
0.0
 10
1414.073385710594
 20
497.6810060499112
 30
0.0
 10
1428.633428176256
 20
498.2692014384463
 30
0.0
 10
1443.204462516901
 20
498.568185483171
 30
0.0
 10
1462.46125114816
 20
498.7434688555022
 30
0.0
 10
1486.403376036691
 20
498.7251760424065
 30
0.0
 10
1514.161788108968
 20
498.5757859985751
 30
0.0
 10
1541.04871042721
 20
498.0586597523981
 30
0.0
 10
1567.060228731882
 20
497.2687913501239
 30
0.0
 10
1593.07332419777
 20
496.5505249258379
 30
0.0
 10
1619.092300232154
 20
495.9725303249037
 30
0.0
 10
1636.442069891961
 20
496.0351738397707
 30
0.0
 10
1645.117090790211
 20
496.0664960884961
 30
0.0
  0
SPLINE
  5
142
330
1F
100
AcDbEntity
  8
0
  6
Continuous
 62
     7
370
    15
100
AcDbSpline
210
0.0
220
0.0
230
1.0
 70
     8
 71
     3
 72
    20
 73
    16
 74
     0
 42
0.000000001
 43
0.00000001
 40
0.0
 40
0.0
 40
0.0
 40
0.0
 40
0.0626364884971816
 40
0.1247397382324264
 40
0.1872131023981177
 40
0.2500143218218205
 40
0.3332799457111471
 40
0.4169341654700874
 40
0.5001350814568852
 40
0.5832027959985117
 40
0.6668265766459366
 40
0.7496640754664592
 40
0.8324243388566409
 40
0.916153135446807
 40
1.0
 40
1.0
 40
1.0
 40
1.0
 10
1325.336110939304
 20
465.8021603935971
 30
0.0
 10
1325.557093387947
 20
466.0233218077326
 30
0.0
 10
1325.997177011073
 20
466.4637618382687
 30
0.0
 10
1327.343422322748
 20
467.7659194822222
 30
0.0
 10
1329.13613969119
 20
469.4130702135012
 30
0.0
 10
1331.646422000546
 20
471.5748893233692
 30
0.0
 10
1335.007346742984
 20
474.2254539351281
 30
0.0
 10
1339.360987785793
 20
477.2752632444322
 30
0.0
 10
1344.358255574499
 20
480.3530414467762
 30
0.0
 10
1349.962480941856
 20
483.3593428826186
 30
0.0
 10
1356.127667678043
 20
486.1939631109972
 30
0.0
 10
1362.799692567643
 20
488.7726607600619
 30
0.0
 10
1369.910177693227
 20
491.0348380564442
 30
0.0
 10
1377.381276000259
 20
492.984477905515
 30
0.0
 10
1382.537275303411
 20
493.9637150042999
 30
0.0
 10
1385.117091323577
 20
494.4536785218363
 30
0.0
  0
LINE
  5
143
330
1F
100
AcDbEntity
  8
0
  6
Continuous
 62
     7
370
    15
100
AcDbLine
 10
1325.3361109393
 20
465.8030358822
 30
0.0
 11
1324.6101699327
 21
465.0455222056
 31
0.0
  0
SPLINE
  5
144
330
1F
100
AcDbEntity
  8
0
  6
Continuous
 62
     7
370
    15
100
AcDbSpline
210
0.0
220
0.0
230
1.0
 70
     8
 71
     3
 72
    12
 73
     8
 74
     0
 42
0.000000001
 43
0.00000001
 40
0.0
 40
0.0
 40
0.0
 40
0.0
 40
0.1202848755556341
 40
0.340285998240593
 40
0.5601250984731091
 40
0.7799897863813722
 40
1.0
 40
1.0
 40
1.0
 40
1.0
 10
1319.208390598216
 20
458.8192072864067
 30
0.0
 10
1319.195333483371
 20
458.802413912504
 30
0.0
 10
1319.158394896214
 20
458.7549054458252
 30
0.0
 10
1319.766033878731
 20
459.5633767144524
 30
0.0
 10
1320.982565494026
 20
461.077562959089
 30
0.0
 10
1322.784869956082
 20
463.1898152875863
 30
0.0
 10
1324.485509734899
 20
464.9311866564607
 30
0.0
 10
1325.336110939304
 20
465.8021603935972
 30
0.0
  0
LINE
  5
145
330
1F
100
AcDbEntity
  8
0
  6
Continuous
 62
     7
370
    15
100
AcDbLine
 10
1685.0165552056
 20
501.2019049746
 30
0.0
 11
1684.6845355292
 21
501.0822650491
 31
0.0
  0
SPLINE
  5
146
330
1F
100
AcDbEntity
  8
0
  6
Continuous
 62
     7
370
    15
100
AcDbSpline
210
0.0
220
0.0
230
1.0
 70
     8
 71
     3
 72
     9
 73
     5
 74
     0
 42
0.000000001
 43
0.00000001
 40
0.0
 40
0.0
 40
0.0
 40
0.0
 40
0.0985284217360866
 40
1.0
 40
1.0
 40
1.0
 40
1.0
 10
1719.585539888848
 20
528.589735989002
 30
0.0
 10
1719.733752216479
 20
528.7803120477298
 30
0.0
 10
1721.238011850596
 20
530.7145362580621
 30
0.0
 10
1722.462299912073
 20
532.8449341004682
 30
0.0
 10
1723.565960803102
 20
534.765427205792
 30
0.0
  0
SPLINE
  5
147
330
1F
100
AcDbEntity
  8
0
  6
Continuous
 62
     7
370
    15
100
AcDbSpline
210
0.0
220
0.0
230
1.0
 70
     8
 71
     3
 72
    12
 73
     8
 74
     0
 42
0.000000001
 43
0.00000001
 40
0.0
 40
0.0
 40
0.0
 40
0.0
 40
0.2010946341189831
 40
0.4020258790357041
 40
0.601732955057195
 40
0.8008022906970038
 40
0.9999999999999999
 40
0.9999999999999999
 40
0.9999999999999999
 40
0.9999999999999999
 10
1723.565960803102
 20
534.765427205792
 30
0.0
 10
1724.962818616076
 20
537.4477800524863
 30
0.0
 10
1727.755399296356
 20
542.8103063366941
 30
0.0
 10
1730.799461133586
 20
551.3500408713326
 30
0.0
 10
1733.202235467007
 20
560.0406325638359
 30
0.0
 10
1735.042524277963
 20
568.8470395459414
 30
0.0
 10
1735.925098732254
 20
574.7704117980065
 30
0.0
 10
1736.366528199785
 20
577.733052566162
 30
0.0
  0
LINE
  5
148
330
1F
100
AcDbEntity
  8
0
  6
Continuous
 62
     7
370
    15
100
AcDbLine
 10
1382.2550095853
 20
53.6511970502
 30
0.0
 11
1382.3359360229
 21
49.6907419077
 31
0.0
  0
ARC
  5
149
330
1F
100
AcDbEntity
  8
0
  6
Continuous
 62
     7
370
    15
100
AcDbCircle
 10
1378.4580740315
 20
49.6115735678
 30
0.0
 40
3.878670036329905
100
AcDbArc
 50
359.9993200079
 51
1.1695572784
  0
LINE
  5
14A
330
1F
100
AcDbEntity
  8
0
  6
Continuous
 62
     7
370
    15
100
AcDbLine
 10
1382.3367440675
 20
49.6115275354
 30
0.0
 11
1382.3367440675
 21
48.1511970502
 31
0.0
  0
ARC
  5
14B
330
1F
100
AcDbEntity
  8
0
  6
Continuous
 62
     7
370
    15
100
AcDbCircle
 10
1381.1716647025
 20
47.9177276624
 30
0.0
 40
1.188241508234835
100
AcDbArc
 50
319.8270779191
 51
11.3313758255
  0
LINE
  5
14C
330
1F
100
AcDbEntity
  8
0
  6
Continuous
 62
     7
370
    15
100
AcDbLine
 10
1382.0796012104
 20
47.1511970502
 30
0.0
 11
1378.9938869247
 21
47.1511970503
 31
0.0
  0
ARC
  5
14D
330
1F
100
AcDbEntity
  8
0
  6
Continuous
 62
     7
370
    15
100
AcDbCircle
 10
1379.9018234326
 20
47.9177276625
 30
0.0
 40
1.188241508282752
100
AcDbArc
 50
168.6686241749
 51
220.1729220798
  0
LINE
  5
14E
330
1F
100
AcDbEntity
  8
0
  6
Continuous
 62
     7
370
    15
100
AcDbLine
 10
1378.7367440675
 20
48.1511970503
 30
0.0
 11
1378.7367440675
 21
49.6115275354
 31
0.0
  0
ARC
  5
14F
330
1F
100
AcDbEntity
  8
0
  6
Continuous
 62
     7
370
    15
100
AcDbCircle
 10
1382.6154141043
 20
49.6115735679
 30
0.0
 40
3.878670037042949
100
AcDbArc
 50
178.8304427216
 51
180.0006799919
  0
LINE
  5
150
330
1F
100
AcDbEntity
  8
0
  6
Continuous
 62
     7
370
    15
100
AcDbLine
 10
1378.7375521121
 20
49.6907419078
 30
0.0
 11
1378.9104298423
 21
58.1511970503
 31
0.0
  0
LWPOLYLINE
  5
151
330
1F
100
AcDbEntity
  8
0
  6
Continuous
 62
     7
370
    15
100
AcDbPolyline
 90
        9
 70
   128
 43
0.0
 10
1378.9104298423
 20
58.1511970503
 10
1379.0512178812
 20
56.6719796569
 10
1379.2794796879
 20
55.3681905884
 10
1379.5817742874
 20
54.3166021986
 10
1379.9403013556
 20
53.5791362495
 10
1380.333949374
 20
53.1992177076
 10
1380.7395387611
 20
53.1992177076
 10
1381.1331867795
 20
53.5791362494
 10
1381.1796012104
 20
53.6511970502
  0
LINE
  5
152
330
1F
100
AcDbEntity
  8
0
  6
Continuous
 62
     7
370
    15
100
AcDbLine
 10
1340.0818080097
 20
48.1511970503
 30
0.0
 11
1340.0818080097
 21
49.6115275354
 31
0.0
  0
LINE
  5
153
330
1F
100
AcDbEntity
  8
0
  6
Continuous
 62
     7
370
    15
100
AcDbLine
 10
1378.9938869247
 20
47.1511970503
 30
0.0
 11
1340.3389508669
 21
47.1511970503
 31
0.0
  0
ARC
  5
154
330
1F
100
AcDbEntity
  8
0
  6
Continuous
 62
     7
370
    15
100
AcDbCircle
 10
1341.2468873748
 20
47.9177276625
 30
0.0
 40
1.188241508282573
100
AcDbArc
 50
168.6686241749
 51
220.1729220798
  0
ARC
  5
155
330
1F
100
AcDbEntity
  8
0
  6
Continuous
 62
     7
370
    15
100
AcDbCircle
 10
1343.9604780465
 20
49.6115735679
 30
0.0
 40
3.878670037042722
100
AcDbArc
 50
178.8304427216
 51
180.0006799919
  0
LINE
  5
156
330
1F
100
AcDbEntity
  8
0
  6
Continuous
 62
     7
370
    15
100
AcDbLine
 10
1378.9104298423
 20
58.1511970503
 30
0.0
 11
1340.2554937845
 21
58.1511970503
 31
0.0
  0
LINE
  5
157
330
1F
100
AcDbEntity
  8
0
  6
Continuous
 62
     7
370
    15
100
AcDbLine
 10
1340.0826160543
 20
49.6907419078
 30
0.0
 11
1340.2554937845
 21
58.1511970503
 31
0.0
  0
LINE
  5
158
330
1F
100
AcDbEntity
  8
0
  6
Continuous
 62
     7
370
    15
100
AcDbLine
 10
1744.34790165
 20
47.1511970502
 30
0.0
 11
1784.3452715817
 21
47.1511970502
 31
0.0
  0
ARC
  5
159
330
1F
100
AcDbEntity
  8
0
  6
Continuous
 62
     7
370
    15
100
AcDbCircle
 10
1722.5496574449
 20
47.901229925
 30
0.0
 40
21.81114393472648
100
AcDbArc
 50
358.0293471854
 51
0.6566539964
  0
ARC
  5
15A
330
1F
100
AcDbEntity
  8
0
  6
Continuous
 62
     7
370
    15
100
AcDbCircle
 10
1762.5470273761
 20
47.901229925
 30
0.0
 40
21.81114393507628
100
AcDbArc
 50
358.0293471854
 51
0.6566539963
  0
LINE
  5
15B
330
1F
100
AcDbEntity
  8
0
  6
Continuous
 62
     7
370
    15
100
AcDbLine
 10
1744.3593689555
 20
50.6511970502
 30
0.0
 11
1744.3593689555
 21
48.1511970502
 31
0.0
  0
LINE
  5
15C
330
1F
100
AcDbEntity
  8
0
  6
Continuous
 62
     7
370
    15
100
AcDbLine
 10
1784.3567388871
 20
50.6511970502
 30
0.0
 11
1784.3567388871
 21
48.1511970502
 31
0.0
  0
LINE
  5
15D
330
1F
100
AcDbEntity
  8
0
  6
Continuous
 62
     7
370
    15
100
AcDbLine
 10
1744.351623425
 20
58.1511970502
 30
0.0
 11
1744.3593221738
 21
50.7414328805
 31
0.0
  0
ARC
  5
15E
330
1F
100
AcDbEntity
  8
0
  6
Continuous
 62
     7
370
    15
100
AcDbCircle
 10
1657.4733899886
 20
50.6512699479
 30
0.0
 40
86.88597896693807
100
AcDbArc
 50
359.9999519287
 51
0.0594567328
  0
LINE
  5
15F
330
1F
100
AcDbEntity
  8
0
  6
Continuous
 62
     7
370
    15
100
AcDbLine
 10
1744.34790165
 20
47.1511970502
 30
0.0
 11
1744.2102939843
 21
47.1511970502
 31
0.0
  0
ARC
  5
160
330
1F
100
AcDbEntity
  8
0
  6
Continuous
 62
     7
370
    15
100
AcDbCircle
 10
1766.0085381891
 20
47.901229925
 30
0.0
 40
21.811143934354
100
AcDbArc
 50
179.3433460037
 51
181.9706528146
  0
LINE
  5
161
330
1F
100
AcDbEntity
  8
0
  6
Continuous
 62
     7
370
    15
100
AcDbLine
 10
1744.1988266788
 20
48.1511970502
 30
0.0
 11
1744.1988266788
 21
50.6511970502
 31
0.0
  0
ARC
  5
162
330
1F
100
AcDbEntity
  8
0
  6
Continuous
 62
     7
370
    15
100
AcDbCircle
 10
1831.0848061138
 20
50.6512699474
 30
0.0
 40
86.88597943506909
100
AcDbArc
 50
179.9405432672
 51
180.000048071
  0
LINE
  5
163
330
1F
100
AcDbEntity
  8
0
  6
Continuous
 62
     7
370
    15
100
AcDbLine
 10
1744.1988734605
 20
50.7414328805
 30
0.0
 11
1744.201896707
 21
53.6511970502
 31
0.0
  0
LWPOLYLINE
  5
164
330
1F
100
AcDbEntity
  8
0
  6
Continuous
 62
     7
370
    15
100
AcDbPolyline
 90
        9
 70
   128
 43
0.0
 10
1744.2504295534
 20
53.6511970502
 10
1744.2524994086
 20
53.5791362494
 10
1744.2700541722
 20
53.1992177076
 10
1744.2881414621
 20
53.1992177076
 10
1744.3056962257
 20
53.5791362494
 10
1744.3216847679
 20
54.3166021986
 10
1744.3351656188
 20
55.3681905883
 10
1744.3453449716
 20
56.6719796569
 10
1744.351623425
 20
58.1511970502
  0
ARC
  5
165
330
1F
100
AcDbEntity
  8
0
  6
Continuous
 62
     7
370
    15
100
AcDbCircle
 10
1697.4707591699
 20
50.6512699475
 30
0.0
 40
86.88597971729803
100
AcDbArc
 50
359.9999519289
 51
0.0594567326
  0
LINE
  5
166
330
1F
100
AcDbEntity
  8
0
  6
Continuous
 62
     7
370
    15
100
AcDbLine
 10
1744.351623425
 20
58.1511970502
 30
0.0
 11
1784.3489933567
 21
58.1511970502
 31
0.0
  0
LINE
  5
167
330
1F
100
AcDbEntity
  8
0
  6
Continuous
 62
     7
370
    15
100
AcDbLine
 10
1784.3489933567
 20
58.1511970502
 30
0.0
 11
1784.3566921054
 21
50.7414328805
 31
0.0
  0
ARC
  5
168
330
1F
100
AcDbEntity
  8
0
  6
Continuous
 62
     7
370
    15
100
AcDbCircle
 10
1395.895620374
 20
470.0873782373
 30
0.0
 40
6.000000000000065
100
AcDbArc
 50
348.6034817743
 51
168.6034817743
  0
ARC
  5
169
330
1F
100
AcDbEntity
  8
0
  6
Continuous
 62
     7
370
    15
100
AcDbCircle
 10
1642.4931132934
 20
470.0873782373
 30
0.0
 40
6.0
100
AcDbArc
 50
90.0
 51
239.0651658256
  0
ARC
  5
16A
330
1F
100
AcDbEntity
  8
0
  6
Continuous
 62
     7
370
    15
100
AcDbCircle
 10
1642.4931132934
 20
470.0873782373
 30
0.0
 40
5.999999999999992
100
AcDbArc
 50
239.0651658256
 51
270.0
  0
LINE
  5
16B
330
1F
100
AcDbEntity
  8
0
  6
Continuous
 62
     7
370
    15
100
AcDbLine
 10
1395.895620374
 20
476.0873782373
 30
0.0
 11
1423.895620374
 21
476.0873782373
 31
0.0
  0
LINE
  5
16C
330
1F
100
AcDbEntity
  8
0
  6
Continuous
 62
     7
370
    15
100
AcDbLine
 10
1401.0917727967
 20
473.0873782373
 30
0.0
 11
1423.895620374
 21
473.0873782373
 31
0.0
  0
LINE
  5
16D
330
1F
100
AcDbEntity
  8
0
  6
Continuous
 62
     7
370
    15
100
AcDbLine
 10
1435.895620374
 20
473.0873782373
 30
0.0
 11
1435.895620374
 21
476.0873782373
 31
0.0
  0
LINE
  5
16E
330
1F
100
AcDbEntity
  8
0
  6
Continuous
 62
     7
370
    15
100
AcDbLine
 10
1423.895620374
 20
476.0873782373
 30
0.0
 11
1435.895620374
 21
476.0873782373
 31
0.0
  0
LINE
  5
16F
330
1F
100
AcDbEntity
  8
0
  6
Continuous
 62
     7
370
    15
100
AcDbLine
 10
1423.895620374
 20
473.0873782373
 30
0.0
 11
1435.895620374
 21
473.0873782373
 31
0.0
  0
LINE
  5
170
330
1F
100
AcDbEntity
  8
0
  6
Continuous
 62
     7
370
    15
100
AcDbLine
 10
1614.4931132934
 20
473.0873782373
 30
0.0
 11
1637.2969608707
 21
473.0873782373
 31
0.0
  0
LINE
  5
171
330
1F
100
AcDbEntity
  8
0
  6
Continuous
 62
     7
370
    15
100
AcDbLine
 10
1614.4931132934
 20
476.0873782373
 30
0.0
 11
1642.4931132934
 21
476.0873782373
 31
0.0
  0
LINE
  5
172
330
1F
100
AcDbEntity
  8
0
  6
Continuous
 62
     7
370
    15
100
AcDbLine
 10
1602.4931132934
 20
473.0873782373
 30
0.0
 11
1602.4931132934
 21
476.0873782373
 31
0.0
  0
LINE
  5
173
330
1F
100
AcDbEntity
  8
0
  6
Continuous
 62
     7
370
    15
100
AcDbLine
 10
1602.4931132934
 20
473.0873782373
 30
0.0
 11
1614.4931132934
 21
473.0873782373
 31
0.0
  0
LINE
  5
174
330
1F
100
AcDbEntity
  8
0
  6
Continuous
 62
     7
370
    15
100
AcDbLine
 10
1602.4931132934
 20
476.0873782373
 30
0.0
 11
1614.4931132934
 21
476.0873782373
 31
0.0
  0
LINE
  5
175
330
1F
100
AcDbEntity
  8
0
  6
Continuous
 62
     7
370
    15
100
AcDbLine
 10
179.9111440293
 20
1722.8560546929
 30
0.0
 11
183.1931056069
 21
1713.4840543188
 31
0.0
  0
LINE
  5
176
330
1F
100
AcDbEntity
  8
0
  6
Continuous
 62
     7
370
    15
100
AcDbLine
 10
619.8319482557
 20
1713.4829195472
 30
0.0
 11
623.113864269
 21
1722.8556524696
 31
0.0
  0
SPLINE
  5
177
330
1F
100
AcDbEntity
  8
0
  6
Continuous
 62
     7
370
    15
100
AcDbSpline
210
0.0
220
0.0
230
1.0
 70
     8
 71
     3
 72
     9
 73
     5
 74
     0
 42
0.000000001
 43
0.00000001
 40
0.0
 40
0.0
 40
0.0
 40
0.0
 40
0.5000746365911877
 40
1.0
 40
1.0
 40
1.0
 40
1.0
 10
600.3288886877153
 20
1364.275724669028
 30
0.0
 10
600.4439167079207
 20
1364.839129977025
 30
0.0
 10
600.6739384122593
 20
1365.965772415517
 30
0.0
 10
600.9080764513923
 20
1367.062088964432
 30
0.0
 10
601.0251279956938
 20
1367.61016541356
 30
0.0
  0
SPLINE
  5
178
330
1F
100
AcDbEntity
  8
0
  6
Continuous
 62
     7
370
    15
100
AcDbSpline
210
0.0
220
0.0
230
1.0
 70
     8
 71
     3
 72
     9
 73
     5
 74
     0
 42
0.000000001
 43
0.00000001
 40
0.0
 40
0.0
 40
0.0
 40
0.0
 40
0.4999258781760881
 40
1.0
 40
1.0
 40
1.0
 40
1.0
 10
202.0020542592552
 20
1367.605238394484
 30
0.0
 10
202.1187868928734
 20
1367.058904053529
 30
0.0
 10
202.3522867749841
 20
1365.966073366413
 30
0.0
 10
202.5816852681729
 20
1364.843049566583
 30
0.0
 10
202.696401518202
 20
1364.281454426095
 30
0.0
  0
SPLINE
  5
179
330
1F
100
AcDbEntity
  8
0
  6
Continuous
 62
     7
370
    15
100
AcDbSpline
210
0.0
220
0.0
230
1.0
 70
     8
 71
     3
 72
    11
 73
     7
 74
     0
 42
0.000000001
 43
0.00000001
 40
0.0
 40
0.0
 40
0.0
 40
0.0
 40
0.2578077047341256
 40
0.4971868867938792
 40
0.749099980194724
 40
1.0
 40
1.0
 40
1.0
 40
1.0
 10
605.571677980435
 20
1385.631700083962
 30
0.0
 10
605.3636122644838
 20
1386.052063208606
 30
0.0
 10
604.9623537153299
 20
1386.862741203976
 30
0.0
 10
604.1425337308311
 20
1387.842812421953
 30
0.0
 10
603.2728922071411
 20
1388.643888828568
 30
0.0
 10
602.6581955536495
 20
1389.044709956544
 30
0.0
 10
602.3514664758181
 20
1389.244716731042
 30
0.0
  0
SPLINE
  5
17A
330
1F
100
AcDbEntity
  8
0
  6
Continuous
 62
     7
370
    15
100
AcDbSpline
210
0.0
220
0.0
230
1.0
 70
     8
 71
     3
 72
    12
 73
     8
 74
     0
 42
0.000000001
 43
0.00000001
 40
0.0
 40
0.0
 40
0.0
 40
0.0
 40
0.1495601653410496
 40
0.4279456150405673
 40
0.6868664085483792
 40
0.936865087913871
 40
1.0
 40
1.0
 40
1.0
 40
1.0
 10
200.6743968944846
 20
1389.226479033904
 30
0.0
 10
200.4904908777268
 20
1389.117307714557
 30
0.0
 10
199.9642693850475
 20
1388.80492916579
 30
0.0
 10
199.1453649556784
 20
1388.111678521602
 30
0.0
 10
198.2696517237882
 20
1387.131771338238
 30
0.0
 10
197.7324505325043
 20
1386.260493956319
 30
0.0
 10
197.5013535899688
 20
1385.737206777927
 30
0.0
 10
197.4547591473773
 20
1385.631700083962
 30
0.0
  0
LINE
  5
17B
330
1F
100
AcDbEntity
  8
0
  6
Continuous
 62
     7
370
    15
100
AcDbLine
 10
598.8724842857
 20
1652.3882073594
 30
0.0
 11
605.1068453011
 21
1658.6225683748
 31
0.0
  0
LINE
  5
17C
330
1F
100
AcDbEntity
  8
0
  6
Continuous
 62
     7
370
    15
100
AcDbLine
 10
596.6215639269
 20
1667.107849749
 30
0.0
 11
592.7615568171
 21
1663.2478426392
 31
0.0
  0
LINE
  5
17D
330
1F
100
AcDbEntity
  8
0
  6
Continuous
 62
     7
370
    15
100
AcDbLine
 10
210.2668060506
 20
1663.2459168994
 30
0.0
 11
206.4048732009
 21
1667.107849749
 31
0.0
  0
LINE
  5
17E
330
1F
100
AcDbEntity
  8
0
  6
Continuous
 62
     7
370
    15
100
AcDbLine
 10
197.9195918267
 20
1658.6225683748
 30
0.0
 11
204.1535760836
 21
1652.3885841179
 31
0.0
  0
SPLINE
  5
17F
330
1F
100
AcDbEntity
  8
0
  6
Continuous
 62
     7
370
    15
100
AcDbSpline
210
0.0
220
0.0
230
1.0
 70
     8
 71
     3
 72
    19
 73
    15
 74
     0
 42
0.000000001
 43
0.00000001
 40
0.0
 40
0.0
 40
0.0
 40
0.0
 40
0.0544398289481651
 40
0.158086087786653
 40
0.2615397739241394
 40
0.364465462240991
 40
0.4665148024360845
 40
0.5672086461499664
 40
0.6658516810609059
 40
0.7614151853242673
 40
0.8420183176822166
 40
0.9151524765535924
 40
0.9800640149612816
 40
1.0
 40
1.0
 40
1.0
 40
1.0
 10
206.404873200927
 20
1667.107849749023
 30
0.0
 10
206.1105232856679
 20
1667.404183114489
 30
0.0
 10
205.255769928747
 20
1668.264696149383
 30
0.0
 10
203.8776100671761
 20
1669.706895520499
 30
0.0
 10
202.322371460194
 20
1671.404183189712
 30
0.0
 10
200.8822083332278
 20
1673.052742121133
 30
0.0
 10
199.5864683939013
 20
1674.615127560289
 30
0.0
 10
198.4629093463356
 20
1676.053403992343
 30
0.0
 10
197.5362153570813
 20
1677.328069430913
 30
0.0
 10
196.8540324210271
 20
1678.353668712021
 30
0.0
 10
196.4031358202521
 20
1679.114550150472
 30
0.0
 10
196.1615341771254
 20
1679.576390713436
 30
0.0
 10
196.0710185378356
 20
1679.803591541038
 30
0.0
 10
196.0815345449327
 20
1679.770905142239
 30
0.0
 10
196.0840054121028
 20
1679.763225064719
 30
0.0
  0
SPLINE
  5
180
330
1F
100
AcDbEntity
  8
0
  6
Continuous
 62
     7
370
    15
100
AcDbSpline
210
0.0
220
0.0
230
1.0
 70
     8
 71
     3
 72
    18
 73
    14
 74
     0
 42
0.000000001
 43
0.00000001
 40
0.0
 40
0.0
 40
0.0
 40
0.0
 40
0.0573086337447093
 40
0.1448516742196818
 40
0.2600055326086131
 40
0.3610327277426953
 40
0.4670144810639407
 40
0.5674604939134397
 40
0.6650896568746668
 40
0.7611849035700728
 40
0.8564008663962672
 40
0.951128541649585
 40
0.9999999999999999
 40
0.9999999999999999
 40
0.9999999999999999
 40
0.9999999999999999
 10
184.4905573071048
 20
1676.669668374388
 30
0.0
 10
184.5869111467924
 20
1676.342606086716
 30
0.0
 10
184.8304523740778
 20
1675.515932741923
 30
0.0
 10
185.426462238437
 20
1674.172162491342
 30
0.0
 10
186.2896292485671
 20
1672.598448883862
 30
0.0
 10
187.4234985817464
 20
1670.842748127334
 30
0.0
 10
188.701758609558
 20
1669.059615620223
 30
0.0
 10
190.1515859567619
 20
1667.194289121273
 30
0.0
 10
191.7111688647275
 20
1665.310736745587
 30
0.0
 10
193.3742784938628
 20
1663.406468926094
 30
0.0
 10
195.1270985927063
 20
1661.493952535832
 30
0.0
 10
196.6565161130569
 20
1659.894034207637
 30
0.0
 10
197.5988760669173
 20
1658.945414524231
 30
0.0
 10
197.9195918266885
 20
1658.622568374784
 30
0.0
  0
SPLINE
  5
181
330
1F
100
AcDbEntity
  8
0
  6
Continuous
 62
     7
370
    15
100
AcDbSpline
210
0.0
220
0.0
230
1.0
 70
     8
 71
     3
 72
    20
 73
    16
 74
     0
 42
0.000000001
 43
0.00000001
 40
0.0
 40
0.0
 40
0.0
 40
0.0
 40
0.0044703764167074
 40
0.0637809171116191
 40
0.130963091782157
 40
0.2066637374346855
 40
0.2902834898573531
 40
0.3803755706035033
 40
0.4752701315773071
 40
0.5735094591942229
 40
0.673994314764652
 40
0.7759505374683069
 40
0.8788401035026668
 40
0.9770974700415748
 40
1.0
 40
1.0
 40
1.0
 40
1.0
 10
606.9491444063945
 20
1679.782736516946
 30
0.0
 10
606.9499755127275
 20
1679.785551251316
 30
0.0
 10
606.9618332891657
 20
1679.825710361597
 30
0.0
 10
606.9054214163407
 20
1679.664933961499
 30
0.0
 10
606.7290751359524
 20
1679.312117320537
 30
0.0
 10
606.3748697206905
 20
1678.683841391295
 30
0.0
 10
605.8269199043046
 20
1677.824473409553
 30
0.0
 10
605.0677726169883
 20
1676.73615631991
 30
0.0
 10
604.1014429641313
 20
1675.451713386523
 30
0.0
 10
602.943008902989
 20
1674.006207065908
 30
0.0
 10
601.6160219380585
 20
1672.439044358668
 30
0.0
 10
600.1484359957842
 20
1670.788912633637
 30
0.0
 10
598.5970827807398
 20
1669.122603174292
 30
0.0
 10
597.4018092422704
 20
1667.89040211
 30
0.0
 10
596.7456045400428
 20
1667.232257128048
 30
0.0
 10
596.6215639268853
 20
1667.107849749023
 30
0.0
  0
SPLINE
  5
182
330
1F
100
AcDbEntity
  8
0
  6
Continuous
 62
     7
370
    15
100
AcDbSpline
210
0.0
220
0.0
230
1.0
 70
     8
 71
     3
 72
    18
 73
    14
 74
     0
 42
0.000000001
 43
0.00000001
 40
0.0
 40
0.0
 40
0.0
 40
0.0
 40
0.0496406409187512
 40
0.144110073455685
 40
0.2387760027811176
 40
0.3338279551217512
 40
0.4295679762108826
 40
0.5264431287523023
 40
0.6251986680972555
 40
0.7272380059215702
 40
0.835626486116749
 40
0.958337953668673
 40
1.0
 40
1.0
 40
1.0
 40
1.0
 10
605.1068453011239
 20
1658.622568374784
 30
0.0
 10
605.4325955658519
 20
1658.950514057831
 30
0.0
 10
606.3782701927165
 20
1659.902562129706
 30
0.0
 10
607.9070212076213
 20
1661.502275802353
 30
0.0
 10
609.6482270871423
 20
1663.402328018161
 30
0.0
 10
611.2919025918836
 20
1665.283796437027
 30
0.0
 10
612.8198339687367
 20
1667.126935062733
 30
0.0
 10
614.2168580621014
 20
1668.918405721041
 30
0.0
 10
615.4725719195908
 20
1670.654873084574
 30
0.0
 10
616.5864476657376
 20
1672.352884692904
 30
0.0
 10
617.5656944015886
 20
1674.090037787854
 30
0.0
 10
618.1966068253184
 20
1675.486021356173
 30
0.0
 10
618.4672760940588
 20
1676.430325433482
 30
0.0
 10
618.5358798207075
 20
1676.669668374388
 30
0.0
  0
LINE
  5
183
330
1F
100
AcDbEntity
  8
0
  6
Continuous
 62
     7
370
    15
100
AcDbLine
 10
196.1027521372
 20
1679.6957105467
 30
0.0
 11
187.9345818464
 21
1711.0404107925
 31
0.0
  0
LINE
  5
184
330
1F
100
AcDbEntity
  8
0
  6
Continuous
 62
     7
370
    15
100
AcDbLine
 10
183.2793351665
 20
1728.9045476256
 30
0.0
 11
164.5431011278
 21
1800.8033473288
 31
0.0
  0
LINE
  5
185
330
1F
100
AcDbEntity
  8
0
  6
Continuous
 62
     7
370
    15
100
AcDbLine
 10
152.9309062977
 20
1797.7773051565
 30
0.0
 11
184.4905573071
 21
1676.6696683744
 31
0.0
  0
LINE
  5
186
330
1F
100
AcDbEntity
  8
0
  6
Continuous
 62
     7
370
    15
100
AcDbLine
 10
618.5358798207
 20
1676.6696683744
 30
0.0
 11
650.0955308301
 21
1797.7773051565
 31
0.0
  0
LINE
  5
187
330
1F
100
AcDbEntity
  8
0
  6
Continuous
 62
     7
370
    15
100
AcDbLine
 10
638.483336
 20
1800.8033473288
 30
0.0
 11
619.747097049
 21
1728.9045287751
 31
0.0
  0
LINE
  5
188
330
1F
100
AcDbEntity
  8
0
  6
Continuous
 62
     7
370
    15
100
AcDbLine
 10
615.0922205141
 20
1711.0418123435
 30
0.0
 11
606.9236849906
 21
1679.6957105467
 31
0.0
  0
LINE
  5
189
330
1F
100
AcDbEntity
  8
0
  6
Continuous
 62
     7
370
    15
100
AcDbLine
 10
637.0632891994
 20
1311.1922832244
 30
0.0
 11
605.5716779804
 21
1385.631700084
 31
0.0
  0
LINE
  5
18A
330
1F
100
AcDbEntity
  8
0
  6
Continuous
 62
     7
370
    15
100
AcDbLine
 10
604.5679461363
 20
1357.2049976349
 30
0.0
 11
626.0115762643
 21
1306.5168537041
 31
0.0
  0
LINE
  5
18B
330
1F
100
AcDbEntity
  8
0
  6
Continuous
 62
     7
370
    15
100
AcDbLine
 10
600.7383676743
 20
1366.2573000257
 30
0.0
 11
602.51646297
 21
1362.054263985
 31
0.0
  0
LINE
  5
18C
330
1F
100
AcDbEntity
  8
0
  6
Continuous
 62
     7
370
    15
100
AcDbLine
 10
200.5099741578
 20
1362.054263985
 30
0.0
 11
202.2879583827
 21
1366.2570374781
 31
0.0
  0
LINE
  5
18D
330
1F
100
AcDbEntity
  8
0
  6
Continuous
 62
     7
370
    15
100
AcDbLine
 10
177.0148608635
 20
1306.5168537041
 30
0.0
 11
198.4584909915
 21
1357.2049976349
 31
0.0
  0
LINE
  5
18E
330
1F
100
AcDbEntity
  8
0
  6
Continuous
 62
     7
370
    15
100
AcDbLine
 10
197.4547591474
 20
1385.631700084
 30
0.0
 11
165.9631479284
 21
1311.1922832244
 31
0.0
  0
LINE
  5
18F
330
1F
100
AcDbEntity
  8
0
  6
Continuous
 62
     7
370
    15
100
AcDbLine
 10
195.5725792152
 20
1357.2049976349
 30
0.0
 11
204.7018864475
 21
1357.2049976349
 31
0.0
  0
LINE
  5
190
330
1F
100
AcDbEntity
  8
0
  6
Continuous
 62
     7
370
    15
100
AcDbLine
 10
598.3269221204
 20
1357.2049976349
 30
0.0
 11
607.4538579126
 21
1357.2049976349
 31
0.0
  0
SPLINE
  5
191
330
1F
100
AcDbEntity
  8
0
  6
Continuous
 62
     7
370
    15
100
AcDbSpline
210
0.0
220
0.0
230
1.0
 70
     8
 71
     3
 72
    34
 73
    30
 74
     0
 42
0.000000001
 43
0.00000001
 40
0.0
 40
0.0
 40
0.0
 40
0.0
 40
0.0307209504099084
 40
0.0595634693943324
 40
0.0862169357906708
 40
0.1123729436581292
 40
0.1387806932465882
 40
0.1659736616140592
 40
0.1937633620087374
 40
0.2218823888520461
 40
0.2524926263231829
 40
0.2805480133440206
 40
0.3066603639125047
 40
0.3314208940568631
 40
0.3552624016626247
 40
0.3788691682984941
 40
0.4034874513886251
 40
0.4312330716185762
 40
0.4662104836543866
 40
0.5177197376097799
 40
0.5764771614739245
 40
0.6310893565007317
 40
0.688596562073547
 40
0.7438336502112881
 40
0.797981713111223
 40
0.8515522867442435
 40
0.9047944660177959
 40
0.9578508881618958
 40
1.0
 40
1.0
 40
1.0
 40
1.0
 10
164.5431011278044
 20
1800.803347328751
 30
0.0
 10
164.4728373896196
 20
1801.056427885086
 30
0.0
 10
164.3366061870342
 20
1801.547114396096
 30
0.0
 10
164.0422331824239
 20
1802.321505801028
 30
0.0
 10
163.6273768655855
 20
1803.145639962167
 30
0.0
 10
163.0351940807612
 20
1804.002386639402
 30
0.0
 10
162.2304524044035
 20
1804.828416156242
 30
0.0
 10
161.2168209687719
 20
1805.535682982507
 30
0.0
 10
160.029535176755
 20
1806.045467546862
 30
0.0
 10
158.6960404226412
 20
1806.307401197801
 30
0.0
 10
157.3278760084752
 20
1806.265778998012
 30
0.0
 10
156.0426365057191
 20
1805.931943697715
 30
0.0
 10
154.9499973668955
 20
1805.393769271021
 30
0.0
 10
154.0536644531777
 20
1804.721580663351
 30
0.0
 10
153.3470013325115
 20
1803.97734975305
 30
0.0
 10
152.8111626142125
 20
1803.214426852034
 30
0.0
 10
152.4097306030227
 20
1802.459002597603
 30
0.0
 10
152.091666751019
 20
1801.678817747957
 30
0.0
 10
151.8003051510504
 20
1800.745173508261
 30
0.0
 10
151.5276516178545
 20
1799.56691789554
 30
0.0
 10
151.2720966127407
 20
1798.078871355345
 30
0.0
 10
151.0392967583809
 20
1796.312401282446
 30
0.0
 10
150.8363396227345
 20
1794.355009383677
 30
0.0
 10
150.6584787717629
 20
1792.18864721603
 30
0.0
 10
150.5092983718058
 20
1789.894641179089
 30
0.0
 10
150.3871795251024
 20
1787.485162042607
 30
0.0
 10
150.2929090930853
 20
1784.984866988274
 30
0.0
 10
150.2293477953494
 20
1782.598003658958
 30
0.0
 10
150.2075748003226
 20
1781.05095662108
 30
0.0
 10
150.1979355244945
 20
1780.366052541549
 30
0.0
  0
LINE
  5
192
330
1F
100
AcDbEntity
  8
0
  6
Continuous
 62
     7
370
    15
100
AcDbLine
 10
152.9333013748
 20
1797.7704218581
 30
0.0
 11
152.9309062977
 21
1797.7773051565
 31
0.0
  0
SPLINE
  5
193
330
1F
100
AcDbEntity
  8
0
  6
Continuous
 62
     7
370
    15
100
AcDbSpline
210
0.0
220
0.0
230
1.0
 70
     8
 71
     3
 72
    34
 73
    30
 74
     0
 42
0.000000001
 43
0.00000001
 40
0.0
 40
0.0
 40
0.0
 40
0.0
 40
0.0278000802158113
 40
0.0807278739791309
 40
0.1337276350069129
 40
0.1868480652057724
 40
0.2401846388118913
 40
0.2938793040025907
 40
0.3481698567674059
 40
0.4035069389088752
 40
0.4608912131946885
 40
0.5231934244853031
 40
0.5623152675063205
 40
0.5946240465980787
 40
0.6212391201549138
 40
0.6473878514470786
 40
0.6737579255612217
 40
0.7009066924526421
 40
0.7286713764375949
 40
0.756776259465926
 40
0.7875392812110785
 40
0.8157159282244342
 40
0.84191084571417
 40
0.8667304951122166
 40
0.8906065368680138
 40
0.914198281165277
 40
0.9387278572397142
 40
0.9662349076708854
 40
1.0
 40
1.0
 40
1.0
 40
1.0
 10
652.8285016033178
 20
1780.366052541549
 30
0.0
 10
652.8225246676062
 20
1780.817681801025
 30
0.0
 10
652.8051684114675
 20
1782.129155352945
 30
0.0
 10
652.7546009506618
 20
1784.289938373126
 30
0.0
 10
652.6681841318003
 20
1786.800119209973
 30
0.0
 10
652.5544897381843
 20
1789.220542416402
 30
0.0
 10
652.4150096913357
 20
1791.519586520121
 30
0.0
 10
652.2503627913101
 20
1793.670592680632
 30
0.0
 10
652.0603628553051
 20
1795.654010662123
 30
0.0
 10
651.8423241375153
 20
1797.463147290643
 30
0.0
 10
651.5840334962313
 20
1799.123882455817
 30
0.0
 10
651.30827771505
 20
1800.438293011746
 30
0.0
 10
650.9929552574587
 20
1801.517509445674
 30
0.0
 10
650.6573836836085
 20
1802.378196610635
 30
0.0
 10
650.2149633092413
 20
1803.221797220238
 30
0.0
 10
649.6160983485095
 20
1804.062968319386
 30
0.0
 10
648.8053801245635
 20
1804.874730381374
 30
0.0
 10
647.7872011089162
 20
1805.568149407442
 30
0.0
 10
646.5968425516448
 20
1806.064255656943
 30
0.0
 10
645.2594407393727
 20
1806.312604500645
 30
0.0
 10
643.8874785421916
 20
1806.255978251353
 30
0.0
 10
642.6002717170509
 20
1805.905114628951
 30
0.0
 10
641.5099570158313
 20
1805.350421551944
 30
0.0
 10
640.6191738779048
 20
1804.662932376188
 30
0.0
 10
639.9203797280069
 20
1803.904775868547
 30
0.0
 10
639.3939990777809
 20
1803.12949357181
 30
0.0
 10
639.0048318349388
 20
1802.364825174283
 30
0.0
 10
638.7016673209889
 20
1801.586503314357
 30
0.0
 10
638.5609053569481
 20
1801.081589158253
 30
0.0
 10
638.4833360000079
 20
1800.803347328751
 30
0.0
  0
LINE
  5
194
330
1F
100
AcDbEntity
  8
0
  6
Continuous
 62
     7
370
    15
100
AcDbLine
 10
650.0955308301
 20
1797.7773051565
 30
0.0
 11
650.0910976596
 21
1797.7642181454
 31
0.0
  0
SPLINE
  5
195
330
1F
100
AcDbEntity
  8
0
  6
Continuous
 62
     7
370
    15
100
AcDbSpline
210
0.0
220
0.0
230
1.0
 70
     8
 71
     3
 72
    29
 73
    25
 74
     0
 42
0.000000001
 43
0.00000001
 40
0.0
 40
0.0
 40
0.0
 40
0.0
 40
0.0310604293572831
 40
0.0901874238620035
 40
0.1494192281437318
 40
0.2088476577279386
 40
0.2686277123963869
 40
0.3289899248672481
 40
0.3903212545290625
 40
0.4533586170167813
 40
0.5197530579728815
 40
0.5942515325919635
 40
0.6390478486482863
 40
0.6745484238519619
 40
0.7079884501043269
 40
0.7406564903281617
 40
0.7732635472872049
 40
0.8060005690856535
 40
0.8388815257767208
 40
0.873937463284262
 40
0.9065902685290285
 40
0.9376137989782866
 40
0.967859833266992
 40
0.9999999999999999
 40
0.9999999999999999
 40
0.9999999999999999
 40
0.9999999999999999
 10
157.6160642415621
 20
1325.561820176657
 30
0.0
 10
157.7348864470159
 20
1325.119986593214
 30
0.0
 10
158.0798999844725
 20
1323.83707346255
 30
0.0
 10
158.6808342556937
 20
1321.731109337703
 30
0.0
 10
159.4204297231916
 20
1319.292580356565
 30
0.0
 10
160.1800105342346
 20
1316.947578011702
 30
0.0
 10
160.9509785471631
 20
1314.723667574699
 30
0.0
 10
161.7278832843771
 20
1312.643030059989
 30
0.0
 10
162.5095649277853
 20
1310.719415580959
 30
0.0
 10
163.3049692320618
 20
1308.950499516352
 30
0.0
 10
164.1554627681658
 20
1307.293844015244
 30
0.0
 10
164.972989463683
 20
1305.970658971576
 30
0.0
 10
165.8208296437115
 20
1304.902981966433
 30
0.0
 10
166.619880909429
 20
1304.11355075422
 30
0.0
 10
167.5288707870574
 20
1303.435907434592
 30
0.0
 10
168.6085049803961
 20
1302.880919556558
 30
0.0
 10
169.8362338988323
 20
1302.51783380903
 30
0.0
 10
171.1566710048209
 20
1302.403904655195
 30
0.0
 10
172.5242959726569
 20
1302.57344063863
 30
0.0
 10
173.8246181872419
 20
1303.037716085691
 30
0.0
 10
174.9589721424736
 20
1303.748792889028
 30
0.0
 10
175.8554983192312
 20
1304.599578518544
 30
0.0
 10
176.5590396635996
 20
1305.548220962241
 30
0.0
 10
176.8598758607691
 20
1306.18750625785
 30
0.0
 10
177.01486086351
 20
1306.51685370415
 30
0.0
  0
SPLINE
  5
196
330
1F
100
AcDbEntity
  8
0
  6
Continuous
 62
     7
370
    15
100
AcDbSpline
210
0.0
220
0.0
230
1.0
 70
     8
 71
     3
 72
    10
 73
     6
 74
     0
 42
0.000000001
 43
0.00000001
 40
0.0
 40
0.0
 40
0.0
 40
0.0
 40
0.388506488163485
 40
0.7793284832704795
 40
1.0
 40
1.0
 40
1.0
 40
1.0
 10
170.8916983311303
 20
1322.842319654553
 30
0.0
 10
170.6669224459326
 20
1323.571885622427
 30
0.0
 10
170.2160310064744
 20
1325.035365786881
 30
0.0
 10
169.6561525475582
 20
1327.000020030713
 30
0.0
 10
169.3301798236351
 20
1328.21065055595
 30
0.0
 10
169.2125450589023
 20
1328.647534462372
 30
0.0
  0
SPLINE
  5
197
330
1F
100
AcDbEntity
  8
0
  6
Continuous
 62
     7
370
    15
100
AcDbSpline
210
0.0
220
0.0
230
1.0
 70
     8
 71
     3
 72
    29
 73
    25
 74
     0
 42
0.000000001
 43
0.00000001
 40
0.0
 40
0.0
 40
0.0
 40
0.0
 40
0.0328830146329161
 40
0.0654869029181011
 40
0.0981329365938651
 40
0.1309261969036229
 40
0.1638516080770848
 40
0.1980146112302652
 40
0.2300135037581069
 40
0.2606826465242726
 40
0.2908575195698851
 40
0.3215326869592748
 40
0.3543064538079804
 40
0.3920251340502175
 40
0.4400264486188211
 40
0.5093649194024984
 40
0.5734837826498643
 40
0.6338945462895194
 40
0.6973545593521914
 40
0.7587773992564179
 40
0.819112625272245
 40
0.8788385991477158
 40
0.9382172798668987
 40
1.0
 40
1.0
 40
1.0
 40
1.0
 10
626.0115762643022
 20
1306.51685370415
 30
0.0
 10
626.1706313718529
 20
1306.179738887627
 30
0.0
 10
626.4873914531008
 20
1305.508370842199
 30
0.0
 10
627.2409598887418
 20
1304.513851172347
 30
0.0
 10
628.2025471388772
 20
1303.643650844463
 30
0.0
 10
629.3569323734724
 20
1302.968362688301
 30
0.0
 10
630.6578648018468
 20
1302.539668057115
 30
0.0
 10
632.0073083815375
 20
1302.402168848429
 30
0.0
 10
633.3021372250612
 20
1302.543935186957
 30
0.0
 10
634.4554118004306
 20
1302.901838463235
 30
0.0
 10
635.4549824396944
 20
1303.415105179616
 30
0.0
 10
636.3071386427497
 20
1304.033364415771
 30
0.0
 10
637.045365336355
 20
1304.734008056381
 30
0.0
 10
637.7346755703315
 20
1305.552990366795
 30
0.0
 10
638.4783288069756
 20
1306.634463161718
 30
0.0
 10
639.2487161796942
 20
1307.999138638941
 30
0.0
 10
640.0543763833874
 20
1309.667784975809
 30
0.0
 10
640.8426490531194
 20
1311.499245237136
 30
0.0
 10
641.6312289124377
 20
1313.512125681966
 30
0.0
 10
642.4262421917083
 20
1315.71523254968
 30
0.0
 10
643.20373626584
 20
1318.030502796954
 30
0.0
 10
643.9601655085261
 20
1320.441924993567
 30
0.0
 10
644.7038830620785
 20
1322.959565291669
 30
0.0
 10
645.1717816549574
 20
1324.683003276676
 30
0.0
 10
645.4103728862502
 20
1325.561820176657
 30
0.0
  0
SPLINE
  5
198
330
1F
100
AcDbEntity
  8
0
  6
Continuous
 62
     7
370
    15
100
AcDbSpline
210
0.0
220
0.0
230
1.0
 70
     8
 71
     3
 72
    11
 73
     7
 74
     0
 42
0.000000001
 43
0.00000001
 40
0.0
 40
0.0
 40
0.0
 40
0.0
 40
0.2059121048544898
 40
0.5978466532379321
 40
0.9892315854201494
 40
1.0
 40
1.0
 40
1.0
 40
1.0
 10
633.81389206891
 20
1328.647534462372
 30
0.0
 10
633.7042122367876
 20
1328.239369393933
 30
0.0
 10
633.3857670409192
 20
1327.054300063952
 30
0.0
 10
632.8317260039717
 20
1325.124730096623
 30
0.0
 10
632.3753235039208
 20
1323.586498811391
 30
0.0
 10
632.1406906117205
 20
1322.862488625016
 30
0.0
 10
632.1344078733632
 20
1322.843101886326
 30
0.0
  0
ARC
  5
199
330
1F
100
AcDbEntity
  8
0
  6
Continuous
 62
     7
370
    15
100
AcDbCircle
 10
171.5432336707
 20
1374.3329742567
 30
0.0
 40
13.99999999999905
100
AcDbArc
 50
179.342957393
 51
194.9005966878
  0
ARC
  5
19A
330
1F
100
AcDbEntity
  8
0
  6
Continuous
 62
     7
370
    15
100
AcDbCircle
 10
171.5432336707
 20
1374.3329742567
 30
0.0
 40
25.99999999999905
100
AcDbArc
 50
179.342957393
 51
194.9005966878
  0
LINE
  5
19B
330
1F
100
AcDbEntity
  8
0
  6
Continuous
 62
     7
370
    15
100
AcDbLine
 10
641.0271197208
 20
1762.9780027659
 30
0.0
 11
645.4822829332
 21
1374.4935165334
 31
0.0
  0
LINE
  5
19C
330
1F
100
AcDbEntity
  8
0
  6
Continuous
 62
     7
370
    15
100
AcDbLine
 10
657.4814939127
 20
1374.6311241992
 30
0.0
 11
652.8285016033
 21
1780.3660525415
 31
0.0
  0
LINE
  5
19D
330
1F
100
AcDbEntity
  8
0
  6
Continuous
 62
     7
370
    15
100
AcDbLine
 10
150.1979355245
 20
1780.3660525415
 30
0.0
 11
145.5449432151
 21
1374.6311241992
 31
0.0
  0
LINE
  5
19E
330
1F
100
AcDbEntity
  8
0
  6
Continuous
 62
     7
370
    15
100
AcDbLine
 10
157.5441541946
 20
1374.4935165334
 30
0.0
 11
161.999317407
 21
1762.9780027659
 31
0.0
  0
LINE
  5
19F
330
1F
100
AcDbEntity
  8
0
  6
Continuous
 62
     7
370
    15
100
AcDbLine
 10
645.0124310774
 20
1370.7329742567
 30
0.0
 11
633.8138920689
 21
1328.6475344624
 31
0.0
  0
LINE
  5
1A0
330
1F
100
AcDbEntity
  8
0
  6
Continuous
 62
     7
370
    15
100
AcDbLine
 10
645.4103728863
 20
1325.5618201767
 30
0.0
 11
656.6089118947
 21
1367.647259971
 31
0.0
  0
LINE
  5
1A1
330
1F
100
AcDbEntity
  8
0
  6
Continuous
 62
     7
370
    15
100
AcDbLine
 10
146.4175252331
 20
1367.647259971
 30
0.0
 11
157.6160642416
 21
1325.5618201767
 31
0.0
  0
LINE
  5
1A2
330
1F
100
AcDbEntity
  8
0
  6
Continuous
 62
     7
370
    15
100
AcDbLine
 10
169.2125450589
 20
1328.6475344624
 30
0.0
 11
158.0140060504
 21
1370.7329742567
 31
0.0
  0
ARC
  5
1A3
330
1F
100
AcDbEntity
  8
0
  6
Continuous
 62
     7
370
    15
100
AcDbCircle
 10
631.4832034572
 20
1374.3329742567
 30
0.0
 40
13.99999999999911
100
AcDbArc
 50
345.0994033122
 51
0.657042607
  0
ARC
  5
1A4
330
1F
100
AcDbEntity
  8
0
  6
Continuous
 62
     7
370
    15
100
AcDbCircle
 10
631.4832034572
 20
1374.3329742567
 30
0.0
 40
25.99999999999905
100
AcDbArc
 50
345.0994033122
 51
0.657042607
  0
SPLINE
  5
1A5
330
1F
100
AcDbEntity
  8
0
  6
Continuous
 62
     7
370
    15
100
AcDbSpline
210
0.0
220
0.0
230
1.0
 70
     8
 71
     3
 72
    40
 73
    36
 74
     0
 42
0.000000001
 43
0.00000001
 40
0.0
 40
0.0
 40
0.0
 40
0.0
 40
0.0059422961030657
 40
0.0377560644933317
 40
0.0696649092234883
 40
0.1014310624282925
 40
0.133364823242039
 40
0.165141169162242
 40
0.1970239966793067
 40
0.2288386818876969
 40
0.2606432175303804
 40
0.292509372208546
 40
0.3242446421320039
 40
0.3561585443061523
 40
0.3878835707789537
 40
0.4197998259123111
 40
0.451638406402023
 40
0.4834570592007824
 40
0.5153932714521849
 40
0.5471719273093034
 40
0.5790837161521035
 40
0.6109540371076627
 40
0.6427574189377389
 40
0.6746861780130115
 40
0.7064304655964448
 40
0.7383619227436237
 40
0.7701040673420321
 40
0.8020006839692958
 40
0.8337897359013884
 40
0.8656148580363959
 40
0.8974965764293272
 40
0.9292406271828622
 40
0.9611726219002393
 40
0.992959549730641
 40
1.0
 40
1.0
 40
1.0
 40
1.0
 10
235.1222525975999
 20
1730.53642713389
 30
0.0
 10
235.094003340547
 20
1730.561955084763
 30
0.0
 10
234.9145136697734
 20
1730.724154164516
 30
0.0
 10
235.3561477565936
 20
1731.247200247832
 30
0.0
 10
236.4500281107074
 20
1732.076339190948
 30
0.0
 10
238.3073710749797
 20
1733.077193681288
 30
0.0
 10
240.7503258408507
 20
1734.176212247121
 30
0.0
 10
243.7148725974731
 20
1735.337491898547
 30
0.0
 10
247.0850458238853
 20
1736.510646475431
 30
0.0
 10
250.7571118562604
 20
1737.652574574897
 30
0.0
 10
254.6088190754334
 20
1738.717704245214
 30
0.0
 10
258.5060496037928
 20
1739.662138687599
 30
0.0
 10
262.311467389942
 20
1740.448764418301
 30
0.0
 10
265.8621599250498
 20
1741.04476804967
 30
0.0
 10
269.0153272303205
 20
1741.430292558615
 30
0.0
 10
271.6212819066681
 20
1741.593782252685
 30
0.0
 10
273.5662341002048
 20
1741.536343490902
 30
0.0
 10
274.7672550315565
 20
1741.269686582051
 30
0.0
 10
275.179726511801
 20
1740.812980806124
 30
0.0
 10
274.7999923024747
 20
1740.189539383475
 30
0.0
 10
273.6581731923517
 20
1739.426338380596
 30
0.0
 10
271.8104822256099
 20
1738.549282973795
 30
0.0
 10
269.3387134563789
 20
1737.585286198268
 30
0.0
 10
266.3446112795145
 20
1736.562448775567
 30
0.0
 10
262.9326829561419
 20
1735.506110047861
 30
0.0
 10
259.2347447067395
 20
1734.449109307913
 30
0.0
 10
255.3673918645225
 20
1733.419596695309
 30
0.0
 10
251.4762599898009
 20
1732.456038417482
 30
0.0
 10
247.6930454803474
 20
1731.595567357924
 30
0.0
 10
244.1635479901192
 20
1730.879069792712
 30
0.0
 10
241.0399626712588
 20
1730.348214554554
 30
0.0
 10
238.4323641975009
 20
1730.029875432934
 30
0.0
 10
236.5509031304647
 20
1729.975276916289
 30
0.0
 10
235.521981779147
 20
1730.066560367774
 30
0.0
 10
235.3858959649887
 20
1730.247833694898
 30
0.0
 10
235.3612199385909
 20
1730.280703435458
 30
0.0
  0
SPLINE
  5
1A6
330
1F
100
AcDbEntity
  8
0
  6
Continuous
 62
     7
370
    15
100
AcDbSpline
210
0.0
220
0.0
230
1.0
 70
     8
 71
     3
 72
    12
 73
     8
 74
     0
 42
0.000000001
 43
0.00000001
 40
0.0
 40
0.0
 40
0.0
 40
0.0
 40
0.2499714980307361
 40
0.4999482582008883
 40
0.6666092642532219
 40
0.8332776003114327
 40
1.0
 40
1.0
 40
1.0
 40
1.0
 10
327.9347308495622
 20
1735.29225834929
 30
0.0
 10
327.547426072258
 20
1734.523302481947
 30
0.0
 10
326.7728083645131
 20
1732.985374560006
 30
0.0
 10
325.7402548764113
 20
1731.460455088481
 30
0.0
 10
324.8369933347586
 20
1730.175046847085
 30
0.0
 10
324.0627016531774
 20
1729.053120183181
 30
0.0
 10
323.5468351051066
 20
1727.942858872601
 30
0.0
 10
323.2888600038465
 20
1727.387638195678
 30
0.0
  0
SPLINE
  5
1A7
330
1F
100
AcDbEntity
  8
0
  6
Continuous
 62
     7
370
    15
100
AcDbSpline
210
0.0
220
0.0
230
1.0
 70
     8
 71
     3
 72
    15
 73
    11
 74
     0
 42
0.000000001
 43
0.00000001
 40
0.0
 40
0.0
 40
0.0
 40
0.0
 40
0.1248383576862519
 40
0.2499675273632797
 40
0.3745099936088623
 40
0.4997677311834904
 40
0.624281979985689
 40
0.7495257693801987
 40
0.8741950811837466
 40
1.0
 40
1.0
 40
1.0
 40
1.0
 10
302.3106487695497
 20
1735.692439814297
 30
0.0
 10
304.1196138482836
 20
1735.934436635039
 30
0.0
 10
307.7417580049224
 20
1736.418994010125
 30
0.0
 10
312.8272199579075
 20
1736.862862246388
 30
0.0
 10
317.4292888858994
 20
1737.088581837697
 30
0.0
 10
321.3544309698214
 20
1737.08351626356
 30
0.0
 10
324.4835898997346
 20
1736.871584335804
 30
0.0
 10
326.6736266271892
 20
1736.480126576652
 30
0.0
 10
327.9556812958341
 20
1735.949447998534
 30
0.0
 10
327.9417354077376
 20
1735.511982696477
 30
0.0
 10
327.9347308495622
 20
1735.29225834929
 30
0.0
  0
SPLINE
  5
1A8
330
1F
100
AcDbEntity
  8
0
  6
Continuous
 62
     7
370
    15
100
AcDbSpline
210
0.0
220
0.0
230
1.0
 70
     8
 71
     3
 72
    11
 73
     7
 74
     0
 42
0.000000001
 43
0.00000001
 40
0.0
 40
0.0
 40
0.0
 40
0.0
 40
0.2501190051004888
 40
0.499979066424402
 40
0.7498137513210437
 40
1.0
 40
1.0
 40
1.0
 40
1.0
 10
218.5825408916911
 20
1717.13107480212
 30
0.0
 10
225.472169556519
 20
1719.073474216163
 30
0.0
 10
239.244294175628
 20
1722.956262112534
 30
0.0
 10
260.090788645921
 20
1728.042263892189
 30
0.0
 10
281.1042024418254
 20
1732.399357961216
 30
0.0
 10
295.2385207227341
 20
1734.594231459454
 30
0.0
 10
302.3106487695497
 20
1735.692439814297
 30
0.0
  0
SPLINE
  5
1A9
330
1F
100
AcDbEntity
  8
0
  6
Continuous
 62
     7
370
    15
100
AcDbSpline
210
0.0
220
0.0
230
1.0
 70
     8
 71
     3
 72
    15
 73
    11
 74
     0
 42
0.000000001
 43
0.00000001
 40
0.0
 40
0.0
 40
0.0
 40
0.0
 40
0.1249376330514466
 40
0.2494577901783601
 40
0.3748042887320501
 40
0.4992574701957339
 40
0.6246306289961481
 40
0.7492103853683246
 40
0.8742326555408523
 40
1.0
 40
1.0
 40
1.0
 40
1.0
 10
190.4808727692821
 20
1710.844668757229
 30
0.0
 10
191.0654227017931
 20
1710.858092776292
 30
0.0
 10
192.2325693080768
 20
1710.884895958398
 30
0.0
 10
194.7694282908094
 20
1711.238314251924
 30
0.0
 10
197.7980390196652
 20
1711.797274436524
 30
0.0
 10
201.321899527335
 20
1712.565360301758
 30
0.0
 10
205.2312112974649
 20
1713.505523308193
 30
0.0
 10
209.4641565482945
 20
1714.596662515359
 30
0.0
 10
213.9305525493468
 20
1715.804806646787
 30
0.0
 10
217.028809892577
 20
1716.688110677012
 30
0.0
 10
218.5825408916911
 20
1717.13107480212
 30
0.0
  0
SPLINE
  5
1AA
330
1F
100
AcDbEntity
  8
0
  6
Continuous
 62
     7
370
    15
100
AcDbSpline
210
0.0
220
0.0
230
1.0
 70
     8
 71
     3
 72
    15
 73
    11
 74
     0
 42
0.000000001
 43
0.00000001
 40
0.0
 40
0.0
 40
0.0
 40
0.0
 40
0.1253126906535317
 40
0.2498044998513742
 40
0.3741496877463588
 40
0.4990482899911519
 40
0.6247253390302275
 40
0.7497145168393012
 40
0.8745422653156568
 40
1.0
 40
1.0
 40
1.0
 40
1.0
 10
187.6584559267434
 20
1720.569499254958
 30
0.0
 10
186.8711761883002
 20
1719.8717757556
 30
0.0
 10
185.301773917235
 20
1718.480899309784
 30
0.0
 10
183.8472625567379
 20
1716.642340158327
 30
0.0
 10
183.0632297366148
 20
1714.989947028999
 30
0.0
 10
183.0298880183217
 20
1713.574430582872
 30
0.0
 10
183.7368639650313
 20
1712.419354243997
 30
0.0
 10
185.2116393064815
 20
1711.566122825105
 30
0.0
 10
187.3781807932214
 20
1711.00366262001
 30
0.0
 10
189.4449080778305
 20
1710.897755569993
 30
0.0
 10
190.4808727692821
 20
1710.844668757229
 30
0.0
  0
SPLINE
  5
1AB
330
1F
100
AcDbEntity
  8
0
  6
Continuous
 62
     7
370
    15
100
AcDbSpline
210
0.0
220
0.0
230
1.0
 70
     8
 71
     3
 72
    15
 73
    11
 74
     0
 42
0.000000001
 43
0.00000001
 40
0.0
 40
0.0
 40
0.0
 40
0.0
 40
0.1249430022509197
 40
0.2496352022177445
 40
0.3748520349016851
 40
0.4993969411251412
 40
0.6247263663172361
 40
0.7490552207327998
 40
0.8745414775023592
 40
1.0
 40
1.0
 40
1.0
 40
1.0
 10
221.5132185639062
 20
1735.269001060322
 30
0.0
 10
219.5970272607554
 20
1734.653115184178
 30
0.0
 10
215.7684910896036
 20
1733.422579720291
 30
0.0
 10
210.2245786662847
 20
1731.425681861479
 30
0.0
 10
204.9944863969725
 20
1729.393413847826
 30
0.0
 10
200.1902445663524
 20
1727.363758707898
 30
0.0
 10
195.9347407217089
 20
1725.405903433825
 30
0.0
 10
192.3412467182197
 20
1723.577147441403
 30
0.0
 10
189.4400072216651
 20
1721.915748490269
 30
0.0
 10
188.252262602101
 20
1721.018215935135
 30
0.0
 10
187.6584559267433
 20
1720.569499254958
 30
0.0
  0
SPLINE
  5
1AC
330
1F
100
AcDbEntity
  8
0
  6
Continuous
 62
     7
370
    15
100
AcDbSpline
210
0.0
220
0.0
230
1.0
 70
     8
 71
     3
 72
    22
 73
    18
 74
     0
 42
0.000000001
 43
0.00000001
 40
0.0
 40
0.0
 40
0.0
 40
0.0
 40
0.0718174611236709
 40
0.143283210380014
 40
0.2145315867288984
 40
0.2857413045503002
 40
0.3570579160394201
 40
0.4285906846491315
 40
0.5004007253996249
 40
0.5630750217338286
 40
0.6255221667201988
 40
0.6878146664845617
 40
0.7500233746647631
 40
0.8122349233248974
 40
0.8745615692943245
 40
0.9371279549050329
 40
1.0
 40
1.0
 40
1.0
 40
1.0
 10
581.5132185639061
 20
1735.267679524311
 30
0.0
 10
573.1397960301534
 20
1737.801850538547
 30
0.0
 10
556.4339581498864
 20
1742.857781963727
 30
0.0
 10
531.0296370849856
 20
1749.03271273291
 30
0.0
 10
505.4297636433004
 20
1753.936536808174
 30
0.0
 10
479.63649897082
 20
1757.563883973527
 30
0.0
 10
453.6799756312153
 20
1760.087390598899
 30
0.0
 10
427.5719072469313
 20
1761.594956830671
 30
0.0
 10
402.4777925284895
 20
1762.079192338102
 30
0.0
 10
378.490828664188
 20
1761.674068357427
 30
0.0
 10
355.6894693954903
 20
1760.51074634208
 30
0.0
 10
332.9968276944794
 20
1758.582015342207
 30
0.0
 10
310.4161450992513
 20
1755.839468085426
 30
0.0
 10
287.9575370225958
 20
1752.195362590893
 30
0.0
 10
265.6375986281539
 20
1747.561374829548
 30
0.0
 10
243.4627758213502
 20
1741.930073897387
 30
0.0
 10
228.8416135872694
 20
1737.492962685463
 30
0.0
 10
221.5132185639062
 20
1735.269001060322
 30
0.0
  0
SPLINE
  5
1AD
330
1F
100
AcDbEntity
  8
0
  6
Continuous
 62
     7
370
    15
100
AcDbSpline
210
0.0
220
0.0
230
1.0
 70
     8
 71
     3
 72
    15
 73
    11
 74
     0
 42
0.000000001
 43
0.00000001
 40
0.0
 40
0.0
 40
0.0
 40
0.0
 40
0.1248989672041086
 40
0.2497209348632229
 40
0.3747959911725162
 40
0.4996340419898636
 40
0.6247435487825099
 40
0.7493677115542018
 40
0.8747833569161491
 40
1.0
 40
1.0
 40
1.0
 40
1.0
 10
615.367981201069
 20
1720.571346894605
 30
0.0
 10
614.7788868635166
 20
1721.017215782339
 30
0.0
 10
613.6010613619188
 20
1721.908678682023
 30
0.0
 10
610.7036996674477
 20
1723.565538871914
 30
0.0
 10
607.1198485103886
 20
1725.388559860886
 30
0.0
 10
602.8577879326574
 20
1727.348205038799
 30
0.0
 10
598.0624238322602
 20
1729.374380829788
 30
0.0
 10
592.8256258769893
 20
1731.411259574316
 30
0.0
 10
587.2758911473966
 20
1733.412305995133
 30
0.0
 10
583.4330923630926
 20
1734.649549138667
 30
0.0
 10
581.513218563906
 20
1735.267679524311
 30
0.0
  0
SPLINE
  5
1AE
330
1F
100
AcDbEntity
  8
0
  6
Continuous
 62
     7
370
    15
100
AcDbSpline
210
0.0
220
0.0
230
1.0
 70
     8
 71
     3
 72
    15
 73
    11
 74
     0
 42
0.000000001
 43
0.00000001
 40
0.0
 40
0.0
 40
0.0
 40
0.0
 40
0.1253286913905742
 40
0.2497155426471104
 40
0.3739506633389578
 40
0.498798051735244
 40
0.6244876636984417
 40
0.7495670942348442
 40
0.8745111366372395
 40
1.0
 40
1.0
 40
1.0
 40
1.0
 10
612.5455643585302
 20
1710.84473214401
 30
0.0
 10
613.580567961486
 20
1710.898354805248
 30
0.0
 10
615.6427971564625
 20
1711.005197155556
 30
0.0
 10
617.8035287778055
 20
1711.565591216528
 30
0.0
 10
619.2769859264298
 20
1712.412451174247
 30
0.0
 10
619.9921297199398
 20
1713.560807391361
 30
0.0
 10
619.9683280745843
 20
1714.976079441024
 30
0.0
 10
619.1870781870749
 20
1716.634951500646
 30
0.0
 10
617.7293872460937
 20
1718.479473645514
 30
0.0
 10
616.1562573395207
 20
1719.87304523217
 30
0.0
 10
615.367981201069
 20
1720.571346894605
 30
0.0
  0
SPLINE
  5
1AF
330
1F
100
AcDbEntity
  8
0
  6
Continuous
 62
     7
370
    15
100
AcDbSpline
210
0.0
220
0.0
230
1.0
 70
     8
 71
     3
 72
    15
 73
    11
 74
     0
 42
0.000000001
 43
0.00000001
 40
0.0
 40
0.0
 40
0.0
 40
0.0
 40
0.1250954691891244
 40
0.2496344123619166
 40
0.3751411620401939
 40
0.4995703591419637
 40
0.6245499351979187
 40
0.7496469500367735
 40
0.8741733403233929
 40
1.0
 40
1.0
 40
1.0
 40
1.0
 10
584.4438962361212
 20
1717.128850256438
 30
0.0
 10
585.9894940798487
 20
1716.687528601655
 30
0.0
 10
589.0738136956409
 20
1715.806848648428
 30
0.0
 10
593.5372110744319
 20
1714.598246988366
 30
0.0
 10
597.766663691208
 20
1713.506932288716
 30
0.0
 10
601.683131202338
 20
1712.564883452901
 30
0.0
 10
605.2042044492242
 20
1711.797760000073
 30
0.0
 10
608.2389248715083
 20
1711.238496024217
 30
0.0
 10
610.7825462316439
 20
1710.885126299366
 30
0.0
 10
611.9558603522514
 20
1710.858243403412
 30
0.0
 10
612.5455643585303
 20
1710.84473214401
 30
0.0
  0
SPLINE
  5
1B0
330
1F
100
AcDbEntity
  8
0
  6
Continuous
 62
     7
370
    15
100
AcDbSpline
210
0.0
220
0.0
230
1.0
 70
     8
 71
     3
 72
    11
 73
     7
 74
     0
 42
0.000000001
 43
0.00000001
 40
0.0
 40
0.0
 40
0.0
 40
0.0
 40
0.2501844504654327
 40
0.5000199957653734
 40
0.7498787045002164
 40
1.0
 40
1.0
 40
1.0
 40
1.0
 10
500.7157883582626
 20
1735.693571813989
 30
0.0
 10
507.7877939433939
 20
1734.594483477456
 30
0.0
 10
521.9219425531558
 20
1732.397839583895
 30
0.0
 10
542.9356696762948
 20
1728.042063457011
 30
0.0
 10
563.783540244007
 20
1722.960386718734
 30
0.0
 10
577.5547000594661
 20
1719.073376222758
 30
0.0
 10
584.4438962361212
 20
1717.128850256438
 30
0.0
  0
SPLINE
  5
1B1
330
1F
100
AcDbEntity
  8
0
  6
Continuous
 62
     7
370
    15
100
AcDbSpline
210
0.0
220
0.0
230
1.0
 70
     8
 71
     3
 72
    15
 73
    11
 74
     0
 42
0.000000001
 43
0.00000001
 40
0.0
 40
0.0
 40
0.0
 40
0.0
 40
0.1248588076731486
 40
0.2499761431157683
 40
0.3745532304217317
 40
0.4998005208732761
 40
0.6242770335286002
 40
0.7495619611205692
 40
0.8741539404848943
 40
1.0
 40
1.0
 40
1.0
 40
1.0
 10
475.0917062782501
 20
1735.292385068793
 30
0.0
 10
475.0840701420818
 20
1735.510496380293
 30
0.0
 10
475.06878205866
 20
1735.947170616057
 30
0.0
 10
476.3410556038256
 20
1736.476999924257
 30
0.0
 10
478.5276164713677
 20
1736.870036048699
 30
0.0
 10
481.6455622077355
 20
1737.08290142991
 30
0.0
 10
485.5726465937528
 20
1737.089515512111
 30
0.0
 10
490.1641651346833
 20
1736.865957449298
 30
0.0
 10
495.2633001572565
 20
1736.422418782438
 30
0.0
 10
498.8922349379164
 20
1735.937330504192
 30
0.0
 10
500.7157883582626
 20
1735.69357181399
 30
0.0
  0
SPLINE
  5
1B2
330
1F
100
AcDbEntity
  8
0
  6
Continuous
 62
     7
370
    15
100
AcDbSpline
210
0.0
220
0.0
230
1.0
 70
     8
 71
     3
 72
    12
 73
     8
 74
     0
 42
0.000000001
 43
0.00000001
 40
0.0
 40
0.0
 40
0.0
 40
0.0
 40
0.1667223754313849
 40
0.3333906914289282
 40
0.5000516854694865
 40
0.7500284522049662
 40
0.9999999999999999
 40
0.9999999999999999
 40
0.9999999999999999
 40
0.9999999999999999
 10
479.7375931168652
 20
1727.38788280224
 30
0.0
 10
479.4796144232893
 20
1727.94309436967
 30
0.0
 10
478.9637406852704
 20
1729.053337478169
 30
0.0
 10
478.1894427232096
 20
1730.17523780926
 30
0.0
 10
477.2861771502685
 20
1731.460620691185
 30
0.0
 10
476.2536233683237
 20
1732.985518392099
 30
0.0
 10
475.4790092795528
 20
1734.523434861311
 30
0.0
 10
475.0917062782501
 20
1735.292385068793
 30
0.0
  0
SPLINE
  5
1B3
330
1F
100
AcDbEntity
  8
0
  6
Continuous
 62
     7
370
    15
100
AcDbSpline
210
0.0
220
0.0
230
1.0
 70
     8
 71
     3
 72
    12
 73
     8
 74
     0
 42
0.000000001
 43
0.00000001
 40
0.0
 40
0.0
 40
0.0
 40
0.0
 40
0.2010946504065013
 40
0.4020259239636514
 40
0.6017330856143639
 40
0.8008024099074527
 40
1.0
 40
1.0
 40
1.0
 40
1.0
 10
482.5954085671921
 20
1714.587739607369
 30
0.0
 10
482.3832250594997
 20
1715.98446220972
 30
0.0
 10
481.9590304299687
 20
1718.776772664503
 30
0.0
 10
481.3628163091658
 20
1721.82061435722
 30
0.0
 10
480.7953579278899
 20
1724.223257034487
 30
0.0
 10
480.2539418385667
 20
1726.063484847802
 30
0.0
 10
479.909854890932
 20
1726.946045811153
 30
0.0
 10
479.737756008812
 20
1727.387468411573
 30
0.0
  0
SPLINE
  5
1B4
330
1F
100
AcDbEntity
  8
0
  6
Continuous
 62
     7
370
    15
100
AcDbSpline
210
0.0
220
0.0
230
1.0
 70
     8
 71
     3
 72
    10
 73
     6
 74
     0
 42
0.000000001
 43
0.00000001
 40
0.0
 40
0.0
 40
0.0
 40
0.0
 40
0.3330768012687974
 40
0.6654158796728645
 40
1.0
 40
1.0
 40
1.0
 40
1.0
 10
484.0534928705038
 20
1702.542488384752
 30
0.0
 10
483.8885474753874
 20
1704.069548657719
 30
0.0
 10
483.5590220182821
 20
1707.120286958852
 30
0.0
 10
483.070171728046
 20
1711.16066083187
 30
0.0
 10
482.7540177071506
 20
1713.442819230281
 30
0.0
 10
482.5954085671921
 20
1714.587739607369
 30
0.0
  0
SPLINE
  5
1B5
330
1F
100
AcDbEntity
  8
0
  6
Continuous
 62
     7
370
    15
100
AcDbSpline
210
0.0
220
0.0
230
1.0
 70
     8
 71
     3
 72
    15
 73
    11
 74
     0
 42
0.000000001
 43
0.00000001
 40
0.0
 40
0.0
 40
0.0
 40
0.0
 40
0.1249075696527679
 40
0.2500099103251108
 40
0.3747959867367061
 40
0.5000718115166186
 40
0.6246669043886223
 40
0.7499715715637858
 40
0.8743952744043055
 40
1.0
 40
1.0
 40
1.0
 40
1.0
 10
511.5126144508453
 20
1679.791026319745
 30
0.0
 10
509.7543645628522
 20
1680.001653587461
 30
0.0
 10
506.2351231105664
 20
1680.423236558455
 30
0.0
 10
501.2369328178485
 20
1682.122031764731
 30
0.0
 10
496.6379670026541
 20
1684.494160455898
 30
0.0
 10
492.5899625520518
 20
1687.492196386863
 30
0.0
 10
489.1885704839948
 20
1690.962791391441
 30
0.0
 10
486.5708273961106
 20
1694.738970481104
 30
0.0
 10
484.7270529398571
 20
1698.6869096908
 30
0.0
 10
484.2787188037721
 20
1701.253254730405
 30
0.0
 10
484.0534928705038
 20
1702.542488384753
 30
0.0
  0
LINE
  5
1B6
330
1F
100
AcDbEntity
  8
0
  6
Continuous
 62
     7
370
    15
100
AcDbLine
 10
564.3474348454
 20
1676.037664924
 30
0.0
 11
511.5126144508
 21
1679.7910263197
 31
0.0
  0
LINE
  5
1B7
330
1F
100
AcDbEntity
  8
0
  6
Continuous
 62
     7
370
    15
100
AcDbLine
 10
569.2868818651
 20
1675.3755577175
 30
0.0
 11
564.3474348454
 21
1676.037664924
 31
0.0
  0
SPLINE
  5
1B8
330
1F
100
AcDbEntity
  8
0
  6
Continuous
 62
     7
370
    15
100
AcDbSpline
210
0.0
220
0.0
230
1.0
 70
     8
 71
     3
 72
    15
 73
    11
 74
     0
 42
0.000000001
 43
0.00000001
 40
0.0
 40
0.0
 40
0.0
 40
0.0
 40
0.1249601196645072
 40
0.2500127170096473
 40
0.3748707461875823
 40
0.4999965733265132
 40
0.6248208008781897
 40
0.7500496380514812
 40
0.8747641347936631
 40
1.0
 40
1.0
 40
1.0
 40
1.0
 10
601.5132185639061
 20
1636.138201042012
 30
0.0
 10
601.3982564556111
 20
1638.439460673972
 30
0.0
 10
601.168247160444
 20
1643.04368300247
 30
0.0
 10
599.3269649252986
 20
1649.738480465318
 30
0.0
 10
596.4521781579637
 20
1656.023634854914
 30
0.0
 10
592.532597697405
 20
1661.700595292689
 30
0.0
 10
587.718937770447
 20
1666.622440366677
 30
0.0
 10
582.1456293519714
 20
1670.616392149106
 30
0.0
 10
575.9791478203651
 20
1673.705443398873
 30
0.0
 10
571.5207370986693
 20
1674.818079333309
 30
0.0
 10
569.2868818650778
 20
1675.375557717507
 30
0.0
  0
SPLINE
  5
1B9
330
1F
100
AcDbEntity
  8
0
  6
Continuous
 62
     7
370
    15
100
AcDbSpline
210
0.0
220
0.0
230
1.0
 70
     8
 71
     3
 72
    19
 73
    15
 74
     0
 42
0.000000001
 43
0.00000001
 40
0.0
 40
0.0
 40
0.0
 40
0.0
 40
0.0559879389603828
 40
0.1119820318938523
 40
0.1679810327693693
 40
0.223983119359693
 40
0.2799840019010024
 40
0.3899869204237754
 40
0.499990613188879
 40
0.5999905907325127
 40
0.6999938318798088
 40
0.7999941371733758
 40
0.8999955000086829
 40
0.9999999999999999
 40
0.9999999999999999
 40
0.9999999999999999
 40
0.9999999999999999
 10
601.513225249003
 20
1376.138201319687
 30
0.0
 10
601.5132249994202
 20
1380.941945690158
 30
0.0
 10
601.5132245002275
 20
1390.549962439705
 30
0.0
 10
601.5132237515127
 20
1405.094495429029
 30
0.0
 10
601.5132230027913
 20
1419.654537894691
 30
0.0
 10
601.5132222540987
 20
1434.225572235335
 30
0.0
 10
601.5132212646845
 20
1453.482360866595
 30
0.0
 10
601.5132200346322
 20
1477.424485755125
 30
0.0
 10
601.5132186085293
 20
1505.182897827403
 30
0.0
 10
601.5132172268815
 20
1532.069820145645
 30
0.0
 10
601.5132158899295
 20
1558.081338450316
 30
0.0
 10
601.5132145528752
 20
1584.094433916205
 30
0.0
 10
601.5132132158474
 20
1610.113409950589
 30
0.0
 10
601.5132123245246
 20
1627.463179610396
 30
0.0
 10
601.513211878856
 20
1636.138200508645
 30
0.0
  0
SPLINE
  5
1BA
330
1F
100
AcDbEntity
  8
0
  6
Continuous
 62
     7
370
    15
100
AcDbSpline
210
0.0
220
0.0
230
1.0
 70
     8
 71
     3
 72
    20
 73
    16
 74
     0
 42
0.000000001
 43
0.00000001
 40
0.0
 40
0.0
 40
0.0
 40
0.0
 40
0.0626364884971816
 40
0.1247397382324264
 40
0.1872131023981177
 40
0.2500143218218205
 40
0.3332799457111471
 40
0.4169341654700874
 40
0.5001350814568852
 40
0.5832027959985117
 40
0.6668265766459366
 40
0.7496640754664592
 40
0.8324243388566409
 40
0.916153135446807
 40
1.0
 40
1.0
 40
1.0
 40
1.0
 10
546.6351697834176
 20
1316.357220657738
 30
0.0
 10
548.5729859903386
 20
1316.578203106382
 30
0.0
 10
552.4321213313106
 20
1317.018286729508
 30
0.0
 10
558.0070436595108
 20
1318.364532041183
 30
0.0
 10
563.3495442359529
 20
1320.157249409625
 30
0.0
 10
568.9846301809994
 20
1322.66753171898
 30
0.0
 10
574.780550965149
 20
1326.028456461419
 30
0.0
 10
580.5473040521099
 20
1330.382097504228
 30
0.0
 10
585.7394802822004
 20
1335.379365292934
 30
0.0
 10
590.3174810621523
 20
1340.983590660291
 30
0.0
 10
594.2154926262677
 20
1347.148777396477
 30
0.0
 10
597.3748733216437
 20
1353.820802286078
 30
0.0
 10
599.7062003174397
 20
1360.931287411662
 30
0.0
 10
601.223032013027
 20
1368.402385718694
 30
0.0
 10
601.4164442897661
 20
1373.558385021845
 30
0.0
 10
601.5132185639061
 20
1376.138201042012
 30
0.0
  0
SPLINE
  5
1BB
330
1F
100
AcDbEntity
  8
0
  6
Continuous
 62
     7
370
    15
100
AcDbSpline
210
0.0
220
0.0
230
1.0
 70
     8
 71
     3
 72
    16
 73
    12
 74
     0
 42
0.000000001
 43
0.00000001
 40
0.0
 40
0.0
 40
0.0
 40
0.0
 40
0.1120327533868409
 40
0.2239667787226176
 40
0.335862665475669
 40
0.447807893447628
 40
0.5598943495341676
 40
0.6699569533385886
 40
0.7799385002248768
 40
0.8899328481650125
 40
1.0
 40
1.0
 40
1.0
 40
1.0
 10
256.3912673443945
 20
1316.357220657738
 30
0.0
 10
267.1889334368059
 20
1315.492049464543
 30
0.0
 10
288.7747502567277
 20
1313.76246950399
 30
0.0
 10
321.2410662816746
 20
1311.951503549799
 30
0.0
 10
353.7572460531143
 20
1310.71668971574
 30
0.0
 10
386.3350760534461
 20
1310.115577797991
 30
0.0
 10
418.750379086128
 20
1310.137049110764
 30
0.0
 10
450.9577441235053
 20
1310.768524873931
 30
0.0
 10
482.9162141626941
 20
1312.008639196462
 30
0.0
 10
514.8178247773402
 20
1313.804737659948
 30
0.0
 10
536.0270492016692
 20
1315.506205357177
 30
0.0
 10
546.6351697834177
 20
1316.357220657738
 30
0.0
  0
SPLINE
  5
1BC
330
1F
100
AcDbEntity
  8
0
  6
Continuous
 62
     7
370
    15
100
AcDbSpline
210
0.0
220
0.0
230
1.0
 70
     8
 71
     3
 72
    20
 73
    16
 74
     0
 42
0.000000001
 43
0.00000001
 40
0.0
 40
0.0
 40
0.0
 40
0.0
 40
0.0833308546512798
 40
0.1662149913810305
 40
0.2498230163154902
 40
0.3329310723557964
 40
0.4161653192719568
 40
0.4996939864731081
 40
0.5826798997358724
 40
0.6660730570957989
 40
0.7494529990035695
 40
0.811703327571066
 40
0.8743381284304493
 40
0.937173338182865
 40
1.0
 40
1.0
 40
1.0
 40
1.0
 10
201.5132185639062
 20
1376.138201042012
 30
0.0
 10
201.6085084024853
 20
1373.574228600784
 30
0.0
 10
201.7985772523056
 20
1368.460028596435
 30
0.0
 10
203.3027392975797
 20
1361.002177247067
 30
0.0
 10
205.6260511106292
 20
1353.87889352315
 30
0.0
 10
208.7906544736053
 20
1347.184636281903
 30
0.0
 10
212.6924301778007
 20
1341.010076118778
 30
0.0
 10
217.2630905705843
 20
1335.40426485804
 30
0.0
 10
222.4522823427889
 20
1330.404506182544
 30
0.0
 10
228.2094661486932
 20
1326.054583857049
 30
0.0
 10
233.9837501936391
 20
1322.698571343783
 30
0.0
 10
239.6059668001404
 20
1320.183774940159
 30
0.0
 10
244.9550673311602
 20
1318.382001761058
 30
0.0
 10
250.5603755537144
 20
1317.023376863829
 30
0.0
 10
254.4477248909451
 20
1316.579262656397
 30
0.0
 10
256.391267344394
 20
1316.357220657738
 30
0.0
  0
SPLINE
  5
1BD
330
1F
100
AcDbEntity
  8
0
  6
Continuous
 62
     7
370
    15
100
AcDbSpline
210
0.0
220
0.0
230
1.0
 70
     8
 71
     3
 72
    18
 73
    14
 74
     0
 42
0.000000001
 43
0.00000001
 40
0.0
 40
0.0
 40
0.0
 40
0.0
 40
0.1000045908815772
 40
0.2000060460520373
 40
0.3000064492623736
 40
0.4000097879873528
 40
0.5000098592901951
 40
0.6400147362234065
 40
0.7800161941969175
 40
0.8350185032647791
 40
0.8900170732186791
 40
0.9450116146358729
 40
1.0
 40
1.0
 40
1.0
 40
1.0
 10
201.5132450915431
 20
1636.138198928146
 30
0.0
 10
201.5132433230467
 20
1627.463176570517
 30
0.0
 10
201.5132397861093
 20
1610.113403866412
 30
0.0
 10
201.51323448053
 20
1584.094427805896
 30
0.0
 10
201.5132291748481
 20
1558.081325791803
 30
0.0
 10
201.5132238695726
 20
1532.06982434089
 30
0.0
 10
201.513217856333
 20
1502.580824188748
 30
0.0
 10
201.5132111363642
 20
1469.617564731744
 30
0.0
 10
201.5132052115287
 20
1440.556777846845
 30
0.0
 10
201.5132007905185
 20
1418.874134125891
 30
0.0
 10
201.5131978724538
 20
1404.574750734615
 30
0.0
 10
201.5131949545054
 20
1390.291646806216
 30
0.0
 10
201.513193008985
 20
1380.855840980759
 30
0.0
 10
201.5131920362792
 20
1376.138202142296
 30
0.0
  0
SPLINE
  5
1BE
330
1F
100
AcDbEntity
  8
0
  6
Continuous
 62
     7
370
    15
100
AcDbSpline
210
0.0
220
0.0
230
1.0
 70
     8
 71
     3
 72
    15
 73
    11
 74
     0
 42
0.000000001
 43
0.00000001
 40
0.0
 40
0.0
 40
0.0
 40
0.0
 40
0.1245830995202468
 40
0.2498042776538784
 40
0.3745715279724091
 40
0.4996476993181723
 40
0.6243293983456993
 40
0.7493967363233955
 40
0.874153838697153
 40
1.0
 40
1.0
 40
1.0
 40
1.0
 10
233.7235872287488
 20
1675.372390770645
 30
0.0
 10
231.5029683417646
 20
1674.815492026863
 30
0.0
 10
227.0503571999339
 20
1673.698842264958
 30
0.0
 10
220.8913064568535
 20
1670.624833868425
 30
0.0
 10
215.31576228769
 20
1666.62829899437
 30
0.0
 10
210.5095036799419
 20
1661.719114495633
 30
0.0
 10
206.5877244736691
 20
1656.04620453256
 30
0.0
 10
203.7126291272461
 20
1649.774136253109
 30
0.0
 10
201.8616156519491
 20
1643.068995581454
 30
0.0
 10
201.6296868946565
 20
1638.455149427881
 30
0.0
 10
201.5132185639062
 20
1636.138201042012
 30
0.0
  0
LINE
  5
1BF
330
1F
100
AcDbEntity
  8
0
  6
Continuous
 62
     7
370
    15
100
AcDbLine
 10
238.6790022824
 20
1676.037664924
 30
0.0
 11
233.7235872287
 21
1675.3723907706
 31
0.0
  0
LINE
  5
1C0
330
1F
100
AcDbEntity
  8
0
  6
Continuous
 62
     7
370
    15
100
AcDbLine
 10
291.513822677
 20
1679.7907305951
 30
0.0
 11
238.6790022824
 21
1676.037664924
 31
0.0
  0
SPLINE
  5
1C1
330
1F
100
AcDbEntity
  8
0
  6
Continuous
 62
     7
370
    15
100
AcDbSpline
210
0.0
220
0.0
230
1.0
 70
     8
 71
     3
 72
    15
 73
    11
 74
     0
 42
0.000000001
 43
0.00000001
 40
0.0
 40
0.0
 40
0.0
 40
0.0
 40
0.1249074390094517
 40
0.2500098619615485
 40
0.3747958436944946
 40
0.5000719097253559
 40
0.624666727450523
 40
0.7499715038175803
 40
0.874394895100755
 40
1.0
 40
1.0
 40
1.0
 40
1.0
 10
291.513822676967
 20
1679.790730595131
 30
0.0
 10
293.2720798877411
 20
1680.001202489323
 30
0.0
 10
296.7913389970826
 20
1680.422474830115
 30
0.0
 10
301.7895453054314
 20
1682.121205564358
 30
0.0
 10
306.3885034448705
 20
1684.493396618956
 30
0.0
 10
310.4364870073809
 20
1687.491553758456
 30
0.0
 10
313.8378662502939
 20
1690.962264975474
 30
0.0
 10
316.4556032142524
 20
1694.738526565191
 30
0.0
 10
318.2993817285949
 20
1698.686523634631
 30
0.0
 10
318.7477170895801
 20
1701.252882252148
 30
0.0
 10
318.9729442573085
 20
1702.542126271466
 30
0.0
  0
SPLINE
  5
1C2
330
1F
100
AcDbEntity
  8
0
  6
Continuous
 62
     7
370
    15
100
AcDbSpline
210
0.0
220
0.0
230
1.0
 70
     8
 71
     3
 72
    10
 73
     6
 74
     0
 42
0.000000001
 43
0.00000001
 40
0.0
 40
0.0
 40
0.0
 40
0.0
 40
0.333077074692651
 40
0.6654162208656147
 40
1.0
 40
1.0
 40
1.0
 40
1.0
 10
318.9729442573084
 20
1702.542126271466
 30
0.0
 10
319.1378840466197
 20
1704.069139440806
 30
0.0
 10
319.4673982029906
 20
1707.119782698953
 30
0.0
 10
319.9562319564453
 20
1711.160052120766
 30
0.0
 10
320.2723758449899
 20
1713.442170779371
 30
0.0
 10
320.4309798050065
 20
1714.587070521536
 30
0.0
  0
SPLINE
  5
1C3
330
1F
100
AcDbEntity
  8
0
  6
Continuous
 62
     7
370
    15
100
AcDbSpline
210
0.0
220
0.0
230
1.0
 70
     8
 71
     3
 72
    12
 73
     8
 74
     0
 42
0.000000001
 43
0.00000001
 40
0.0
 40
0.0
 40
0.0
 40
0.0
 40
0.2010946341189831
 40
0.4020258790357041
 40
0.601732955057195
 40
0.8008022906970038
 40
0.9999999999999999
 40
0.9999999999999999
 40
0.9999999999999999
 40
0.9999999999999999
 10
320.4309798050065
 20
1714.587070521536
 30
0.0
 10
320.6431811109317
 20
1715.98392833451
 30
0.0
 10
321.0674113094195
 20
1718.776509014791
 30
0.0
 10
321.6636725621823
 20
1721.82057085202
 30
0.0
 10
322.2311739266013
 20
1724.223345185442
 30
0.0
 10
322.772629656825
 20
1726.063633996398
 30
0.0
 10
323.116741587785
 20
1726.946208450689
 30
0.0
 10
323.2888530121708
 20
1727.38763791822
 30
0.0
  0
SPLINE
  5
1C4
330
1F
100
AcDbEntity
  8
0
  6
Continuous
 62
     7
370
    15
100
AcDbSpline
210
0.0
220
0.0
230
1.0
 70
     8
 71
     3
 72
    15
 73
    11
 74
     0
 42
0.000000001
 43
0.00000001
 40
0.0
 40
0.0
 40
0.0
 40
0.0
 40
0.125832846739458
 40
0.2511921470831885
 40
0.3767980269738418
 40
0.5014173128094505
 40
0.6265014900135039
 40
0.7502912187933155
 40
0.8751231186951016
 40
0.9999999999999999
 40
0.9999999999999999
 40
0.9999999999999999
 40
0.9999999999999999
 10
218.5529145546002
 20
1744.736354809493
 30
0.0
 10
216.6138430712546
 20
1744.113294148582
 30
0.0
 10
212.7429974067846
 20
1742.869517589181
 30
0.0
 10
207.1394661794459
 20
1740.853757102286
 30
0.0
 10
201.8587607040752
 20
1738.805540657372
 30
0.0
 10
197.0133570352229
 20
1736.763258891302
 30
0.0
 10
192.7264526342171
 20
1734.796321648055
 30
0.0
 10
189.1093638847516
 20
1732.961237844388
 30
0.0
 10
186.1931904751471
 20
1731.29580708159
 30
0.0
 10
185.0015587737784
 20
1730.397191407518
 30
0.0
 10
184.4056355955389
 20
1729.947802634214
 30
0.0
  0
SPLINE
  5
1C5
330
1F
100
AcDbEntity
  8
0
  6
Continuous
 62
     7
370
    15
100
AcDbSpline
210
0.0
220
0.0
230
1.0
 70
     8
 71
     3
 72
    22
 73
    18
 74
     0
 42
0.000000001
 43
0.00000001
 40
0.0
 40
0.0
 40
0.0
 40
0.0
 40
0.0717110056959491
 40
0.1433468246910717
 40
0.2147726585048934
 40
0.2860567782925217
 40
0.3573137672900118
 40
0.4287223875583851
 40
0.5004006674301124
 40
0.5629643442333235
 40
0.6253103762336872
 40
0.6875261629780469
 40
0.7497358584494017
 40
0.8120612618539286
 40
0.8745642216251341
 40
0.9372451475071581
 40
1.0
 40
1.0
 40
1.0
 40
1.0
 10
584.4770400563051
 20
1744.733953142401
 30
0.0
 10
575.9783459608919
 20
1747.305954466091
 30
0.0
 10
558.98986837959
 20
1752.44726045217
 30
0.0
 10
533.1383648444152
 20
1758.731471656337
 30
0.0
 10
507.0657916002747
 20
1763.726579070209
 30
0.0
 10
480.8242683139616
 20
1767.41713439843
 30
0.0
 10
454.4537973215167
 20
1769.980400986969
 30
0.0
 10
427.9548397846092
 20
1771.51009262693
 30
0.0
 10
402.4929254210684
 20
1772.001191853263
 30
0.0
 10
378.1535371117841
 20
1771.590315076882
 30
0.0
 10
355.0124075859614
 20
1770.409956924105
 30
0.0
 10
331.9678890300329
 20
1768.451996793377
 30
0.0
 10
309.0107028311933
 20
1765.663819020444
 30
0.0
 10
286.1467885330481
 20
1761.953466543034
 30
0.0
 10
263.4103726950859
 20
1757.23248126974
 30
0.0
 10
240.8497833960736
 20
1751.502400320537
 30
0.0
 10
225.9881237823248
 20
1746.992589277956
 30
0.0
 10
218.5529145546001
 20
1744.736354809493
 30
0.0
  0
SPLINE
  5
1C6
330
1F
100
AcDbEntity
  8
0
  6
Continuous
 62
     7
370
    15
100
AcDbSpline
210
0.0
220
0.0
230
1.0
 70
     8
 71
     3
 72
    15
 73
    11
 74
     0
 42
0.000000001
 43
0.00000001
 40
0.0
 40
0.0
 40
0.0
 40
0.0
 40
0.1243467712679925
 40
0.2485436876698303
 40
0.373082592925179
 40
0.4976496018787296
 40
0.6228026399349363
 40
0.7477918261391974
 40
0.8738744707275412
 40
1.0
 40
1.0
 40
1.0
 40
1.0
 10
618.6161466078588
 20
1729.951235227062
 30
0.0
 10
618.0246300786918
 20
1730.397882122097
 30
0.0
 10
616.8423098786762
 20
1731.290637641571
 30
0.0
 10
613.9295826391808
 20
1732.951622455363
 30
0.0
 10
610.3232744741239
 20
1734.78054039209
 30
0.0
 10
606.0325712658653
 20
1736.748412576459
 30
0.0
 10
601.1986254518772
 20
1738.786373453745
 30
0.0
 10
595.9130554593024
 20
1740.838617611851
 30
0.0
 10
590.3046674706358
 20
1742.85822423632
 30
0.0
 10
586.4198027178072
 20
1744.108639301493
 30
0.0
 10
584.4770400563051
 20
1744.733953142401
 30
0.0
  0
SPLINE
  5
1C7
330
1F
100
AcDbEntity
  8
0
  6
Continuous
 62
     7
370
    15
100
AcDbSpline
210
0.0
220
0.0
230
1.0
 70
     8
 71
     3
 72
    12
 73
     8
 74
     0
 42
0.000000001
 43
0.00000001
 40
0.0
 40
0.0
 40
0.0
 40
0.0
 40
0.2451401883681326
 40
0.488977367179434
 40
0.7322019807060891
 40
0.9761111410595462
 40
1.0
 40
1.0
 40
1.0
 40
1.0
 10
184.4056355955392
 20
1729.947802634214
 30
0.0
 10
183.6157646590868
 20
1729.248380653054
 30
0.0
 10
182.0402212384459
 20
1727.853254373795
 30
0.0
 10
180.5593034260617
 20
1726.002035579988
 30
0.0
 10
179.8303741802963
 20
1724.367574554656
 30
0.0
 10
179.6439651759967
 20
1723.319026870929
 30
0.0
 10
179.9202620669918
 20
1722.905372687679
 30
0.0
 10
179.9449090657712
 20
1722.868472764148
 30
0.0
  0
SPLINE
  5
1C8
330
1F
100
AcDbEntity
  8
0
  6
Continuous
 62
     7
370
    15
100
AcDbSpline
210
0.0
220
0.0
230
1.0
 70
     8
 71
     3
 72
    12
 73
     8
 74
     0
 42
0.000000001
 43
0.00000001
 40
0.0
 40
0.0
 40
0.0
 40
0.0
 40
0.0203815901588624
 40
0.2656600667087328
 40
0.5101327205323394
 40
0.7546832085385686
 40
1.0
 40
1.0
 40
1.0
 40
1.0
 10
623.0847507500617
 20
1722.86636356956
 30
0.0
 10
623.1059846572674
 20
1722.897790899419
 30
0.0
 10
623.38275409286
 20
1723.307424616983
 30
0.0
 10
623.1998679235202
 20
1724.354221158585
 30
0.0
 10
622.4742688226667
 20
1725.994912282521
 30
0.0
 10
620.9879741574147
 20
1727.852846987649
 30
0.0
 10
619.4075798656844
 20
1729.251043410497
 30
0.0
 10
618.6161466078589
 20
1729.951235227062
 30
0.0
  0
SPLINE
  5
1C9
330
1F
100
AcDbEntity
  8
0
  6
Continuous
 62
     7
370
    15
100
AcDbSpline
210
0.0
220
0.0
230
1.0
 70
     8
 71
     3
 72
    12
 73
     8
 74
     0
 42
0.000000001
 43
0.00000001
 40
0.0
 40
0.0
 40
0.0
 40
0.0
 40
0.2092194882706303
 40
0.4134277899921625
 40
0.6124851858282939
 40
0.8076435049411902
 40
1.0
 40
1.0
 40
1.0
 40
1.0
 10
482.6361286544916
 20
1723.281187703766
 30
0.0
 10
482.4495657928498
 20
1724.858700420517
 30
0.0
 10
482.080908588778
 20
1727.975941560727
 30
0.0
 10
481.5665817640997
 20
1731.34056340923
 30
0.0
 10
481.0872399615205
 20
1733.940029978849
 30
0.0
 10
480.6416919688014
 20
1735.897008772676
 30
0.0
 10
480.3617329645658
 20
1736.824328684996
 30
0.0
 10
480.2227655474619
 20
1737.284636269658
 30
0.0
  0
SPLINE
  5
1CA
330
1F
100
AcDbEntity
  8
0
  6
Continuous
 62
     7
370
    15
100
AcDbSpline
210
0.0
220
0.0
230
1.0
 70
     8
 71
     3
 72
    12
 73
     8
 74
     0
 42
0.000000001
 43
0.00000001
 40
0.0
 40
0.0
 40
0.0
 40
0.0
 40
0.2092200106246001
 40
0.4134285028005745
 40
0.6124857577886095
 40
0.8076438517397715
 40
1.0
 40
1.0
 40
1.0
 40
1.0
 10
320.3899242353837
 20
1723.280470910326
 30
0.0
 10
320.576515857075
 20
1724.858135475551
 30
0.0
 10
320.9452296075461
 20
1727.975674267254
 30
0.0
 10
321.4596310266585
 20
1731.340533254647
 30
0.0
 10
321.9390370306802
 20
1733.940133568342
 30
0.0
 10
322.3846403100397
 20
1735.897168304542
 30
0.0
 10
322.6646317108485
 20
1736.824497103119
 30
0.0
 10
322.8036151636842
 20
1737.284808948297
 30
0.0
  0
SPLINE
  5
1CB
330
1F
100
AcDbEntity
  8
0
  6
Continuous
 62
     7
370
    15
100
AcDbSpline
210
0.0
220
0.0
230
1.0
 70
     8
 71
     3
 72
    10
 73
     6
 74
     0
 42
0.000000001
 43
0.00000001
 40
0.0
 40
0.0
 40
0.0
 40
0.0
 40
0.3326757648338818
 40
0.6655400746263371
 40
1.0
 40
1.0
 40
1.0
 40
1.0
 10
483.9685461980708
 20
1709.543768231874
 30
0.0
 10
483.8136855755463
 20
1711.28266741584
 30
0.0
 10
483.5038765627883
 20
1714.761451309949
 30
0.0
 10
483.0598555881737
 20
1719.369698960239
 30
0.0
 10
482.7775959327741
 20
1721.975281416971
 30
0.0
 10
482.6361286544916
 20
1723.281187703766
 30
0.0
  0
SPLINE
  5
1CC
330
1F
100
AcDbEntity
  8
0
  6
Continuous
 62
     7
370
    15
100
AcDbSpline
210
0.0
220
0.0
230
1.0
 70
     8
 71
     3
 72
    10
 73
     6
 74
     0
 42
0.000000001
 43
0.00000001
 40
0.0
 40
0.0
 40
0.0
 40
0.0
 40
0.3326759744431008
 40
0.665540335267255
 40
1.0
 40
1.0
 40
1.0
 40
1.0
 10
319.057466591832
 20
1709.543414676406
 30
0.0
 10
319.2123307608306
 20
1711.282258541069
 30
0.0
 10
319.5221467946718
 20
1714.76093093574
 30
0.0
 10
319.9661816518461
 20
1719.369054912049
 30
0.0
 10
320.2484517760128
 20
1721.974589315232
 30
0.0
 10
320.3899242353837
 20
1723.280470910326
 30
0.0
  0
SPLINE
  5
1CD
330
1F
100
AcDbEntity
  8
0
  6
Continuous
 62
     7
370
    15
100
AcDbSpline
210
0.0
220
0.0
230
1.0
 70
     8
 71
     3
 72
    15
 73
    11
 74
     0
 42
0.000000001
 43
0.00000001
 40
0.0
 40
0.0
 40
0.0
 40
0.0
 40
0.1181338605458867
 40
0.2376733715213818
 40
0.3586524211242587
 40
0.4822627935526931
 40
0.6076163585260499
 40
0.7362254930522922
 40
0.8664149649484667
 40
1.0
 40
1.0
 40
1.0
 40
1.0
 10
291.6034269634659
 20
1684.076841117945
 30
0.0
 10
293.3665441543573
 20
1684.316845817858
 30
0.0
 10
296.9137575037734
 20
1684.799710984082
 30
0.0
 10
301.9273211494824
 20
1686.695063680717
 30
0.0
 10
306.5383393974433
 20
1689.332067189042
 30
0.0
 10
310.5910349075529
 20
1692.666706313939
 30
0.0
 10
313.9881249804057
 20
1696.536205553361
 30
0.0
 10
316.5927584717791
 20
1700.762474790355
 30
0.0
 10
318.4125008666402
 20
1705.20257796803
 30
0.0
 10
318.8406408712937
 20
1708.084104498717
 30
0.0
 10
319.0574665918321
 20
1709.543414676406
 30
0.0
  0
SPLINE
  5
1CE
330
1F
100
AcDbEntity
  8
0
  6
Continuous
 62
     7
370
    15
100
AcDbSpline
210
0.0
220
0.0
230
1.0
 70
     8
 71
     3
 72
    15
 73
    11
 74
     0
 42
0.000000001
 43
0.00000001
 40
0.0
 40
0.0
 40
0.0
 40
0.0
 40
0.118148996805848
 40
0.2376963773691024
 40
0.3586775137614815
 40
0.4822853599163761
 40
0.6076344043819618
 40
0.7362375140624844
 40
0.8664212733743544
 40
1.0
 40
1.0
 40
1.0
 40
1.0
 10
511.4246203105478
 20
1684.077131472447
 30
0.0
 10
509.6612021778658
 20
1684.317276490031
 30
0.0
 10
506.1134945099429
 20
1684.800408825186
 30
0.0
 10
501.0992703077694
 20
1686.695795892184
 30
0.0
 10
496.4878157132867
 20
1689.332743315549
 30
0.0
 10
492.4348822535727
 20
1692.667282856567
 30
0.0
 10
489.0377249134215
 20
1696.536694426647
 30
0.0
 10
486.4331287533009
 20
1700.76290363369
 30
0.0
 10
484.6134706208709
 20
1705.202959045427
 30
0.0
 10
484.1853577958701
 20
1708.084468905963
 30
0.0
 10
483.9685461980705
 20
1709.543768231875
 30
0.0
  0
LINE
  5
1CF
330
1F
100
AcDbEntity
  8
0
  6
Continuous
 62
     7
370
    15
100
AcDbLine
 10
291.6034269635
 20
1684.0768411179
 30
0.0
 11
238.6760267748
 21
1679.5762635561
 31
0.0
  0
LINE
  5
1D0
330
1F
100
AcDbEntity
  8
0
  6
Continuous
 62
     7
370
    15
100
AcDbLine
 10
564.3509304323
 20
1679.5759587973
 30
0.0
 11
511.4246203105
 21
1684.0771314724
 31
0.0
  0
LINE
  5
1D1
330
1F
100
AcDbEntity
  8
0
  6
Continuous
 62
     7
370
    15
100
AcDbLine
 10
238.6760267748
 20
1679.5762635561
 30
0.0
 11
233.6989668302
 21
1678.7893528157
 31
0.0
  0
LINE
  5
1D2
330
1F
100
AcDbEntity
  8
0
  6
Continuous
 62
     7
370
    15
100
AcDbLine
 10
569.3129717259
 20
1678.7927875402
 30
0.0
 11
564.3509304323
 21
1679.5759587973
 31
0.0
  0
SPLINE
  5
1D3
330
1F
100
AcDbEntity
  8
0
  6
Continuous
 62
     7
370
    15
100
AcDbSpline
210
0.0
220
0.0
230
1.0
 70
     8
 71
     3
 72
    15
 73
    11
 74
     0
 42
0.000000001
 43
0.00000001
 40
0.0
 40
0.0
 40
0.0
 40
0.0
 40
0.121030163315869
 40
0.2447673344858543
 40
0.3701309165344863
 40
0.4972803983226344
 40
0.624313594258781
 40
0.7510113760346014
 40
0.8759071771452612
 40
1.0
 40
1.0
 40
1.0
 40
1.0
 10
233.6989668301933
 20
1678.789352815678
 30
0.0
 10
231.4560796841736
 20
1678.143436974979
 30
0.0
 10
226.9201401031364
 20
1676.837158487877
 30
0.0
 10
220.7001193956823
 20
1673.340429894057
 30
0.0
 10
215.0502438903904
 20
1668.855331574594
 30
0.0
 10
210.1633893839418
 20
1663.430446233408
 30
0.0
 10
206.140305047304
 20
1657.2785637455
 30
0.0
 10
203.1506354744916
 20
1650.597751866086
 30
0.0
 10
201.1712296208014
 20
1643.571555026781
 30
0.0
 10
200.8599263313906
 20
1638.76225751486
 30
0.0
 10
200.7047766569528
 20
1636.365363654016
 30
0.0
  0
SPLINE
  5
1D4
330
1F
100
AcDbEntity
  8
0
  6
Continuous
 62
     7
370
    15
100
AcDbSpline
210
0.0
220
0.0
230
1.0
 70
     8
 71
     3
 72
    15
 73
    11
 74
     0
 42
0.000000001
 43
0.00000001
 40
0.0
 40
0.0
 40
0.0
 40
0.0
 40
0.1232164449738705
 40
0.2483985385992837
 40
0.374876193089599
 40
0.5023543033739063
 40
0.6292432743077706
 40
0.7550718364329144
 40
0.8783195516706588
 40
0.9999999999999999
 40
0.9999999999999999
 40
0.9999999999999999
 40
0.9999999999999999
 10
602.3208005419991
 20
1636.365494016658
 30
0.0
 10
602.1674878683659
 20
1638.746070154931
 30
0.0
 10
601.8584167530021
 20
1643.545199312543
 30
0.0
 10
599.8895406150971
 20
1650.560235914018
 30
0.0
 10
596.9009170989627
 20
1657.254492769517
 30
0.0
 10
592.8810036836156
 20
1663.410413003782
 30
0.0
 10
587.9873307648276
 20
1668.848969730668
 30
0.0
 10
582.3396679291027
 20
1673.33139284586
 30
0.0
 10
576.1119290345503
 20
1676.843493339848
 30
0.0
 10
571.5696022213276
 20
1678.145800577739
 30
0.0
 10
569.3129717259131
 20
1678.792787540207
 30
0.0
  0
SPLINE
  5
1D5
330
1F
100
AcDbEntity
  8
0
  6
Continuous
 62
     7
370
    15
100
AcDbSpline
210
0.0
220
0.0
230
1.0
 70
     8
 71
     3
 72
    20
 73
    16
 74
     0
 42
0.000000001
 43
0.00000001
 40
0.0
 40
0.0
 40
0.0
 40
0.0
 40
0.0539528390076867
 40
0.1084850807084102
 40
0.1636877918662224
 40
0.2193813558346966
 40
0.2752989916317822
 40
0.3855508593105524
 40
0.4957833022560188
 40
0.5791780437002542
 40
0.6627588731060625
 40
0.7466272889816536
 40
0.8306886980584846
 40
0.9148720559089073
 40
1.0
 40
1.0
 40
1.0
 40
1.0
 10
602.191541762418
 20
1377.854341664729
 30
0.0
 10
602.2586743888174
 20
1382.455896423804
 30
0.0
 10
602.3936605828168
 20
1391.70842230759
 30
0.0
 10
602.5529467282263
 20
1405.799231025995
 30
0.0
 10
602.686858075673
 20
1420.05375070724
 30
0.0
 10
602.7952828860433
 20
1434.43862160598
 30
0.0
 10
602.905792428461
 20
1453.572786574046
 30
0.0
 10
602.9780788282877
 20
1477.412329741804
 30
0.0
 10
603.0176906437379
 20
1503.62144630373
 30
0.0
 10
603.0167152624368
 20
1527.526897633739
 30
0.0
 10
602.9779158767985
 20
1549.153302062786
 30
0.0
 10
602.9064272545064
 20
1570.83548436643
 30
0.0
 10
602.8049114342356
 20
1592.572703261605
 30
0.0
 10
602.629623114009
 20
1614.42198419013
 30
0.0
 10
602.4241235593953
 20
1629.023836207172
 30
0.0
 10
602.3208005419991
 20
1636.365494016658
 30
0.0
  0
SPLINE
  5
1D6
330
1F
100
AcDbEntity
  8
0
  6
Continuous
 62
     7
370
    15
100
AcDbSpline
210
0.0
220
0.0
230
1.0
 70
     8
 71
     3
 72
    18
 73
    14
 74
     0
 42
0.000000001
 43
0.00000001
 40
0.0
 40
0.0
 40
0.0
 40
0.0
 40
0.1019739471809869
 40
0.2029513037794623
 40
0.303724974643544
 40
0.4041314856238281
 40
0.5042172342909673
 40
0.6445467852682435
 40
0.7846025758580797
 40
0.839283693824603
 40
0.8934716961428821
 40
0.9470139173699234
 40
1.0
 40
1.0
 40
1.0
 40
1.0
 10
200.704776635818
 20
1636.365362240296
 30
0.0
 10
200.5836263051402
 20
1627.570765450889
 30
0.0
 10
200.3425096450121
 20
1610.06752139722
 30
0.0
 10
200.1702493826347
 20
1583.877369313155
 30
0.0
 10
200.0724042573626
 20
1557.827748401525
 30
0.0
 10
200.0101347132245
 20
1531.856137749506
 30
0.0
 10
200.0063282893791
 20
1502.465282916965
 30
0.0
 10
200.0588630400172
 20
1469.649991251731
 30
0.0
 10
200.1807217439879
 20
1440.750241871585
 30
0.0
 10
200.3457614132126
 20
1419.285182921197
 30
0.0
 10
200.4783658392557
 20
1405.291352171746
 30
0.0
 10
200.6356637374593
 20
1391.458071724667
 30
0.0
 10
200.7683405476092
 20
1382.373134866877
 30
0.0
 10
200.8343326283159
 20
1377.854380717918
 30
0.0
  0
SPLINE
  5
1D7
330
1F
100
AcDbEntity
  8
0
  6
Continuous
 62
     7
370
    15
100
AcDbSpline
210
0.0
220
0.0
230
1.0
 70
     8
 71
     3
 72
     9
 73
     5
 74
     0
 42
0.000000001
 43
0.00000001
 40
0.0
 40
0.0
 40
0.0
 40
0.0
 40
0.4720118849418093
 40
1.0
 40
1.0
 40
1.0
 40
1.0
 10
600.9981397490068
 20
1367.607407900356
 30
0.0
 10
601.3123906078837
 20
1369.194549955971
 30
0.0
 10
601.9781595618065
 20
1372.557054389116
 30
0.0
 10
602.117808685061
 20
1376.023892398789
 30
0.0
 10
602.1915417624177
 20
1377.854341664729
 30
0.0
  0
SPLINE
  5
1D8
330
1F
100
AcDbEntity
  8
0
  6
Continuous
 62
     7
370
    15
100
AcDbSpline
210
0.0
220
0.0
230
1.0
 70
     8
 71
     3
 72
     9
 73
     5
 74
     0
 42
0.000000001
 43
0.00000001
 40
0.0
 40
0.0
 40
0.0
 40
0.0
 40
0.5252124187110192
 40
1.0
 40
1.0
 40
1.0
 40
1.0
 10
200.8343326609583
 20
1377.854378606396
 30
0.0
 10
200.9076761180784
 20
1376.032683630503
 30
0.0
 10
201.04732143968
 20
1372.564191814633
 30
0.0
 10
201.7101375410768
 20
1369.199046364148
 30
0.0
 10
202.0248343946983
 20
1367.601317095027
 30
0.0
  0
LINE
  5
1D9
330
1F
100
AcDbEntity
  8
0
  6
Continuous
 62
     7
370
    15
100
AcDbLine
 10
657.5525859437
 20
1369.9315395608
 30
0.0
 11
647.266871658
 21
1331.276603503
 31
0.0
  0
LINE
  5
1DA
330
1F
100
AcDbEntity
  8
0
  6
Continuous
 62
     7
370
    15
100
AcDbLine
 10
658.2022809887
 20
1369.7586618306
 30
0.0
 11
657.5525859437
 21
1369.9315395608
 31
0.0
  0
LINE
  5
1DB
330
1F
100
AcDbEntity
  8
0
  6
Continuous
 62
     7
370
    15
100
AcDbLine
 10
647.916566703
 20
1331.1037257728
 30
0.0
 11
647.266871658
 21
1331.276603503
 31
0.0
  0
LINE
  5
1DC
330
1F
100
AcDbEntity
  8
0
  6
Continuous
 62
     7
370
    15
100
AcDbLine
 10
645.3288218686
 20
1373.1841680112
 30
0.0
 11
635.0431075829
 21
1334.5292319534
 31
0.0
  0
LINE
  5
1DD
330
1F
100
AcDbEntity
  8
0
  6
Continuous
 62
     7
370
    15
100
AcDbLine
 10
647.266871658
 20
1331.276603503
 30
0.0
 11
646.9532300291
 21
1331.3600605853
 31
0.0
  0
LINE
  5
1DE
330
1F
100
AcDbEntity
  8
0
  6
Continuous
 62
     7
370
    15
100
AcDbLine
 10
635.3567492118
 20
1334.445774871
 30
0.0
 11
635.0431075829
 21
1334.5292319534
 31
0.0
  0
LINE
  5
1DF
330
1F
100
AcDbEntity
  8
0
  6
Continuous
 62
     7
370
    15
100
AcDbLine
 10
657.5525859437
 20
1369.9315395608
 30
0.0
 11
657.1271329655
 21
1370.0447485897
 31
0.0
  0
LINE
  5
1E0
330
1F
100
AcDbEntity
  8
0
  6
Continuous
 62
     7
370
    15
100
AcDbLine
 10
645.4336646636
 20
1373.1562703313
 30
0.0
 11
645.3288218686
 21
1373.1841680112
 31
0.0
  0
LINE
  5
1E1
330
1F
100
AcDbEntity
  8
0
  6
Continuous
 62
     7
370
    15
100
AcDbLine
 10
635.0431075829
 20
1334.5292319534
 30
0.0
 11
634.393412538
 21
1334.7021096836
 31
0.0
  0
LINE
  5
1E2
330
1F
100
AcDbEntity
  8
0
  6
Continuous
 62
     7
370
    15
100
AcDbLine
 10
645.3288218686
 20
1373.1841680112
 30
0.0
 11
644.6791268237
 21
1373.3570457414
 31
0.0
  0
LINE
  5
1E3
330
1F
100
AcDbEntity
  8
0
  6
Continuous
 62
     7
370
    15
100
AcDbLine
 10
658.2053177163
 20
1369.757853786
 30
0.0
 11
647.9196034306
 21
1331.1029177282
 31
0.0
  0
LINE
  5
1E4
330
1F
100
AcDbEntity
  8
0
  6
Continuous
 62
     7
370
    15
100
AcDbLine
 10
647.9196034306
 20
1331.1029177282
 30
0.0
 11
647.916566703
 21
1331.1037257728
 31
0.0
  0
LINE
  5
1E5
330
1F
100
AcDbEntity
  8
0
  6
Continuous
 62
     7
370
    15
100
AcDbLine
 10
658.2053177163
 20
1369.757853786
 30
0.0
 11
658.2022809887
 21
1369.7586618306
 31
0.0
  0
LINE
  5
1E6
330
1F
100
AcDbEntity
  8
0
  6
Continuous
 62
     7
370
    15
100
AcDbLine
 10
644.6760900961
 20
1373.357853786
 30
0.0
 11
634.3903758104
 21
1334.7029177282
 31
0.0
  0
LINE
  5
1E7
330
1F
100
AcDbEntity
  8
0
  6
Continuous
 62
     7
370
    15
100
AcDbLine
 10
634.393412538
 20
1334.7021096836
 30
0.0
 11
634.3903758104
 21
1334.7029177282
 31
0.0
  0
LINE
  5
1E8
330
1F
100
AcDbEntity
  8
0
  6
Continuous
 62
     7
370
    15
100
AcDbLine
 10
644.6791268237
 20
1373.3570457414
 30
0.0
 11
644.6760900961
 21
1373.357853786
 31
0.0
  0
LINE
  5
1E9
330
1F
100
AcDbEntity
  8
0
  6
Continuous
 62
     7
370
    15
100
AcDbLine
 10
653.6690643302
 20
1735.3727331435
 30
0.0
 11
654.3403852925
 21
1735.3804318922
 31
0.0
  0
LINE
  5
1EA
330
1F
100
AcDbEntity
  8
0
  6
Continuous
 62
     7
370
    15
100
AcDbLine
 10
653.6690643302
 20
1735.3727331435
 30
0.0
 11
653.210372111
 21
1775.3701030751
 31
0.0
  0
LINE
  5
1EB
330
1F
100
AcDbEntity
  8
0
  6
Continuous
 62
     7
370
    15
100
AcDbLine
 10
653.210372111
 20
1775.3701030751
 30
0.0
 11
653.8816930733
 21
1775.3778018239
 31
0.0
  0
LINE
  5
1EC
330
1F
100
AcDbEntity
  8
0
  6
Continuous
 62
     7
370
    15
100
AcDbLine
 10
641.0207853902
 20
1735.2276819277
 30
0.0
 11
640.7162248464
 21
1761.784968549
 31
0.0
  0
LINE
  5
1ED
330
1F
100
AcDbEntity
  8
0
  6
Continuous
 62
     7
370
    15
100
AcDbLine
 10
640.3494644279
 20
1735.2199831789
 30
0.0
 11
641.0207853902
 21
1735.2276819277
 31
0.0
  0
LINE
  5
1EE
330
1F
100
AcDbEntity
  8
0
  6
Continuous
 62
     7
370
    15
100
AcDbLine
 10
641.0207853902
 20
1735.2276819277
 30
0.0
 11
641.3453193704
 21
1735.2314037027
 31
0.0
  0
LINE
  5
1EF
330
1F
100
AcDbEntity
  8
0
  6
Continuous
 62
     7
370
    15
100
AcDbLine
 10
653.3445303499
 20
1735.3690113685
 30
0.0
 11
653.6690643302
 21
1735.3727331435
 31
0.0
  0
LINE
  5
1F0
330
1F
100
AcDbEntity
  8
0
  6
Continuous
 62
     7
370
    15
100
AcDbLine
 10
652.8858381307
 20
1775.3663813001
 30
0.0
 11
653.210372111
 21
1775.3701030751
 31
0.0
  0
LINE
  5
1F1
330
1F
100
AcDbEntity
  8
0
  6
Continuous
 62
     7
370
    15
100
AcDbLine
 10
654.3444645982
 20
1735.3804786739
 30
0.0
 11
653.885772379
 21
1775.3778486056
 31
0.0
  0
LINE
  5
1F2
330
1F
100
AcDbEntity
  8
0
  6
Continuous
 62
     7
370
    15
100
AcDbLine
 10
654.3403852925
 20
1735.3804318922
 30
0.0
 11
654.3444645982
 21
1735.3804786739
 31
0.0
  0
LINE
  5
1F3
330
1F
100
AcDbEntity
  8
0
  6
Continuous
 62
     7
370
    15
100
AcDbLine
 10
653.8816930733
 20
1775.3778018239
 30
0.0
 11
653.885772379
 21
1775.3778486056
 31
0.0
  0
LINE
  5
1F4
330
1F
100
AcDbEntity
  8
0
  6
Continuous
 62
     7
370
    15
100
AcDbLine
 10
640.3453851221
 20
1735.2199363972
 30
0.0
 11
640.0692094512
 21
1759.3020987148
 31
0.0
  0
LINE
  5
1F5
330
1F
100
AcDbEntity
  8
0
  6
Continuous
 62
     7
370
    15
100
AcDbLine
 10
640.3453851221
 20
1735.2199363972
 30
0.0
 11
640.3494644279
 21
1735.2199831789
 31
0.0
  0
LINE
  5
1F6
330
1F
100
AcDbEntity
  8
0
  6
Continuous
 62
     7
370
    15
100
AcDbLine
 10
145.4738511841
 20
1369.9315395608
 30
0.0
 11
155.7595654698
 21
1331.276603503
 31
0.0
  0
LINE
  5
1F7
330
1F
100
AcDbEntity
  8
0
  6
Continuous
 62
     7
370
    15
100
AcDbLine
 10
145.4738511841
 20
1369.9315395608
 30
0.0
 11
145.8993041623
 21
1370.0447485897
 31
0.0
  0
LINE
  5
1F8
330
1F
100
AcDbEntity
  8
0
  6
Continuous
 62
     7
370
    15
100
AcDbLine
 10
157.5927724642
 20
1373.1562703313
 30
0.0
 11
157.6976152592
 21
1373.1841680112
 31
0.0
  0
LINE
  5
1F9
330
1F
100
AcDbEntity
  8
0
  6
Continuous
 62
     7
370
    15
100
AcDbLine
 10
157.6976152592
 20
1373.1841680112
 30
0.0
 11
167.9833295449
 21
1334.5292319534
 31
0.0
  0
LINE
  5
1FA
330
1F
100
AcDbEntity
  8
0
  6
Continuous
 62
     7
370
    15
100
AcDbLine
 10
155.7595654698
 20
1331.276603503
 30
0.0
 11
156.0732070987
 21
1331.3600605853
 31
0.0
  0
LINE
  5
1FB
330
1F
100
AcDbEntity
  8
0
  6
Continuous
 62
     7
370
    15
100
AcDbLine
 10
167.669687916
 20
1334.445774871
 30
0.0
 11
167.9833295449
 21
1334.5292319534
 31
0.0
  0
LINE
  5
1FC
330
1F
100
AcDbEntity
  8
0
  6
Continuous
 62
     7
370
    15
100
AcDbLine
 10
155.1098704248
 20
1331.1037257728
 30
0.0
 11
155.7595654698
 21
1331.276603503
 31
0.0
  0
LINE
  5
1FD
330
1F
100
AcDbEntity
  8
0
  6
Continuous
 62
     7
370
    15
100
AcDbLine
 10
144.8241561391
 20
1369.7586618306
 30
0.0
 11
145.4738511841
 21
1369.9315395608
 31
0.0
  0
LINE
  5
1FE
330
1F
100
AcDbEntity
  8
0
  6
Continuous
 62
     7
370
    15
100
AcDbLine
 10
167.9833295449
 20
1334.5292319534
 30
0.0
 11
168.6330245898
 21
1334.7021096836
 31
0.0
  0
LINE
  5
1FF
330
1F
100
AcDbEntity
  8
0
  6
Continuous
 62
     7
370
    15
100
AcDbLine
 10
157.6976152592
 20
1373.1841680112
 30
0.0
 11
158.3473103041
 21
1373.3570457414
 31
0.0
  0
LINE
  5
200
330
1F
100
AcDbEntity
  8
0
  6
Continuous
 62
     7
370
    15
100
AcDbLine
 10
144.8211194115
 20
1369.757853786
 30
0.0
 11
155.1068336972
 21
1331.1029177282
 31
0.0
  0
LINE
  5
201
330
1F
100
AcDbEntity
  8
0
  6
Continuous
 62
     7
370
    15
100
AcDbLine
 10
155.1068336972
 20
1331.1029177282
 30
0.0
 11
155.1098704248
 21
1331.1037257728
 31
0.0
  0
LINE
  5
202
330
1F
100
AcDbEntity
  8
0
  6
Continuous
 62
     7
370
    15
100
AcDbLine
 10
144.8211194115
 20
1369.757853786
 30
0.0
 11
144.8241561391
 21
1369.7586618306
 31
0.0
  0
LINE
  5
203
330
1F
100
AcDbEntity
  8
0
  6
Continuous
 62
     7
370
    15
100
AcDbLine
 10
158.3503470317
 20
1373.357853786
 30
0.0
 11
168.6360613174
 21
1334.7029177282
 31
0.0
  0
LINE
  5
204
330
1F
100
AcDbEntity
  8
0
  6
Continuous
 62
     7
370
    15
100
AcDbLine
 10
168.6330245898
 20
1334.7021096836
 30
0.0
 11
168.6360613174
 21
1334.7029177282
 31
0.0
  0
LINE
  5
205
330
1F
100
AcDbEntity
  8
0
  6
Continuous
 62
     7
370
    15
100
AcDbLine
 10
158.3473103041
 20
1373.3570457414
 30
0.0
 11
158.3503470317
 21
1373.357853786
 31
0.0
  0
LINE
  5
206
330
1F
100
AcDbEntity
  8
0
  6
Continuous
 62
     7
370
    15
100
AcDbLine
 10
149.3573727976
 20
1735.3727331435
 30
0.0
 11
149.8160650168
 21
1775.3701030751
 31
0.0
  0
LINE
  5
207
330
1F
100
AcDbEntity
  8
0
  6
Continuous
 62
     7
370
    15
100
AcDbLine
 10
149.3573727976
 20
1735.3727331435
 30
0.0
 11
148.6860518354
 21
1735.3804318922
 31
0.0
  0
LINE
  5
208
330
1F
100
AcDbEntity
  8
0
  6
Continuous
 62
     7
370
    15
100
AcDbLine
 10
149.8160650168
 20
1775.3701030751
 30
0.0
 11
149.1447440546
 21
1775.3778018239
 31
0.0
  0
LINE
  5
209
330
1F
100
AcDbEntity
  8
0
  6
Continuous
 62
     7
370
    15
100
AcDbLine
 10
162.0056517377
 20
1735.2276819277
 30
0.0
 11
162.3102122814
 21
1761.784968549
 31
0.0
  0
LINE
  5
20A
330
1F
100
AcDbEntity
  8
0
  6
Continuous
 62
     7
370
    15
100
AcDbLine
 10
162.6769726999
 20
1735.2199831789
 30
0.0
 11
162.0056517377
 21
1735.2276819277
 31
0.0
  0
LINE
  5
20B
330
1F
100
AcDbEntity
  8
0
  6
Continuous
 62
     7
370
    15
100
AcDbLine
 10
150.1405989971
 20
1775.3663813001
 30
0.0
 11
149.8160650168
 21
1775.3701030751
 31
0.0
  0
LINE
  5
20C
330
1F
100
AcDbEntity
  8
0
  6
Continuous
 62
     7
370
    15
100
AcDbLine
 10
162.0056517377
 20
1735.2276819277
 30
0.0
 11
161.6811177574
 21
1735.2314037027
 31
0.0
  0
LINE
  5
20D
330
1F
100
AcDbEntity
  8
0
  6
Continuous
 62
     7
370
    15
100
AcDbLine
 10
149.6819067779
 20
1735.3690113685
 30
0.0
 11
149.3573727976
 21
1735.3727331435
 31
0.0
  0
LINE
  5
20E
330
1F
100
AcDbEntity
  8
0
  6
Continuous
 62
     7
370
    15
100
AcDbLine
 10
148.6819725296
 20
1735.3804786739
 30
0.0
 11
149.1406647488
 21
1775.3778486056
 31
0.0
  0
LINE
  5
20F
330
1F
100
AcDbEntity
  8
0
  6
Continuous
 62
     7
370
    15
100
AcDbLine
 10
149.1447440546
 20
1775.3778018239
 30
0.0
 11
149.1406647488
 21
1775.3778486056
 31
0.0
  0
LINE
  5
210
330
1F
100
AcDbEntity
  8
0
  6
Continuous
 62
     7
370
    15
100
AcDbLine
 10
148.6860518354
 20
1735.3804318922
 30
0.0
 11
148.6819725296
 21
1735.3804786739
 31
0.0
  0
LINE
  5
211
330
1F
100
AcDbEntity
  8
0
  6
Continuous
 62
     7
370
    15
100
AcDbLine
 10
162.6810520057
 20
1735.2199363972
 30
0.0
 11
162.9572276766
 21
1759.3020987148
 31
0.0
  0
LINE
  5
212
330
1F
100
AcDbEntity
  8
0
  6
Continuous
 62
     7
370
    15
100
AcDbLine
 10
162.6810520057
 20
1735.2199363972
 30
0.0
 11
162.6769726999
 21
1735.2199831789
 31
0.0
  0
ELLIPSE
  5
213
330
1F
100
AcDbEntity
  8
0
  6
Continuous
 62
     7
370
    15
100
AcDbEllipse
 10
608.54447205
 20
1363.2049976349
 30
0.0
 11
5.755009967658224
 21
-3.814157711745565
 31
0.0
210
0.0
220
0.0
230
1.0
 40
0.8048034846
 41
4.023483118192733
 42
5.202388076278076
  0
ELLIPSE
  5
214
330
1F
100
AcDbEntity
  8
0
  6
Continuous
 62
     7
370
    15
100
AcDbEllipse
 10
608.54447205
 20
1363.2049976349
 30
0.0
 11
3.508621168840023
 21
5.293999704634417
 31
0.0
210
0.0
220
0.0
230
1.0
 40
0.8048034846
 41
3.631591749471589
 42
3.830498515785437
  0
ELLIPSE
  5
215
330
1F
100
AcDbEntity
  8
0
  6
Continuous
 62
     7
370
    15
100
AcDbEllipse
 10
194.4819650778
 20
1363.2049976349
 30
0.0
 11
5.755009967658196
 21
3.814157711745566
 31
0.0
210
0.0
220
0.0
230
1.0
 40
0.8048034846
 41
4.22238988449131
 42
5.401294842576691
  0
ELLIPSE
  5
216
330
1F
100
AcDbEntity
  8
0
  6
Continuous
 62
     7
370
    15
100
AcDbEllipse
 10
194.4819650778
 20
1363.2049976349
 30
0.0
 11
-3.508621168839909
 21
5.293999704634416
 31
0.0
210
0.0
220
0.0
230
1.0
 40
0.8048034846
 41
2.452686791394196
 42
2.651593557697538
  0
LINE
  5
217
330
1F
100
AcDbEntity
  8
0
  6
Continuous
 62
     7
370
    15
100
AcDbLine
 10
1411.6896136884
 20
1330.6185919691
 30
0.0
 11
1420.8674986944
 21
1326.5613342497
 31
0.0
  0
LINE
  5
218
330
1F
100
AcDbEntity
  8
0
  6
Continuous
 62
     7
370
    15
100
AcDbLine
 10
1760.9606402664
 20
1656.1173315472
 30
0.0
 11
1769.8801727759
 21
1657.8945198287
 31
0.0
  0
LINE
  5
219
330
1F
100
AcDbEntity
  8
0
  6
Continuous
 62
     7
370
    15
100
AcDbLine
 10
1719.9505403584
 20
1468.9076237174
 30
0.0
 11
1718.4590761537
 21
1473.9866893824
 31
0.0
  0
LINE
  5
21A
330
1F
100
AcDbEntity
  8
0
  6
Continuous
 62
     7
370
    15
100
AcDbLine
 10
1484.2728363682
 20
1919.0704678966
 30
0.0
 11
1480.0027137903
 21
1914.9961676825
 31
0.0
  0
LINE
  5
21B
330
1F
100
AcDbEntity
  8
0
  6
Continuous
 62
     7
370
    15
100
AcDbLine
 10
1524.4251966595
 20
941.0175024623
 30
0.0
 11
1559.0314623931
 21
952.5979338528
 31
0.0
  0
LINE
  5
21C
330
1F
100
AcDbEntity
  8
0
  6
Continuous
 62
     7
370
    15
100
AcDbLine
 10
1814.8132440325
 20
1103.4139405834
 30
0.0
 11
1842.7713111621
 21
1119.9282692396
 31
0.0
  0
LINE
  5
21D
330
1F
100
AcDbEntity
  8
0
  6
Continuous
 62
     7
370
    15
100
AcDbLine
 10
1188.0907976591
 20
1138.1623432719
 30
0.0
 11
1208.1508667511
 21
1158.140115241
 31
0.0
  0
LINE
  5
21E
330
1F
100
AcDbEntity
  8
0
  6
Continuous
 62
     7
370
    15
100
AcDbLine
 10
1467.0402068383
 20
1304.0468366375
 30
0.0
 11
1491.8683099142
 21
1318.0547803009
 31
0.0
  0
LINE
  5
21F
330
1F
100
AcDbEntity
  8
0
  6
Continuous
 62
     7
370
    15
100
AcDbLine
 10
1503.2703184537
 20
966.8544275446
 30
0.0
 11
1533.6390030592
 21
1311.6396805375
 31
0.0
  0
LINE
  5
220
330
1F
100
AcDbEntity
  8
0
  6
Continuous
 62
     7
370
    15
100
AcDbLine
 10
1513.1603393455
 20
1215.9061966268
 30
0.0
 11
1491.3165978643
 21
967.9073112375
 31
0.0
  0
LINE
  5
221
330
1F
100
AcDbEntity
  8
0
  6
Continuous
 62
     7
370
    15
100
AcDbLine
 10
1521.6852824698
 20
1312.6925642304
 30
0.0
 11
1513.8788694812
 21
1224.0638958432
 31
0.0
  0
SPLINE
  5
222
330
1F
100
AcDbEntity
  8
0
  6
Continuous
 62
     7
370
    15
100
AcDbSpline
210
0.0
220
0.0
230
1.0
 70
     8
 71
     3
 72
    17
 73
    13
 74
     0
 42
0.000000001
 43
0.00000001
 40
0.0
 40
0.0
 40
0.0
 40
0.0
 40
0.0400413863729163
 40
0.148249459107472
 40
0.2569599051154745
 40
0.3662195779397905
 40
0.475901559424679
 40
0.58579037838313
 40
0.6956206509180028
 40
0.8050536461483434
 40
0.9138612017787522
 40
1.0
 40
1.0
 40
1.0
 40
1.0
 10
1515.720095357479
 20
1329.207552812797
 30
0.0
 10
1515.871821753019
 20
1329.064613516659
 30
0.0
 10
1516.433574432149
 20
1328.535394244874
 30
0.0
 10
1517.364731971503
 20
1327.379585175274
 30
0.0
 10
1518.464236301947
 20
1325.775338604704
 30
0.0
 10
1519.443668731523
 20
1323.988261463326
 30
0.0
 10
1520.27708637759
 20
1322.078045646794
 30
0.0
 10
1520.940317084449
 20
1320.085250020894
 30
0.0
 10
1521.417825692318
 20
1318.060405593221
 30
0.0
 10
1521.69652229832
 20
1316.058614049587
 30
0.0
 10
1521.783921315048
 20
1314.249631895216
 30
0.0
 10
1521.71551043284
 20
1313.16972901982
 30
0.0
 10
1521.685282469802
 20
1312.692564230407
 30
0.0
  0
SPLINE
  5
223
330
1F
100
AcDbEntity
  8
0
  6
Continuous
 62
     7
370
    15
100
AcDbSpline
210
0.0
220
0.0
230
1.0
 70
     8
 71
     3
 72
    17
 73
    13
 74
     0
 42
0.000000001
 43
0.00000001
 40
0.0
 40
0.0
 40
0.0
 40
0.0
 40
0.060584800135721
 40
0.1689024756343361
 40
0.2771239170631016
 40
0.3853123231343774
 40
0.4934814945539448
 40
0.6017019358617719
 40
0.7100667589837368
 40
0.8186557078694231
 40
0.9275690632548445
 40
1.0
 40
1.0
 40
1.0
 40
1.0
 10
1533.639003059189
 20
1311.63968053747
 30
0.0
 10
1533.675664064828
 20
1312.149020990031
 30
0.0
 10
1533.77787013958
 20
1313.568995359602
 30
0.0
 10
1533.743946061776
 20
1315.951915664833
 30
0.0
 10
1533.468395167713
 20
1318.771002345943
 30
0.0
 10
1532.946075819107
 20
1321.589415922124
 30
0.0
 10
1532.189160414926
 20
1324.374221234901
 30
0.0
 10
1531.204912302516
 20
1327.09355983096
 30
0.0
 10
1530.006130084773
 20
1329.719253289345
 30
0.0
 10
1528.59599743464
 20
1332.211001443419
 30
0.0
 10
1527.195403728326
 20
1334.31087086785
 30
0.0
 10
1526.198146364723
 20
1335.483428334458
 30
0.0
 10
1525.799830629647
 20
1335.951760889599
 30
0.0
  0
LINE
  5
224
330
1F
100
AcDbEntity
  8
0
  6
Continuous
 62
     7
370
    15
100
AcDbLine
 10
1226.9311267877
 20
1381.0679050164
 30
0.0
 11
1513.1540614684
 21
1215.8349219081
 31
0.0
  0
LINE
  5
225
330
1F
100
AcDbEntity
  8
0
  6
Continuous
 62
     7
370
    15
100
AcDbLine
 10
1514.3154471137
 20
1229.0204993792
 30
0.0
 11
1233.5214522046
 21
1391.1194222677
 31
0.0
  0
LINE
  5
226
330
1F
100
AcDbEntity
  8
0
  6
Continuous
 62
     7
370
    15
100
AcDbLine
 10
1695.2940743558
 20
1434.6294003152
 30
0.0
 11
1725.9275351347
 21
1434.6294003152
 31
0.0
  0
LINE
  5
227
330
1F
100
AcDbEntity
  8
0
  6
Continuous
 62
     7
370
    15
100
AcDbLine
 10
1725.9275351347
 20
1446.6294003152
 30
0.0
 11
1713.6695960017
 21
1446.6294003152
 31
0.0
  0
SPLINE
  5
228
330
1F
100
AcDbEntity
  8
0
  6
Continuous
 62
     7
370
    15
100
AcDbSpline
210
0.0
220
0.0
230
1.0
 70
     8
 71
     3
 72
    19
 73
    15
 74
     0
 42
0.000000001
 43
0.00000001
 40
0.0
 40
0.0
 40
0.0
 40
0.0
 40
0.0537707430633402
 40
0.1374676289345861
 40
0.2219685451933465
 40
0.3077919619807667
 40
0.3948741909464776
 40
0.4829973738354859
 40
0.5718616800928608
 40
0.661172963217612
 40
0.7506972251253337
 40
0.84027704134145
 40
0.929879145438719
 40
0.9999999999999999
 40
0.9999999999999999
 40
0.9999999999999999
 40
0.9999999999999999
 10
1750.707402192943
 20
1432.64832928854
 30
0.0
 10
1750.509046579925
 20
1433.102591480091
 30
0.0
 10
1750.001940405562
 20
1434.26393578797
 30
0.0
 10
1748.933336383102
 20
1436.038304825673
 30
0.0
 10
1747.466218341194
 20
1437.93187719263
 30
0.0
 10
1745.732019578782
 20
1439.686491278558
 30
0.0
 10
1743.750577052263
 20
1441.28574694196
 30
0.0
 10
1741.542254127774
 20
1442.707821703161
 30
0.0
 10
1739.13521100013
 20
1443.933306897177
 30
0.0
 10
1736.561485885604
 20
1444.945278213178
 30
0.0
 10
1733.855811959073
 20
1445.732511058074
 30
0.0
 10
1731.053453025864
 20
1446.28105575626
 30
0.0
 10
1728.396691205115
 20
1446.581556002614
 30
0.0
 10
1726.680826386198
 20
1446.614803950684
 30
0.0
 10
1725.927535134742
 20
1446.629400315231
 30
0.0
  0
SPLINE
  5
229
330
1F
100
AcDbEntity
  8
0
  6
Continuous
 62
     7
370
    15
100
AcDbSpline
210
0.0
220
0.0
230
1.0
 70
     8
 71
     3
 72
    18
 73
    14
 74
     0
 42
0.000000001
 43
0.00000001
 40
0.0
 40
0.0
 40
0.0
 40
0.0
 40
0.0380870935149553
 40
0.1440985725753864
 40
0.2498703500768932
 40
0.3551435322980056
 40
0.4598139089120817
 40
0.5639155914872005
 40
0.6677210280950148
 40
0.7717086192352035
 40
0.8768952378735545
 40
0.9860859884619946
 40
1.0
 40
1.0
 40
1.0
 40
1.0
 10
1726.218281329019
 20
1434.622610848229
 30
0.0
 10
1726.467782129555
 20
1434.618630748785
 30
0.0
 10
1727.41174256065
 20
1434.603572454868
 30
0.0
 10
1729.03640397399
 20
1434.440271431979
 30
0.0
 10
1731.026625929248
 20
1434.061592687103
 30
0.0
 10
1732.891714009949
 20
1433.506337512365
 30
0.0
 10
1734.587137366439
 20
1432.803103730366
 30
0.0
 10
1736.075945201819
 20
1431.97999271119
 30
0.0
 10
1737.329664529637
 20
1431.072837498455
 30
0.0
 10
1738.331838398275
 20
1430.120400626768
 30
0.0
 10
1739.080985872602
 20
1429.158281815801
 30
0.0
 10
1739.435269229946
 20
1428.50393418174
 30
0.0
 10
1739.574572747561
 20
1428.168456427945
 30
0.0
 10
1739.590317636043
 20
1428.130538793758
 30
0.0
  0
LINE
  5
22A
330
1F
100
AcDbEntity
  8
0
  6
Continuous
 62
     7
370
    15
100
AcDbLine
 10
1725.9275351347
 20
1434.6294003152
 30
0.0
 11
1726.218281329
 21
1434.6226108482
 31
0.0
  0
LINE
  5
22B
330
1F
100
AcDbEntity
  8
0
  6
Continuous
 62
     7
370
    15
100
AcDbLine
 10
1739.590317636
 20
1428.1305387938
 30
0.0
 11
1847.5423920987
 21
1162.4891060447
 31
0.0
  0
LINE
  5
22C
330
1F
100
AcDbEntity
  8
0
  6
Continuous
 62
     7
370
    15
100
AcDbLine
 10
1858.6594766556
 20
1167.0068965394
 30
0.0
 11
1750.7074021929
 21
1432.6483292885
 31
0.0
  0
SPLINE
  5
22D
330
1F
100
AcDbEntity
  8
0
  6
Continuous
 62
     7
370
    15
100
AcDbSpline
210
0.0
220
0.0
230
1.0
 70
     8
 71
     3
 72
    24
 73
    20
 74
     0
 42
0.000000001
 43
0.00000001
 40
0.0
 40
0.0
 40
0.0
 40
0.0
 40
0.0369256263572975
 40
0.1010174103454467
 40
0.1649420640136368
 40
0.2283800276222542
 40
0.2911920405606107
 40
0.3533004052997638
 40
0.414712124043914
 40
0.475522996278479
 40
0.5359030028065358
 40
0.5960683636184364
 40
0.6561827110183536
 40
0.7164797896879553
 40
0.7771594824965977
 40
0.8383636691000572
 40
0.9001612048161092
 40
0.9625461014467587
 40
1.0
 40
1.0
 40
1.0
 40
1.0
 10
1491.316597864311
 20
967.907311237512
 30
0.0
 10
1491.28018329876
 20
967.3836222409451
 30
0.0
 10
1491.180563997105
 20
965.9509666172409
 30
0.0
 10
1491.259229896104
 20
963.6348580201611
 30
0.0
 10
1491.636606843661
 20
961.0110719588623
 30
0.0
 10
1492.315665615017
 20
958.5018837681722
 30
0.0
 10
1493.279759006044
 20
956.1454485921502
 30
0.0
 10
1494.513383602839
 20
953.9743885754473
 30
0.0
 10
1495.994714637982
 20
952.016452470304
 30
0.0
 10
1497.699552859786
 20
950.294075532959
 30
0.0
 10
1499.602359498658
 20
948.824717444018
 30
0.0
 10
1501.676781591304
 20
947.6221896948874
 30
0.0
 10
1503.896829543671
 20
946.6967220408031
 30
0.0
 10
1506.237148182297
 20
946.0557198230152
 30
0.0
 10
1508.673460701273
 20
945.7050252572578
 30
0.0
 10
1511.181157752169
 20
945.6474241233698
 30
0.0
 10
1513.732599324553
 20
945.8901118081328
 30
0.0
 10
1515.953446715424
 20
946.3423783373166
 30
0.0
 10
1517.304932876332
 20
946.766611366216
 30
0.0
 10
1517.811934442943
 20
946.9257597293151
 30
0.0
  0
SPLINE
  5
22E
330
1F
100
AcDbEntity
  8
0
  6
Continuous
 62
     7
370
    15
100
AcDbSpline
210
0.0
220
0.0
230
1.0
 70
     8
 71
     3
 72
    20
 73
    16
 74
     0
 42
0.000000001
 43
0.00000001
 40
0.0
 40
0.0
 40
0.0
 40
0.0
 40
0.0383363477786971
 40
0.1181020716303129
 40
0.1984429457481436
 40
0.2805029771362971
 40
0.365688636644087
 40
0.4559075803685358
 40
0.5527386400339701
 40
0.6427072800574665
 40
0.7266946661846875
 40
0.8066693036112524
 40
0.8916547854347143
 40
0.9739896522402324
 40
1.0
 40
1.0
 40
1.0
 40
1.0
 10
1514.003883225376
 20
958.3055113050035
 30
0.0
 10
1513.741481922068
 20
958.2231697674777
 30
0.0
 10
1512.933107120743
 20
957.9695017284884
 30
0.0
 10
1511.619099734882
 20
957.72255627108
 30
0.0
 10
1510.126605704839
 20
957.6496501311457
 30
0.0
 10
1508.752351217134
 20
957.8023521273061
 30
0.0
 10
1507.502020477689
 20
958.1658414793762
 30
0.0
 10
1506.369645525976
 20
958.7456217105587
 30
0.0
 10
1505.391694402142
 20
959.5367234784087
 30
0.0
 10
1504.581771749375
 20
960.5294015910483
 30
0.0
 10
1503.957960667915
 20
961.679551749569
 30
0.0
 10
1503.499354255043
 20
963.0194045220389
 30
0.0
 10
1503.234696897592
 20
964.5528377001777
 30
0.0
 10
1503.1974102877
 20
965.8829166146469
 30
0.0
 10
1503.256203915236
 20
966.6663494575757
 30
0.0
 10
1503.270318453699
 20
966.8544275445753
 30
0.0
  0
LINE
  5
22F
330
1F
100
AcDbEntity
  8
0
  6
Continuous
 62
     7
370
    15
100
AcDbLine
 10
1551.6813459654
 20
970.9136694803
 30
0.0
 11
1514.0038832254
 21
958.305511305
 31
0.0
  0
LINE
  5
230
330
1F
100
AcDbEntity
  8
0
  6
Continuous
 62
     7
370
    15
100
AcDbLine
 10
1517.8119344429
 20
946.9257597293
 30
0.0
 11
1523.973701364
 21
948.9876961319
 31
0.0
  0
LINE
  5
231
330
1F
100
AcDbEntity
  8
0
  6
Continuous
 62
     7
370
    15
100
AcDbLine
 10
1233.5399753788
 20
1391.1087290668
 30
0.0
 11
1243.1033266713
 21
1431.846290899
 31
0.0
  0
LINE
  5
232
330
1F
100
AcDbEntity
  8
0
  6
Continuous
 62
     7
370
    15
100
AcDbLine
 10
1177.8312989914
 20
1153.8032511536
 30
0.0
 11
1230.6754105058
 21
1378.9063760353
 31
0.0
  0
LINE
  5
233
330
1F
100
AcDbEntity
  8
0
  6
Continuous
 62
     7
370
    15
100
AcDbLine
 10
1232.8741020373
 20
1440.779007074
 30
0.0
 11
1166.1488906255
 21
1156.5457563533
 31
0.0
  0
SPLINE
  5
234
330
1F
100
AcDbEntity
  8
0
  6
Continuous
 62
     7
370
    15
100
AcDbSpline
210
0.0
220
0.0
230
1.0
 70
     8
 71
     3
 72
     9
 73
     5
 74
     0
 42
0.000000001
 43
0.00000001
 40
0.0
 40
0.0
 40
0.0
 40
0.0
 40
0.196491238039097
 40
1.0
 40
1.0
 40
1.0
 40
1.0
 10
1558.905735906576
 20
960.9297837939431
 30
0.0
 10
1559.045054589692
 20
960.9899533044403
 30
0.0
 10
1559.754087137435
 20
961.2961731191133
 30
0.0
 10
1560.395134393813
 20
961.6734984103639
 30
0.0
 10
1560.910221481143
 20
961.9766825879933
 30
0.0
  0
SPLINE
  5
235
330
1F
100
AcDbEntity
  8
0
  6
Continuous
 62
     7
370
    15
100
AcDbSpline
210
0.0
220
0.0
230
1.0
 70
     8
 71
     3
 72
    10
 73
     6
 74
     0
 42
0.000000001
 43
0.00000001
 40
0.0
 40
0.0
 40
0.0
 40
0.0
 40
0.2416239026427308
 40
0.7030888575435834
 40
1.0
 40
1.0
 40
1.0
 40
1.0
 10
1554.807208462236
 20
972.3088281585442
 30
0.0
 10
1554.591651015935
 20
972.186629178567
 30
0.0
 10
1553.964411587231
 20
971.831048707076
 30
0.0
 10
1552.920186651075
 20
971.351926061111
 30
0.0
 10
1552.029900926986
 20
971.0369754933058
 30
0.0
 10
1551.68134596544
 20
970.9136694803261
 30
0.0
  0
LINE
  5
236
330
1F
100
AcDbEntity
  8
0
  6
Continuous
 62
     7
370
    15
100
AcDbLine
 10
1838.4149652426
 20
1139.8308418656
 30
0.0
 11
1554.8072084622
 21
972.3088281585
 31
0.0
  0
LINE
  5
237
330
1F
100
AcDbEntity
  8
0
  6
Continuous
 62
     7
370
    15
100
AcDbLine
 10
1560.9102214811
 20
961.976682588
 30
0.0
 11
1814.3221542348
 21
1111.6625647875
 31
0.0
  0
LINE
  5
238
330
1F
100
AcDbEntity
  8
0
  6
Continuous
 62
     7
370
    15
100
AcDbLine
 10
1842.5326448347
 20
1128.3259954588
 30
0.0
 11
1844.5179782615
 21
1129.4986962951
 31
0.0
  0
SPLINE
  5
239
330
1F
100
AcDbEntity
  8
0
  6
Continuous
 62
     7
370
    15
100
AcDbSpline
210
0.0
220
0.0
230
1.0
 70
     8
 71
     3
 72
    24
 73
    20
 74
     0
 42
0.000000001
 43
0.00000001
 40
0.0
 40
0.0
 40
0.0
 40
0.0
 40
0.0357924787526951
 40
0.0990280940108657
 40
0.162418751134753
 40
0.2258678435651688
 40
0.289211194485836
 40
0.3524194048449186
 40
0.4155318566588185
 40
0.478625656427992
 40
0.5417944398011196
 40
0.6051098927582594
 40
0.668674691739176
 40
0.7325786650621222
 40
0.796876589191089
 40
0.861549100684943
 40
0.9263993296516702
 40
0.985511079906694
 40
1.0
 40
1.0
 40
1.0
 40
1.0
 10
1844.517978261484
 20
1129.498696295067
 30
0.0
 10
1844.928094310371
 20
1129.75128328231
 30
0.0
 10
1846.062774334214
 20
1130.450123060672
 30
0.0
 10
1847.851400075651
 20
1131.80742120278
 30
0.0
 10
1849.84099731383
 20
1133.620398373774
 30
0.0
 10
1851.706761854136
 20
1135.655383748103
 30
0.0
 10
1853.430349015625
 20
1137.879434367619
 30
0.0
 10
1854.993288943138
 20
1140.264381593241
 30
0.0
 10
1856.380183979293
 20
1142.781291262307
 30
0.0
 10
1857.576973222382
 20
1145.402178976196
 30
0.0
 10
1858.570422094018
 20
1148.098825296442
 30
0.0
 10
1859.348096779921
 20
1150.843264471281
 30
0.0
 10
1859.898110987125
 20
1153.607752922564
 30
0.0
 10
1860.20889927859
 20
1156.36500357126
 30
0.0
 10
1860.268524021313
 20
1159.086742520389
 30
0.0
 10
1860.066082889874
 20
1161.742346199826
 30
0.0
 10
1859.602590375014
 20
1164.221443289522
 30
0.0
 10
1859.076392865231
 20
1165.952783661865
 30
0.0
 10
1858.728050769959
 20
1166.833516720377
 30
0.0
 10
1858.659476655625
 20
1167.006896539445
 30
0.0
  0
SPLINE
  5
23A
330
1F
100
AcDbEntity
  8
0
  6
Continuous
 62
     7
370
    15
100
AcDbSpline
210
0.0
220
0.0
230
1.0
 70
     8
 71
     3
 72
    23
 73
    19
 74
     0
 42
0.000000001
 43
0.00000001
 40
0.0
 40
0.0
 40
0.0
 40
0.0
 40
0.0341904318060867
 40
0.1015584487141261
 40
0.1687382485583189
 40
0.2361050222691823
 40
0.3040532550218358
 40
0.3726932356654858
 40
0.4419533080330062
 40
0.5116734958374812
 40
0.5816528905127557
 40
0.6516738497279276
 40
0.7214487305137909
 40
0.7907585161507895
 40
0.8594181791777592
 40
0.9273000129376242
 40
0.9907489703257213
 40
1.0
 40
1.0
 40
1.0
 40
1.0
 10
1847.542392098726
 20
1162.489106044663
 30
0.0
 10
1847.605517585771
 20
1162.323335812845
 30
0.0
 10
1847.793024037139
 20
1161.830935843116
 30
0.0
 10
1848.048204909848
 20
1160.809493127743
 30
0.0
 10
1848.22862651956
 20
1159.367377279156
 30
0.0
 10
1848.251744800129
 20
1157.730147644427
 30
0.0
 10
1848.100091470214
 20
1155.942565956974
 30
0.0
 10
1847.763126372909
 20
1154.045836140976
 30
0.0
 10
1847.238559480145
 20
1152.087439572224
 30
0.0
 10
1846.532139501088
 20
1150.117134892384
 30
0.0
 10
1845.657425041385
 20
1148.185325304585
 30
0.0
 10
1844.635601843174
 20
1146.34164792826
 30
0.0
 10
1843.494830799732
 20
1144.632565642961
 30
0.0
 10
1842.2696269988
 20
1143.099614599458
 30
0.0
 10
1840.999277816318
 20
1141.77639793568
 30
0.0
 10
1839.751175319583
 20
1140.709283631891
 30
0.0
 10
1838.894196053136
 20
1140.117354037836
 30
0.0
 10
1838.469063149179
 20
1139.863184754246
 30
0.0
 10
1838.414965242577
 20
1139.830841865618
 30
0.0
  0
SPLINE
  5
23B
330
1F
100
AcDbEntity
  8
0
  6
Continuous
 62
     7
370
    15
100
AcDbSpline
210
0.0
220
0.0
230
1.0
 70
     8
 71
     3
 72
    14
 73
    10
 74
     0
 42
0.000000001
 43
0.00000001
 40
0.0
 40
0.0
 40
0.0
 40
0.0
 40
0.117972009690719
 40
0.2576801377288081
 40
0.40588994591894
 40
0.5641297086645456
 40
0.7320953148967537
 40
0.9084634324883796
 40
1.0
 40
1.0
 40
1.0
 40
1.0
 10
1177.293973749684
 20
1148.098927550066
 30
0.0
 10
1177.289222062717
 20
1148.113372501734
 30
0.0
 10
1177.278843199499
 20
1148.144923859933
 30
0.0
 10
1177.214723082632
 20
1148.547620966172
 30
0.0
 10
1177.185395678109
 20
1149.228912298853
 30
0.0
 10
1177.223370203297
 20
1150.206933480618
 30
0.0
 10
1177.365533156349
 20
1151.459598411333
 30
0.0
 10
1177.580859383105
 20
1152.696766497866
 30
0.0
 10
1177.767521164195
 20
1153.521469898228
 30
0.0
 10
1177.831298991447
 20
1153.803251153585
 30
0.0
  0
SPLINE
  5
23C
330
1F
100
AcDbEntity
  8
0
  6
Continuous
 62
     7
370
    15
100
AcDbSpline
210
0.0
220
0.0
230
1.0
 70
     8
 71
     3
 72
    26
 73
    22
 74
     0
 42
0.000000001
 43
0.00000001
 40
0.0
 40
0.0
 40
0.0
 40
0.0
 40
0.033084618912201
 40
0.0977871559907594
 40
0.1640707848158624
 40
0.2330532371448628
 40
0.2973477373186621
 40
0.3542441322584687
 40
0.404903899882951
 40
0.4516642954946612
 40
0.4961400961731242
 40
0.5394346243359623
 40
0.586147077664306
 40
0.6311209523746089
 40
0.6752021111096321
 40
0.7196627393344165
 40
0.7659741175143983
 40
0.8158898385713602
 40
0.8714236236828449
 40
0.933987156323122
 40
1.0
 40
1.0
 40
1.0
 40
1.0
 10
1166.148890625455
 20
1156.545756353251
 30
0.0
 10
1166.052813744957
 20
1156.119625880068
 30
0.0
 10
1165.768842364625
 20
1154.860125591907
 30
0.0
 10
1165.42542541332
 20
1152.822453461569
 30
0.0
 10
1165.19302334969
 20
1150.455569160448
 30
0.0
 10
1165.179641637611
 20
1148.217016808024
 30
0.0
 10
1165.398780512055
 20
1146.178958757851
 30
0.0
 10
1165.833880172638
 20
1144.395148418357
 30
0.0
 10
1166.465652202546
 20
1142.840703821184
 30
0.0
 10
1167.290728511657
 20
1141.482031839964
 30
0.0
 10
1168.311106574293
 20
1140.312189865307
 30
0.0
 10
1169.550989713288
 20
1139.324114860491
 30
0.0
 10
1170.980346096671
 20
1138.583588238708
 30
0.0
 10
1172.530304438309
 20
1138.142311080134
 30
0.0
 10
1174.081367673354
 20
1138.003862254126
 30
0.0
 10
1175.60721468966
 20
1138.133822117013
 30
0.0
 10
1177.111658980196
 20
1138.509003705982
 30
0.0
 10
1178.622406583279
 20
1139.127957276154
 30
0.0
 10
1180.179003193589
 20
1140.023416646405
 30
0.0
 10
1181.790891343011
 20
1141.20615408835
 30
0.0
 10
1182.866747574003
 20
1142.226373485981
 30
0.0
 10
1183.419106656048
 20
1142.750167868285
 30
0.0
  0
LINE
  5
23D
330
1F
100
AcDbEntity
  8
0
  6
Continuous
 62
     7
370
    15
100
AcDbLine
 10
1196.7916215218
 20
1173.003608899
 30
0.0
 11
1177.9286746575
 21
1154.2180479226
 31
0.0
  0
LINE
  5
23E
330
1F
100
AcDbEntity
  8
0
  6
Continuous
 62
     7
370
    15
100
AcDbLine
 10
1183.419106656
 20
1142.7501678683
 30
0.0
 11
1205.2594436516
 21
1164.5009041307
 31
0.0
  0
SPLINE
  5
23F
330
1F
100
AcDbEntity
  8
0
  6
Continuous
 62
     7
370
    15
100
AcDbSpline
210
0.0
220
0.0
230
1.0
 70
     8
 71
     3
 72
    10
 73
     6
 74
     0
 42
0.000000001
 43
0.00000001
 40
0.0
 40
0.0
 40
0.0
 40
0.0
 40
0.2396503068225108
 40
0.6789909420237752
 40
1.0
 40
1.0
 40
1.0
 40
1.0
 10
1201.401330029545
 20
1176.444864546096
 30
0.0
 10
1200.993083122167
 20
1176.204769992975
 30
0.0
 10
1199.83641465846
 20
1175.524520386957
 30
0.0
 10
1198.271350582831
 20
1174.392502436524
 30
0.0
 10
1197.23088964757
 20
1173.4159118518
 30
0.0
 10
1196.791621521751
 20
1173.003608899035
 30
0.0
  0
SPLINE
  5
240
330
1F
100
AcDbEntity
  8
0
  6
Continuous
 62
     7
370
    15
100
AcDbSpline
210
0.0
220
0.0
230
1.0
 70
     8
 71
     3
 72
     9
 73
     5
 74
     0
 42
0.000000001
 43
0.00000001
 40
0.0
 40
0.0
 40
0.0
 40
0.0
 40
0.9240526702781524
 40
1.0
 40
1.0
 40
1.0
 40
1.0
 10
1205.259443651571
 20
1164.500904130685
 30
0.0
 10
1205.368058864629
 20
1164.614078053711
 30
0.0
 10
1205.485601096313
 20
1164.736553672976
 30
0.0
 10
1205.66274883751
 20
1164.868690417803
 30
0.0
 10
1205.676202735421
 20
1164.878725850731
 30
0.0
  0
LINE
  5
241
330
1F
100
AcDbEntity
  8
0
  6
Continuous
 62
     7
370
    15
100
AcDbLine
 10
1447.2230878399
 20
1315.1367865238
 30
0.0
 11
1405.7116352033
 21
1291.7161454808
 31
0.0
  0
LINE
  5
242
330
1F
100
AcDbEntity
  8
0
  6
Continuous
 62
     7
370
    15
100
AcDbLine
 10
1393.5730320168
 20
1284.8675808091
 30
0.0
 11
1201.4013300295
 21
1176.4448645461
 31
0.0
  0
LINE
  5
243
330
1F
100
AcDbEntity
  8
0
  6
Continuous
 62
     7
370
    15
100
AcDbLine
 10
1207.7796267813
 20
1166.2653155603
 30
0.0
 11
1405.6434208568
 21
1277.8994936516
 31
0.0
  0
LINE
  5
244
330
1F
100
AcDbEntity
  8
0
  6
Continuous
 62
     7
370
    15
100
AcDbLine
 10
1417.7820240434
 20
1284.7480583233
 30
0.0
 11
1466.5460823873
 21
1312.2605984475
 31
0.0
  0
SPLINE
  5
245
330
1F
100
AcDbEntity
  8
0
  6
Continuous
 62
     7
370
    15
100
AcDbSpline
210
0.0
220
0.0
230
1.0
 70
    11
 71
     3
 72
    39
 73
    35
 74
     0
 42
0.000000001
 43
0.00000001
 40
0.0
 40
0.0
 40
0.0
 40
0.0
 40
0.0312177227449954
 40
0.0625287405307386
 40
0.0936997401827649
 40
0.1250352072377635
 40
0.1562162086399576
 40
0.1875016966571134
 40
0.218720319043222
 40
0.2499289820204254
 40
0.2811981095720199
 40
0.3123388045552406
 40
0.3436547850314264
 40
0.37478542847977
 40
0.4061037178313873
 40
0.437345787809685
 40
0.4685683034515246
 40
0.4999061760153625
 40
0.5310894440767371
 40
0.5624033508158136
 40
0.5936765665876703
 40
0.6248840973694785
 40
0.6562146563958837
 40
0.6873642000890552
 40
0.7186974066377433
 40
0.7498448474957039
 40
0.78114386627771
 40
0.8123373356387922
 40
0.8435661994108772
 40
0.8748505990838524
 40
0.9059999103842429
 40
0.9373336444315034
 40
0.9685250294869209
 40
1.0
 40
1.0
 40
1.0
 40
1.0
 10
1515.163385462227
 20
1860.139371333705
 30
0.0
 10
1515.360317438214
 20
1861.268278841403
 30
0.0
 10
1515.754769926926
 20
1863.529467628575
 30
0.0
 10
1517.206919291044
 20
1866.46358789859
 30
0.0
 10
1519.203274185705
 20
1868.932143172146
 30
0.0
 10
1521.714461574999
 20
1870.82816506084
 30
0.0
 10
1524.63008792706
 20
1872.105970286758
 30
0.0
 10
1527.843181570759
 20
1872.72191424449
 30
0.0
 10
1531.24706212265
 20
1872.653055566684
 30
0.0
 10
1534.72382493081
 20
1871.891145049636
 30
0.0
 10
1538.147389918497
 20
1870.446948573425
 30
0.0
 10
1541.394457474082
 20
1868.353795578129
 30
0.0
 10
1544.326613795885
 20
1865.683655547354
 30
0.0
 10
1546.82884694984
 20
1862.52866075107
 30
0.0
 10
1548.787139797081
 20
1859.027236411675
 30
0.0
 10
1550.12181335687
 20
1855.326598599845
 30
0.0
 10
1550.782508489993
 20
1851.592213993559
 30
0.0
 10
1550.75123012009
 20
1847.986238914415
 30
0.0
 10
1550.041877829147
 20
1844.649257519572
 30
0.0
 10
1548.694825183804
 20
1841.711784393271
 30
0.0
 10
1546.768138565458
 20
1839.274348296736
 30
0.0
 10
1544.338685377805
 20
1837.414986640199
 30
0.0
 10
1541.498280417897
 20
1836.191495188068
 30
0.0
 10
1538.338737478996
 20
1835.63393257864
 30
0.0
 10
1534.976491642687
 20
1835.757588347211
 30
0.0
 10
1531.513870853734
 20
1836.557979007029
 30
0.0
 10
1528.081138966422
 20
1838.010471664428
 30
0.0
 10
1524.797362058599
 20
1840.078075449849
 30
0.0
 10
1521.795719914772
 20
1842.696983665842
 30
0.0
 10
1519.208915265213
 20
1845.779597944443
 30
0.0
 10
1517.15011579139
 20
1849.217629366276
 30
0.0
 10
1515.743107186858
 20
1852.85881478144
 30
0.0
 10
1514.987347630845
 20
1856.584969705156
 30
0.0
 10
1515.104529423306
 20
1858.951001771614
 30
0.0
 10
1515.163385462227
 20
1860.139371333705
 30
0.0
  0
SPLINE
  5
246
330
1F
100
AcDbEntity
  8
0
  6
Continuous
 62
     7
370
    15
100
AcDbSpline
210
0.0
220
0.0
230
1.0
 70
     8
 71
     3
 72
    12
 73
     8
 74
     0
 42
0.000000001
 43
0.00000001
 40
0.0
 40
0.0
 40
0.0
 40
0.0
 40
0.2499714980307361
 40
0.4999482582008883
 40
0.6666092642532219
 40
0.8332776003114327
 40
1.0
 40
1.0
 40
1.0
 40
1.0
 10
1584.150911142673
 20
1735.459343944929
 30
0.0
 10
1583.333311400025
 20
1729.816605701488
 30
0.0
 10
1581.698094703469
 20
1718.531010429564
 30
0.0
 10
1579.889688231017
 20
1703.654179905679
 30
0.0
 10
1578.342064985645
 20
1690.655074559786
 30
0.0
 10
1577.001236134942
 20
1679.502056579708
 30
0.0
 10
1575.851390099013
 20
1671.94921712073
 30
0.0
 10
1575.276373849828
 20
1668.172184995819
 30
0.0
  0
SPLINE
  5
247
330
1F
100
AcDbEntity
  8
0
  6
Continuous
 62
     7
370
    15
100
AcDbSpline
210
0.0
220
0.0
230
1.0
 70
     8
 71
     3
 72
    15
 73
    11
 74
     0
 42
0.000000001
 43
0.00000001
 40
0.0
 40
0.0
 40
0.0
 40
0.0
 40
0.1248383576862519
 40
0.2499675273632797
 40
0.3745099936088623
 40
0.4997677311834904
 40
0.624281979985689
 40
0.7495257693801987
 40
0.8741950811837466
 40
1.0
 40
1.0
 40
1.0
 40
1.0
 10
1566.314919969827
 20
1771.729294630386
 30
0.0
 10
1567.765169036901
 20
1770.793519516454
 30
0.0
 10
1570.669045538294
 20
1768.919789392692
 30
0.0
 10
1574.57887241053
 20
1765.113326639904
 30
0.0
 10
1577.992634410663
 20
1760.729901066105
 30
0.0
 10
1580.764547093502
 20
1755.865752848088
 30
0.0
 10
1582.827338088988
 20
1750.705758297811
 30
0.0
 10
1584.099125473974
 20
1745.463863917968
 30
0.0
 10
1584.630428602807
 20
1740.266887234638
 30
0.0
 10
1584.311232689146
 20
1737.066694748644
 30
0.0
 10
1584.150911142673
 20
1735.459343944929
 30
0.0
  0
SPLINE
  5
248
330
1F
100
AcDbEntity
  8
0
  6
Continuous
 62
     7
370
    15
100
AcDbSpline
210
0.0
220
0.0
230
1.0
 70
     8
 71
     3
 72
    11
 73
     7
 74
     0
 42
0.000000001
 43
0.00000001
 40
0.0
 40
0.0
 40
0.0
 40
0.0
 40
0.2501190051004888
 40
0.499979066424402
 40
0.7498137513210437
 40
1.0
 40
1.0
 40
1.0
 40
1.0
 10
1493.985340045286
 20
1808.294317933887
 30
0.0
 10
1500.230526991485
 20
1805.454968986019
 30
0.0
 10
1512.714435352436
 20
1799.779210617966
 30
0.0
 10
1531.051479303869
 20
1790.864968357877
 30
0.0
 10
1548.991137457309
 20
1781.565182369336
 30
0.0
 10
1560.537619695639
 20
1775.009460315337
 30
0.0
 10
1566.314919969827
 20
1771.729294630386
 30
0.0
  0
SPLINE
  5
249
330
1F
100
AcDbEntity
  8
0
  6
Continuous
 62
     7
370
    15
100
AcDbSpline
210
0.0
220
0.0
230
1.0
 70
     8
 71
     3
 72
    15
 73
    11
 74
     0
 42
0.000000001
 43
0.00000001
 40
0.0
 40
0.0
 40
0.0
 40
0.0
 40
0.1249376330514466
 40
0.2494577901783601
 40
0.3748042887320501
 40
0.4992574701957339
 40
0.6246306289961481
 40
0.7492103853683246
 40
0.8742326555408523
 40
1.0
 40
1.0
 40
1.0
 40
1.0
 10
1469.669299609642
 20
1836.309080841566
 30
0.0
 10
1470.092131045773
 20
1834.832492473941
 30
0.0
 10
1470.93638103754
 20
1831.884249721182
 30
0.0
 10
1472.980115699091
 20
1827.571315729006
 30
0.0
 10
1475.516911419983
 20
1823.460383994023
 30
0.0
 10
1478.551775804753
 20
1819.619115550469
 30
0.0
 10
1481.980872304455
 20
1816.126565125744
 30
0.0
 10
1485.745568528314
 20
1813.038845367254
 30
0.0
 10
1489.758074336105
 20
1810.358971692086
 30
0.0
 10
1492.573463382986
 20
1808.983897595416
 30
0.0
 10
1493.985340045286
 20
1808.294317933887
 30
0.0
  0
SPLINE
  5
24A
330
1F
100
AcDbEntity
  8
0
  6
Continuous
 62
     7
370
    15
100
AcDbSpline
210
0.0
220
0.0
230
1.0
 70
     8
 71
     3
 72
    15
 73
    11
 74
     0
 42
0.000000001
 43
0.00000001
 40
0.0
 40
0.0
 40
0.0
 40
0.0
 40
0.1253126906535317
 40
0.2498044998513742
 40
0.3741496877463588
 40
0.4990482899911519
 40
0.6247253390302275
 40
0.7497145168393012
 40
0.8745422653156568
 40
1.0
 40
1.0
 40
1.0
 40
1.0
 10
1474.550043111782
 20
1907.116545788351
 30
0.0
 10
1473.499987252248
 20
1904.477671887451
 30
0.0
 10
1471.40675409734
 20
1899.217210464531
 30
0.0
 10
1469.078201607412
 20
1890.884269886038
 30
0.0
 10
1467.355388296696
 20
1882.281150452115
 30
0.0
 10
1466.330890863657
 20
1873.385034472515
 30
0.0
 10
1466.014036037704
 20
1864.271106184255
 30
0.0
 10
1466.45353396015
 20
1855.013668769386
 30
0.0
 10
1467.587790711975
 20
1845.675734611397
 30
0.0
 10
1468.974299996544
 20
1839.436533601126
 30
0.0
 10
1469.669299609642
 20
1836.309080841566
 30
0.0
  0
SPLINE
  5
24B
330
1F
100
AcDbEntity
  8
0
  6
Continuous
 62
     7
370
    15
100
AcDbSpline
210
0.0
220
0.0
230
1.0
 70
     8
 71
     3
 72
    15
 73
    11
 74
     0
 42
0.000000001
 43
0.00000001
 40
0.0
 40
0.0
 40
0.0
 40
0.0
 40
0.1249430022509197
 40
0.2496352022177445
 40
0.3748520349016851
 40
0.4993969411251412
 40
0.6247263663172361
 40
0.7490552207327998
 40
0.8745414775023592
 40
1.0
 40
1.0
 40
1.0
 40
1.0
 10
1508.883092754617
 20
1920.625306894611
 30
0.0
 10
1507.09264381065
 20
1921.082822850349
 30
0.0
 10
1503.515339951005
 20
1921.996936374684
 30
0.0
 10
1498.18318186487
 20
1922.259759659556
 30
0.0
 10
1493.047917661365
 20
1921.732126411868
 30
0.0
 10
1488.21562277156
 20
1920.344156286012
 30
0.0
 10
1483.822114404768
 20
1918.159068549551
 30
0.0
 10
1479.988004663371
 20
1915.190322911968
 30
0.0
 10
1476.761732076908
 20
1911.548825568535
 30
0.0
 10
1475.287218446026
 20
1908.593863521513
 30
0.0
 10
1474.550043111781
 20
1907.116545788351
 30
0.0
  0
SPLINE
  5
24C
330
1F
100
AcDbEntity
  8
0
  6
Continuous
 62
     7
370
    15
100
AcDbSpline
210
0.0
220
0.0
230
1.0
 70
     8
 71
     3
 72
    22
 73
    18
 74
     0
 42
0.000000001
 43
0.00000001
 40
0.0
 40
0.0
 40
0.0
 40
0.0
 40
0.0718174611236709
 40
0.143283210380014
 40
0.2145315867288984
 40
0.2857413045503002
 40
0.3570579160394201
 40
0.4285906846491315
 40
0.5004007253996249
 40
0.5630750217338286
 40
0.6255221667201988
 40
0.6878146664845617
 40
0.7500233746647631
 40
0.8122349233248974
 40
0.8745615692943245
 40
0.9371279549050329
 40
1.0
 40
1.0
 40
1.0
 40
1.0
 10
1763.440599514699
 20
1773.671307310163
 30
0.0
 10
1759.311625168195
 20
1778.123831236685
 30
0.0
 10
1751.073897313614
 20
1787.007073730976
 30
0.0
 10
1737.476665037429
 20
1799.897852412295
 30
0.0
 10
1722.842348186661
 20
1812.349585459007
 30
0.0
 10
1707.16867760615
 20
1824.359198538604
 30
0.0
 10
1690.599032583858
 20
1835.984862282784
 30
0.0
 10
1673.203850691222
 20
1847.257676339624
 30
0.0
 10
1655.802038216935
 20
1857.698862645347
 30
0.0
 10
1638.554227494454
 20
1867.325065331695
 30
0.0
 10
1621.608638849532
 20
1876.157799900474
 30
0.0
 10
1604.198699250615
 20
1884.63371246526
 30
0.0
 10
1586.292471700714
 20
1892.731719772132
 30
0.0
 10
1567.835065927157
 20
1900.411876036109
 30
0.0
 10
1548.775761962799
 20
1907.631352817188
 30
0.0
 10
1529.113863308464
 20
1914.384485545474
 30
0.0
 10
1515.637628917087
 20
1918.541656478328
 30
0.0
 10
1508.883092754617
 20
1920.625306894611
 30
0.0
  0
SPLINE
  5
24D
330
1F
100
AcDbEntity
  8
0
  6
Continuous
 62
     7
370
    15
100
AcDbSpline
210
0.0
220
0.0
230
1.0
 70
     8
 71
     3
 72
    15
 73
    11
 74
     0
 42
0.000000001
 43
0.00000001
 40
0.0
 40
0.0
 40
0.0
 40
0.0
 40
0.1248989672041086
 40
0.2497209348632229
 40
0.3747959911725162
 40
0.4996340419898636
 40
0.6247435487825099
 40
0.7493677115542018
 40
0.8747833569161491
 40
1.0
 40
1.0
 40
1.0
 40
1.0
 10
1776.98765528986
 20
1732.524537033449
 30
0.0
 10
1776.886379603055
 20
1734.477455622874
 30
0.0
 10
1776.683890665363
 20
1738.382088837864
 30
0.0
 10
1775.806723639402
 20
1744.383884967184
 30
0.0
 10
1774.561628687029
 20
1750.28101330517
 30
0.0
 10
1772.93357514471
 20
1755.953935601488
 30
0.0
 10
1770.975463312745
 20
1761.25883555644
 30
0.0
 10
1768.712778739579
 20
1766.069280021211
 30
0.0
 10
1766.203477172127
 20
1770.336570866926
 30
0.0
 10
1764.361071109779
 20
1772.560317047953
 30
0.0
 10
1763.440599514699
 20
1773.671307310163
 30
0.0
  0
SPLINE
  5
24E
330
1F
100
AcDbEntity
  8
0
  6
Continuous
 62
     7
370
    15
100
AcDbSpline
210
0.0
220
0.0
230
1.0
 70
     8
 71
     3
 72
    15
 73
    11
 74
     0
 42
0.000000001
 43
0.00000001
 40
0.0
 40
0.0
 40
0.0
 40
0.0
 40
0.1253286913905742
 40
0.2497155426471104
 40
0.3739506633389578
 40
0.498798051735244
 40
0.6244876636984417
 40
0.7495670942348442
 40
0.8745111366372395
 40
1.0
 40
1.0
 40
1.0
 40
1.0
 10
1768.11414995303
 20
1664.020587752601
 30
0.0
 10
1768.88392496662
 20
1666.300081074153
 30
0.0
 10
1770.417690165169
 20
1670.841937415555
 30
0.0
 10
1772.341816587594
 20
1678.383163069484
 30
0.0
 10
1773.982528547993
 20
1686.388957808542
 30
0.0
 10
1775.300222042247
 20
1694.901730419097
 30
0.0
 10
1776.284140200953
 20
1703.836962177837
 30
0.0
 10
1776.904712790174
 20
1713.126122098118
 30
0.0
 10
1777.178243757616
 20
1722.680486534153
 30
0.0
 10
1777.051276851985
 20
1729.23843122769
 30
0.0
 10
1776.98765528986
 20
1732.524537033449
 30
0.0
  0
SPLINE
  5
24F
330
1F
100
AcDbEntity
  8
0
  6
Continuous
 62
     7
370
    15
100
AcDbSpline
210
0.0
220
0.0
230
1.0
 70
     8
 71
     3
 72
    15
 73
    11
 74
     0
 42
0.000000001
 43
0.00000001
 40
0.0
 40
0.0
 40
0.0
 40
0.0
 40
0.1250954691891244
 40
0.2496344123619166
 40
0.3751411620401939
 40
0.4995703591419637
 40
0.6245499351979187
 40
0.7496469500367735
 40
0.8741733403233929
 40
1.0
 40
1.0
 40
1.0
 40
1.0
 10
1752.686812392096
 20
1658.947320712496
 30
0.0
 10
1753.467653573602
 20
1658.369824754153
 30
0.0
 10
1755.025862122293
 20
1657.217402007457
 30
0.0
 10
1757.327350246384
 20
1656.250920815655
 30
0.0
 10
1759.546348847882
 20
1655.87801777955
 30
0.0
 10
1761.649580463285
 20
1656.175908528594
 30
0.0
 10
1763.596917037711
 20
1657.134105910287
 30
0.0
 10
1765.347329077512
 20
1658.769786222661
 30
0.0
 10
1766.896070861327
 20
1661.013656637171
 30
0.0
 10
1767.706720154444
 20
1663.014812883737
 30
0.0
 10
1768.11414995303
 20
1664.020587752601
 30
0.0
  0
SPLINE
  5
250
330
1F
100
AcDbEntity
  8
0
  6
Continuous
 62
     7
370
    15
100
AcDbSpline
210
0.0
220
0.0
230
1.0
 70
     8
 71
     3
 72
    11
 73
     7
 74
     0
 42
0.000000001
 43
0.00000001
 40
0.0
 40
0.0
 40
0.0
 40
0.0
 40
0.2501844504654327
 40
0.5000199957653734
 40
0.7498787045002164
 40
1.0
 40
1.0
 40
1.0
 40
1.0
 10
1706.609340039928
 20
1690.73997402348
 30
0.0
 10
1710.832830329878
 20
1688.246073207411
 30
0.0
 10
1719.27392086515
 20
1683.261749548723
 30
0.0
 10
1731.052870975275
 20
1675.406461431208
 30
0.0
 10
1742.20125354557
 20
1667.302824029977
 30
0.0
 10
1749.190402555637
 20
1661.733463484227
 30
0.0
 10
1752.686812392096
 20
1658.947320712496
 30
0.0
  0
SPLINE
  5
251
330
1F
100
AcDbEntity
  8
0
  6
Continuous
 62
     7
370
    15
100
AcDbSpline
210
0.0
220
0.0
230
1.0
 70
     8
 71
     3
 72
    15
 73
    11
 74
     0
 42
0.000000001
 43
0.00000001
 40
0.0
 40
0.0
 40
0.0
 40
0.0
 40
0.1248588076731486
 40
0.2499761431157683
 40
0.3745532304217317
 40
0.4998005208732761
 40
0.6242770335286002
 40
0.7495619611205692
 40
0.8741539404848943
 40
1.0
 40
1.0
 40
1.0
 40
1.0
 10
1688.20669597142
 20
1675.389321446705
 30
0.0
 10
1688.355524395169
 20
1676.990468080717
 30
0.0
 10
1688.653489400988
 20
1680.196076620411
 30
0.0
 10
1689.927768548998
 20
1684.337485312365
 30
0.0
 10
1691.751819074759
 20
1687.801028399451
 30
0.0
 10
1694.107058202851
 20
1690.407441841406
 30
0.0
 10
1696.888603064871
 20
1692.076543756134
 30
0.0
 10
1699.977217538903
 20
1692.708913122833
 30
0.0
 10
1703.269221292494
 20
1692.368816108253
 30
0.0
 10
1705.492256473361
 20
1691.28473092077
 30
0.0
 10
1706.609340039928
 20
1690.73997402348
 30
0.0
  0
SPLINE
  5
252
330
1F
100
AcDbEntity
  8
0
  6
Continuous
 62
     7
370
    15
100
AcDbSpline
210
0.0
220
0.0
230
1.0
 70
     8
 71
     3
 72
    12
 73
     8
 74
     0
 42
0.000000001
 43
0.00000001
 40
0.0
 40
0.0
 40
0.0
 40
0.0
 40
0.1667223754313849
 40
0.3333906914289282
 40
0.5000516854694865
 40
0.7500284522049662
 40
0.9999999999999999
 40
0.9999999999999999
 40
0.9999999999999999
 40
0.9999999999999999
 10
1685.902506905046
 20
1604.309050396824
 30
0.0
 10
1686.11268228574
 20
1608.29670561551
 30
0.0
 10
1686.532964898136
 20
1616.270723062765
 30
0.0
 10
1686.778756890434
 20
1628.055907442593
 30
0.0
 10
1687.048954630825
 20
1641.792477468508
 30
0.0
 10
1687.397094354604
 20
1657.512335256227
 30
0.0
 10
1687.93683064391
 20
1669.4303675205
 30
0.0
 10
1688.20669597142
 20
1675.389321446705
 30
0.0
  0
SPLINE
  5
253
330
1F
100
AcDbEntity
  8
0
  6
Continuous
 62
     7
370
    15
100
AcDbSpline
210
0.0
220
0.0
230
1.0
 70
     8
 71
     3
 72
    12
 73
     8
 74
     0
 42
0.000000001
 43
0.00000001
 40
0.0
 40
0.0
 40
0.0
 40
0.0
 40
0.2010946504065013
 40
0.4020259239636514
 40
0.6017330856143639
 40
0.8008024099074527
 40
1.0
 40
1.0
 40
1.0
 40
1.0
 10
1678.8722195361
 20
1562.832995611953
 30
0.0
 10
1679.709815162514
 20
1565.679841251688
 30
0.0
 10
1681.384325921185
 20
1571.371219646802
 30
0.0
 10
1683.115059975104
 20
1579.829576745234
 30
0.0
 10
1684.412731235526
 20
1588.137622589489
 30
0.0
 10
1685.331129813046
 20
1596.300015024952
 30
0.0
 10
1685.711888441052
 20
1601.637014700337
 30
0.0
 10
1685.902329068596
 20
1604.306373954799
 30
0.0
  0
SPLINE
  5
254
330
1F
100
AcDbEntity
  8
0
  6
Continuous
 62
     7
370
    15
100
AcDbSpline
210
0.0
220
0.0
230
1.0
 70
     8
 71
     3
 72
    10
 73
     6
 74
     0
 42
0.000000001
 43
0.00000001
 40
0.0
 40
0.0
 40
0.0
 40
0.0
 40
0.3330768012687974
 40
0.6654158796728645
 40
1.0
 40
1.0
 40
1.0
 40
1.0
 10
1671.385962013906
 20
1544.545335984831
 30
0.0
 10
1672.349122680789
 20
1546.528426592239
 30
0.0
 10
1674.273310735852
 20
1550.490215512912
 30
0.0
 10
1676.784617144782
 20
1556.620468921609
 30
0.0
 10
1678.174792171966
 20
1560.757511251388
 30
0.0
 10
1678.8722195361
 20
1562.832995611953
 30
0.0
  0
SPLINE
  5
255
330
1F
100
AcDbEntity
  8
0
  6
Continuous
 62
     7
370
    15
100
AcDbSpline
210
0.0
220
0.0
230
1.0
 70
     8
 71
     3
 72
    15
 73
    11
 74
     0
 42
0.000000001
 43
0.00000001
 40
0.0
 40
0.0
 40
0.0
 40
0.0
 40
0.1249075696527679
 40
0.2500099103251108
 40
0.3747959867367061
 40
0.5000718115166186
 40
0.6246669043886223
 40
0.7499715715637858
 40
0.8743952744043055
 40
1.0
 40
1.0
 40
1.0
 40
1.0
 10
1674.714779980715
 20
1510.989643433297
 30
0.0
 10
1673.6204455312
 20
1511.889205222981
 30
0.0
 10
1671.430070213278
 20
1513.689731508103
 30
0.0
 10
1669.097045573842
 20
1517.154426260873
 30
0.0
 10
1667.522433942844
 20
1521.065948519504
 30
0.0
 10
1666.779994082576
 20
1525.382146354577
 30
0.0
 10
1666.828927948268
 20
1530.0039622766
 30
0.0
 10
1667.648065900697
 20
1534.812805732626
 30
0.0
 10
1669.13593506659
 20
1539.732187063029
 30
0.0
 10
1670.633594939096
 20
1542.935908693642
 30
0.0
 10
1671.385962013906
 20
1544.545335984831
 30
0.0
  0
LINE
  5
256
330
1F
100
AcDbEntity
  8
0
  6
Continuous
 62
     7
370
    15
100
AcDbLine
 10
1709.4206124693
 20
1486.3163249651
 30
0.0
 11
1674.7147799807
 21
1510.9896434333
 31
0.0
  0
LINE
  5
257
330
1F
100
AcDbEntity
  8
0
  6
Continuous
 62
     7
370
    15
100
AcDbLine
 10
1712.4451484566
 20
1483.8353821326
 30
0.0
 11
1709.4206124693
 21
1486.3163249651
 31
0.0
  0
SPLINE
  5
258
330
1F
100
AcDbEntity
  8
0
  6
Continuous
 62
     7
370
    15
100
AcDbSpline
210
0.0
220
0.0
230
1.0
 70
     8
 71
     3
 72
    15
 73
    11
 74
     0
 42
0.000000001
 43
0.00000001
 40
0.0
 40
0.0
 40
0.0
 40
0.0
 40
0.1249601196645072
 40
0.2500127170096473
 40
0.3748707461875823
 40
0.4999965733265132
 40
0.6248208008781897
 40
0.7500496380514812
 40
0.8747641347936631
 40
1.0
 40
1.0
 40
1.0
 40
1.0
 10
1707.48760868811
 20
1450.667407547016
 30
0.0
 10
1709.033554492785
 20
1451.699708800858
 30
0.0
 10
1712.126590191008
 20
1453.765075270884
 30
0.0
 10
1715.558543721108
 20
1457.488091551512
 30
0.0
 10
1717.970037793148
 20
1461.616864328907
 30
0.0
 10
1719.21269309216
 20
1466.092921729235
 30
0.0
 10
1719.289191543248
 20
1470.772666334591
 30
0.0
 10
1718.172417755988
 20
1475.443094792611
 30
0.0
 10
1715.99634593507
 20
1479.953728897476
 30
0.0
 10
1713.630525894676
 20
1482.539699705697
 30
0.0
 10
1712.445148456646
 20
1483.835382132564
 30
0.0
  0
SPLINE
  5
259
330
1F
100
AcDbEntity
  8
0
  6
Continuous
 62
     7
370
    15
100
AcDbSpline
210
0.0
220
0.0
230
1.0
 70
     8
 71
     3
 72
    19
 73
    15
 74
     0
 42
0.000000001
 43
0.00000001
 40
0.0
 40
0.0
 40
0.0
 40
0.0
 40
0.0559879389603828
 40
0.1119820318938523
 40
0.1679810327693693
 40
0.223983119359693
 40
0.2799840019010024
 40
0.3899869204237754
 40
0.499990613188879
 40
0.5999905907325127
 40
0.6999938318798088
 40
0.7999941371733758
 40
0.8999955000086829
 40
0.9999999999999999
 40
0.9999999999999999
 40
0.9999999999999999
 40
0.9999999999999999
 10
1523.63985050303
 20
1343.217418993236
 30
0.0
 10
1527.036610545995
 20
1345.771172051185
 30
0.0
 10
1533.830503990371
 20
1350.878958865532
 30
0.0
 10
1544.115041366893
 20
1357.672740527775
 30
0.0
 10
1554.410545599301
 20
1364.096494762233
 30
0.0
 10
1564.713822261067
 20
1370.288583059147
 30
0.0
 10
1578.330427386485
 20
1378.292408713291
 30
0.0
 10
1595.260065381402
 20
1388.050744873581
 30
0.0
 10
1614.888225784273
 20
1399.259858781607
 30
0.0
 10
1633.900149903765
 20
1409.81295540198
 30
0.0
 10
1652.293069940588
 20
1419.786003433633
 30
0.0
 10
1670.687105198731
 20
1429.818161206172
 30
0.0
 10
1689.085298646753
 20
1439.967257119136
 30
0.0
 10
1701.353437794966
 20
1447.100654813727
 30
0.0
 10
1707.487603583919
 20
1450.667409605836
 30
0.0
  0
SPLINE
  5
25A
330
1F
100
AcDbEntity
  8
0
  6
Continuous
 62
     7
370
    15
100
AcDbSpline
210
0.0
220
0.0
230
1.0
 70
     8
 71
     3
 72
    20
 73
    16
 74
     0
 42
0.000000001
 43
0.00000001
 40
0.0
 40
0.0
 40
0.0
 40
0.0
 40
0.0626364884971816
 40
0.1247397382324264
 40
0.1872131023981177
 40
0.2500143218218205
 40
0.3332799457111471
 40
0.4169341654700874
 40
0.5001350814568852
 40
0.5832027959985117
 40
0.6668265766459366
 40
0.7496640754664592
 40
0.8324243388566409
 40
0.916153135446807
 40
1.0
 40
1.0
 40
1.0
 40
1.0
 10
1442.563668532938
 20
1317.820890751726
 30
0.0
 10
1444.090169701504
 20
1317.300659568927
 30
0.0
 10
1447.130176584823
 20
1316.264626050452
 30
0.0
 10
1452.024181156708
 20
1315.601727800965
 30
0.0
 10
1457.06954215078
 20
1315.49765769327
 30
0.0
 10
1462.829187278729
 20
1315.987313706376
 30
0.0
 10
1469.304054844857
 20
1317.157632626063
 30
0.0
 10
1476.460254162298
 20
1319.071088327699
 30
0.0
 10
1483.66527912451
 20
1321.50465742354
 30
0.0
 10
1490.865200280847
 20
1324.378334277591
 30
0.0
 10
1497.980956039415
 20
1327.61838748096
 30
0.0
 10
1504.932809597148
 20
1331.157874959991
 30
0.0
 10
1511.609178974864
 20
1334.95590677863
 30
0.0
 10
1517.964605228547
 20
1338.978423064644
 30
0.0
 10
1521.747210432045
 20
1341.803758272309
 30
0.0
 10
1523.639845579607
 20
1343.217421192438
 30
0.0
  0
SPLINE
  5
25B
330
1F
100
AcDbEntity
  8
0
  6
Continuous
 62
     7
370
    15
100
AcDbSpline
210
0.0
220
0.0
230
1.0
 70
     8
 71
     3
 72
    16
 73
    12
 74
     0
 42
0.000000001
 43
0.00000001
 40
0.0
 40
0.0
 40
0.0
 40
0.0
 40
0.1120327533868409
 40
0.2239667787226176
 40
0.335862665475669
 40
0.447807893447628
 40
0.5598943495341676
 40
0.6699569533385886
 40
0.7799385002248768
 40
0.8899328481650125
 40
1.0
 40
1.0
 40
1.0
 40
1.0
 10
1237.330236920258
 20
1436.300343803044
 30
0.0
 10
1244.353571417595
 20
1430.815159796183
 30
0.0
 10
1258.394051149701
 20
1419.84962556107
 30
0.0
 10
1280.070657064379
 20
1404.122606762372
 30
0.0
 10
1302.189923043479
 20
1389.079239331991
 30
0.0
 10
1324.800877239764
 20
1374.88046851325
 30
0.0
 10
1347.737140339253
 20
1361.684506214654
 30
0.0
 10
1370.957707355624
 20
1349.48099456694
 30
0.0
 10
1394.432651483589
 20
1338.203693127557
 30
0.0
 10
1418.260530083188
 20
1327.632488250076
 30
0.0
 10
1434.460835844018
 20
1321.092144507883
 30
0.0
 10
1442.563668532938
 20
1317.820890751726
 30
0.0
  0
SPLINE
  5
25C
330
1F
100
AcDbEntity
  8
0
  6
Continuous
 62
     7
370
    15
100
AcDbSpline
210
0.0
220
0.0
230
1.0
 70
     8
 71
     3
 72
    20
 73
    16
 74
     0
 42
0.000000001
 43
0.00000001
 40
0.0
 40
0.0
 40
0.0
 40
0.0
 40
0.0833308546512798
 40
0.1662149913810305
 40
0.2498230163154902
 40
0.3329310723557964
 40
0.4161653192719568
 40
0.4996939864731081
 40
0.5826798997358724
 40
0.6660730570957989
 40
0.7494529990035695
 40
0.811703327571066
 40
0.8743381284304493
 40
0.937173338182865
 40
1.0
 40
1.0
 40
1.0
 40
1.0
 10
1240.797133104989
 20
1506.497236939089
 30
0.0
 10
1239.051510896059
 20
1505.014366598987
 30
0.0
 10
1235.569624365239
 20
1502.056575252305
 30
0.0
 10
1231.359730285237
 20
1496.812793294124
 30
0.0
 10
1227.965637597558
 20
1491.110566307248
 30
0.0
 10
1225.469795404991
 20
1484.97573757549
 30
0.0
 10
1223.862694101906
 20
1478.545538497575
 30
0.0
 10
1223.130731903624
 20
1471.939625207872
 30
0.0
 10
1223.264681330888
 20
1465.267617700144
 30
0.0
 10
1224.259765466588
 20
1458.656799237251
 30
0.0
 10
1225.969741665389
 20
1452.770888310188
 30
0.0
 10
1228.16701956284
 20
1447.682900361831
 30
0.0
 10
1230.67535878847
 20
1443.413372005982
 30
0.0
 10
1233.67821736536
 20
1439.497717391883
 30
0.0
 10
1236.11295227486
 20
1437.366086665804
 30
0.0
 10
1237.330236920258
 20
1436.300343803044
 30
0.0
  0
SPLINE
  5
25D
330
1F
100
AcDbEntity
  8
0
  6
Continuous
 62
     7
370
    15
100
AcDbSpline
210
0.0
220
0.0
230
1.0
 70
     8
 71
     3
 72
    18
 73
    14
 74
     0
 42
0.000000001
 43
0.00000001
 40
0.0
 40
0.0
 40
0.0
 40
0.0
 40
0.1000045908815772
 40
0.2000060460520373
 40
0.3000064492623736
 40
0.4000097879873528
 40
0.5000098592901951
 40
0.6400147362234065
 40
0.7800161941969175
 40
0.8350185032647791
 40
0.8900170732186791
 40
0.9450116146358729
 40
1.0
 40
1.0
 40
1.0
 40
1.0
 10
1424.644913476635
 20
1613.946452175303
 30
0.0
 10
1418.510745090094
 20
1610.379756982195
 30
0.0
 10
1406.242600657984
 20
1603.246478432103
 30
0.0
 10
1387.844402494452
 20
1593.097518130572
 30
0.0
 10
1369.450357908905
 20
1583.065314345963
 30
0.0
 10
1351.057445092724
 20
1573.09293226784
 30
0.0
 10
1330.205568862731
 20
1561.516150118417
 30
0.0
 10
1306.897019818937
 20
1548.164898605983
 30
0.0
 10
1286.347936156516
 20
1536.267240224775
 30
0.0
 10
1271.015988621251
 20
1527.038747756138
 30
0.0
 10
1260.90479559511
 20
1520.714640143121
 30
0.0
 10
1250.805113887646
 20
1514.026335208581
 30
0.0
 10
1244.132990226815
 20
1509.006851331344
 30
0.0
 10
1240.797115125142
 20
1506.497249870025
 30
0.0
  0
SPLINE
  5
25E
330
1F
100
AcDbEntity
  8
0
  6
Continuous
 62
     7
370
    15
100
AcDbSpline
210
0.0
220
0.0
230
1.0
 70
     8
 71
     3
 72
    15
 73
    11
 74
     0
 42
0.000000001
 43
0.00000001
 40
0.0
 40
0.0
 40
0.0
 40
0.0
 40
0.1245830995202468
 40
0.2498042776538784
 40
0.3745715279724091
 40
0.4996476993181723
 40
0.6243293983456993
 40
0.7493967363233955
 40
0.874153838697153
 40
1.0
 40
1.0
 40
1.0
 40
1.0
 10
1475.163827932396
 20
1620.813707564871
 30
0.0
 10
1473.199826380817
 20
1621.336870952627
 30
0.0
 10
1469.261764229588
 20
1622.385877219743
 30
0.0
 10
1462.733005500871
 20
1622.913072135276
 30
0.0
 10
1455.964523499358
 20
1622.790900426458
 30
0.0
 10
1449.09466779653
 20
1622.043523876249
 30
0.0
 10
1442.310198021508
 20
1620.769274688768
 30
0.0
 10
1435.842176593029
 20
1618.992887383422
 30
0.0
 10
1429.792061974842
 20
1616.771880155103
 30
0.0
 10
1426.365581675266
 20
1614.890995112311
 30
0.0
 10
1424.644896213492
 20
1613.946465663593
 30
0.0
  0
LINE
  5
25F
330
1F
100
AcDbEntity
  8
0
  6
Continuous
 62
     7
370
    15
100
AcDbLine
 10
1479.1382553856
 20
1619.2581997307
 30
0.0
 11
1475.1638279324
 21
1620.8137075649
 31
0.0
  0
LINE
  5
260
330
1F
100
AcDbEntity
  8
0
  6
Continuous
 62
     7
370
    15
100
AcDbLine
 10
1519.1519333557
 20
1600.7941966402
 30
0.0
 11
1479.1382553856
 21
1619.2581997307
 31
0.0
  0
SPLINE
  5
261
330
1F
100
AcDbEntity
  8
0
  6
Continuous
 62
     7
370
    15
100
AcDbSpline
210
0.0
220
0.0
230
1.0
 70
     8
 71
     3
 72
    15
 73
    11
 74
     0
 42
0.000000001
 43
0.00000001
 40
0.0
 40
0.0
 40
0.0
 40
0.0
 40
0.1249074390094517
 40
0.2500098619615485
 40
0.3747958436944946
 40
0.5000719097253559
 40
0.624666727450523
 40
0.7499715038175803
 40
0.874394895100755
 40
1.0
 40
1.0
 40
1.0
 40
1.0
 10
1519.151933355679
 20
1600.794196640219
 30
0.0
 10
1520.54403505612
 20
1600.258388638591
 30
0.0
 10
1523.330411565988
 20
1599.185936224331
 30
0.0
 10
1528.065861161985
 20
1598.570112454097
 30
0.0
 10
1532.995208029751
 20
1598.726979380961
 30
0.0
 10
1537.977581901337
 20
1599.738286547511
 30
0.0
 10
1542.836883666482
 20
1601.583106884265
 30
0.0
 10
1547.358123402683
 20
1604.254745392513
 30
0.0
 10
1551.453527193086
 20
1607.668824982755
 30
0.0
 10
1553.585237748487
 20
1610.506520503768
 30
0.0
 10
1554.656130594759
 20
1611.932074186773
 30
0.0
  0
SPLINE
  5
262
330
1F
100
AcDbEntity
  8
0
  6
Continuous
 62
     7
370
    15
100
AcDbSpline
210
0.0
220
0.0
230
1.0
 70
     8
 71
     3
 72
    10
 73
     6
 74
     0
 42
0.000000001
 43
0.00000001
 40
0.0
 40
0.0
 40
0.0
 40
0.0
 40
0.333077074692651
 40
0.6654162208656147
 40
1.0
 40
1.0
 40
1.0
 40
1.0
 10
1554.656130594759
 20
1611.932074186773
 30
0.0
 10
1555.85252200527
 20
1613.780436716585
 30
0.0
 10
1558.242654234554
 20
1617.473066749775
 30
0.0
 10
1561.445213802479
 20
1623.204008149348
 30
0.0
 10
1563.282462868872
 20
1627.082798051004
 30
0.0
 10
1564.204179175987
 20
1629.028720337551
 30
0.0
  0
SPLINE
  5
263
330
1F
100
AcDbEntity
  8
0
  6
Continuous
 62
     7
370
    15
100
AcDbSpline
210
0.0
220
0.0
230
1.0
 70
     8
 71
     3
 72
    12
 73
     8
 74
     0
 42
0.000000001
 43
0.00000001
 40
0.0
 40
0.0
 40
0.0
 40
0.0
 40
0.2010946341189831
 40
0.4020258790357041
 40
0.601732955057195
 40
0.8008022906970038
 40
0.9999999999999999
 40
0.9999999999999999
 40
0.9999999999999999
 40
0.9999999999999999
 10
1564.204179175987
 20
1629.028720337551
 30
0.0
 10
1565.34195579029
 20
1631.702552499794
 30
0.0
 10
1567.616584576462
 20
1637.048044338147
 30
0.0
 10
1570.190681719105
 20
1645.020288234991
 30
0.0
 10
1572.290983807042
 20
1652.865676901006
 30
0.0
 10
1573.975131523164
 20
1660.586656539478
 30
0.0
 10
1574.842529784564
 20
1665.643134313261
 30
0.0
 10
1575.276368709774
 20
1668.172188128958
 30
0.0
  0
SPLINE
  5
264
330
1F
100
AcDbEntity
  8
0
  6
Continuous
 62
     7
370
    15
100
AcDbSpline
210
0.0
220
0.0
230
1.0
 70
     8
 71
     3
 72
    21
 73
    17
 74
     0
 42
0.000000001
 43
0.00000001
 40
0.0
 40
0.0
 40
0.0
 40
0.0
 40
0.0654416661861111
 40
0.1298641123915758
 40
0.1941048209408086
 40
0.2580853886433779
 40
0.3420481914052742
 40
0.4256162837794482
 40
0.508168680171062
 40
0.5901129732712193
 40
0.6721710145541492
 40
0.7532535761449234
 40
0.8140924864900675
 40
0.8756122978180905
 40
0.9376949808199375
 40
1.0
 40
1.0
 40
1.0
 40
1.0
 10
1447.5835917189
 20
1314.980400963103
 30
0.0
 10
1449.088954879415
 20
1314.425977393548
 30
0.0
 10
1452.076235950642
 20
1313.325765113737
 30
0.0
 10
1456.851993569187
 20
1312.463029156938
 30
0.0
 10
1461.74413781515
 20
1312.106406303412
 30
0.0
 10
1467.287737713208
 20
1312.259619129505
 30
0.0
 10
1473.486412305795
 20
1313.001850856018
 30
0.0
 10
1480.320609642963
 20
1314.419644371188
 30
0.0
 10
1487.185629763868
 20
1316.355671355612
 30
0.0
 10
1494.035531673853
 20
1318.738613448044
 30
0.0
 10
1500.803808823965
 20
1321.50083106574
 30
0.0
 10
1506.872701951602
 20
1324.335861467932
 30
0.0
 10
1512.20595561378
 20
1327.128443698137
 30
0.0
 10
1516.840367967754
 20
1329.813848383813
 30
0.0
 10
1521.284589977967
 20
1332.644762596856
 30
0.0
 10
1523.981914342928
 20
1334.624331562833
 30
0.0
 10
1525.332987184904
 20
1335.615885231161
 30
0.0
  0
SPLINE
  5
265
330
1F
100
AcDbEntity
  8
0
  6
Continuous
 62
     7
370
    15
100
AcDbSpline
210
0.0
220
0.0
230
1.0
 70
     8
 71
     3
 72
    15
 73
    11
 74
     0
 42
0.000000001
 43
0.00000001
 40
0.0
 40
0.0
 40
0.0
 40
0.0
 40
0.1243467712679925
 40
0.2485436876698303
 40
0.373082592925179
 40
0.4976496018787296
 40
0.6228026399349363
 40
0.7477918261391974
 40
0.8738744707275412
 40
1.0
 40
1.0
 40
1.0
 40
1.0
 10
1785.917037722069
 20
1734.038499581686
 30
0.0
 10
1785.814599421386
 20
1735.992336851787
 30
0.0
 10
1785.609846272183
 20
1739.897656750854
 30
0.0
 10
1784.724730714669
 20
1745.900021990153
 30
0.0
 10
1783.467926031403
 20
1751.797504522028
 30
0.0
 10
1781.82543646286
 20
1757.476191754255
 30
0.0
 10
1779.848376554022
 20
1762.794454799114
 30
0.0
 10
1777.562069930683
 20
1767.626427296463
 30
0.0
 10
1775.024418291864
 20
1771.922242880279
 30
0.0
 10
1773.161581053028
 20
1774.167975876983
 30
0.0
 10
1772.230004058119
 20
1775.29103330402
 30
0.0
  0
SPLINE
  5
266
330
1F
100
AcDbEntity
  8
0
  6
Continuous
 62
     7
370
    15
100
AcDbSpline
210
0.0
220
0.0
230
1.0
 70
     8
 71
     3
 72
    20
 73
    16
 74
     0
 42
0.000000001
 43
0.00000001
 40
0.0
 40
0.0
 40
0.0
 40
0.0
 40
0.0539528390076867
 40
0.1084850807084102
 40
0.1636877918662224
 40
0.2193813558346966
 40
0.2752989916317822
 40
0.3855508593105524
 40
0.4957833022560188
 40
0.5791780437002542
 40
0.6627588731060625
 40
0.7466272889816536
 40
0.8306886980584846
 40
0.9148720559089073
 40
1.0
 40
1.0
 40
1.0
 40
1.0
 10
1525.332987184904
 20
1335.615885231161
 30
0.0
 10
1528.634247694413
 20
1338.038722205574
 30
0.0
 10
1535.272221143086
 20
1342.910415142344
 30
0.0
 10
1545.348559853841
 20
1349.431565859201
 30
0.0
 10
1555.522717004864
 20
1355.677289303592
 30
0.0
 10
1565.771024682517
 20
1361.755125128981
 30
0.0
 10
1579.379064530609
 20
1369.675765130476
 30
0.0
 10
1596.287281368425
 20
1379.369987876306
 30
0.0
 10
1614.847935201591
 20
1389.942850379843
 30
0.0
 10
1631.750952245633
 20
1399.346639868802
 30
0.0
 10
1647.015694161404
 20
1407.692860165917
 30
0.0
 10
1662.296762209634
 20
1416.028676967035
 30
0.0
 10
1677.595514569637
 20
1424.502492634063
 30
0.0
 10
1692.921341718352
 20
1433.129125575837
 30
0.0
 10
1703.101100168886
 20
1439.227640664899
 30
0.0
 10
1708.219375784871
 20
1442.293909990024
 30
0.0
  0
SPLINE
  5
267
330
1F
100
AcDbEntity
  8
0
  6
Continuous
 62
     7
370
    15
100
AcDbSpline
210
0.0
220
0.0
230
1.0
 70
     8
 71
     3
 72
    15
 73
    11
 74
     0
 42
0.000000001
 43
0.00000001
 40
0.0
 40
0.0
 40
0.0
 40
0.0
 40
0.1249037694717055
 40
0.2488877559298681
 40
0.3728280735369134
 40
0.4975607728503813
 40
0.6233623369656758
 40
0.7487506004082428
 40
0.8741787844425116
 40
1.0
 40
1.0
 40
1.0
 40
1.0
 10
1777.008207841678
 20
1665.64778464249
 30
0.0
 10
1777.783647594106
 20
1667.902468606268
 30
0.0
 10
1779.328816812434
 20
1672.395233191751
 30
0.0
 10
1781.265510697025
 20
1679.879474265277
 30
0.0
 10
1782.915355233631
 20
1687.844680155655
 30
0.0
 10
1784.23822391323
 20
1696.338169857276
 30
0.0
 10
1785.223194478112
 20
1705.275727541431
 30
0.0
 10
1785.841562753786
 20
1714.585861024942
 30
0.0
 10
1786.111903373245
 20
1724.167072104327
 30
0.0
 10
1785.982060643815
 20
1730.744593998517
 30
0.0
 10
1785.917037722069
 20
1734.038499581686
 30
0.0
  0
LINE
  5
268
330
1F
100
AcDbEntity
  8
0
  6
Continuous
 62
     7
370
    15
100
AcDbLine
 10
1420.8283974695
 20
1326.5867283831
 30
0.0
 11
1447.5835917189
 21
1314.9804009631
 31
0.0
  0
SPLINE
  5
269
330
1F
100
AcDbEntity
  8
0
  6
Continuous
 62
     7
370
    15
100
AcDbSpline
210
0.0
220
0.0
230
1.0
 70
     8
 71
     3
 72
    22
 73
    18
 74
     0
 42
0.000000001
 43
0.00000001
 40
0.0
 40
0.0
 40
0.0
 40
0.0
 40
0.0717110056959491
 40
0.1433468246910717
 40
0.2147726585048934
 40
0.2860567782925217
 40
0.3573137672900118
 40
0.4287223875583851
 40
0.5004006674301124
 40
0.5629643442333235
 40
0.6253103762336872
 40
0.6875261629780469
 40
0.7497358584494017
 40
0.8120612618539286
 40
0.8745642216251341
 40
0.9372451475071581
 40
1.0
 40
1.0
 40
1.0
 40
1.0
 10
1772.230004058119
 20
1775.29103330402
 30
0.0
 10
1768.039199409225
 20
1779.811516318064
 30
0.0
 10
1759.661984036362
 20
1788.847742763981
 30
0.0
 10
1745.825818939647
 20
1801.974689140868
 30
0.0
 10
1730.921799920836
 20
1814.660193104033
 30
0.0
 10
1714.975857555349
 20
1826.874143761152
 30
0.0
 10
1698.141621880253
 20
1838.68032587454
 30
0.0
 10
1680.485684643272
 20
1850.118304308355
 30
0.0
 10
1662.828651927997
 20
1860.711132282188
 30
0.0
 10
1645.327571649758
 20
1870.480003895929
 30
0.0
 10
1628.129682783675
 20
1879.44713885505
 30
0.0
 10
1610.450260557868
 20
1888.058498484208
 30
0.0
 10
1592.245539109312
 20
1896.296156830917
 30
0.0
 10
1573.454694867256
 20
1904.115380662014
 30
0.0
 10
1554.039380347728
 20
1911.465025761865
 30
0.0
 10
1534.034855570903
 20
1918.326822505402
 30
0.0
 10
1520.337157308255
 20
1922.550511813027
 30
0.0
 10
1513.484271751194
 20
1924.663601099908
 30
0.0
  0
SPLINE
  5
26A
330
1F
100
AcDbEntity
  8
0
  6
Continuous
 62
     7
370
    15
100
AcDbSpline
210
0.0
220
0.0
230
1.0
 70
     8
 71
     3
 72
    12
 73
     8
 74
     0
 42
0.000000001
 43
0.00000001
 40
0.0
 40
0.0
 40
0.0
 40
0.0
 40
0.0667035260108951
 40
0.3005025341602927
 40
0.5340244941767027
 40
0.7660322697326509
 40
1.0
 40
1.0
 40
1.0
 40
1.0
 10
1769.866548054646
 20
1657.961394830686
 30
0.0
 10
1770.06841223576
 20
1657.981401325798
 30
0.0
 10
1770.977819902919
 20
1658.071531530908
 30
0.0
 10
1772.44971107381
 20
1658.892134328781
 30
0.0
 10
1774.221009332267
 20
1660.4565750433
 30
0.0
 10
1775.779037139806
 20
1662.675910569915
 30
0.0
 10
1776.597336981871
 20
1664.654386041648
 30
0.0
 10
1777.008207841678
 20
1665.64778464249
 30
0.0
  0
SPLINE
  5
26B
330
1F
100
AcDbEntity
  8
0
  6
Continuous
 62
     7
370
    15
100
AcDbSpline
210
0.0
220
0.0
230
1.0
 70
     8
 71
     3
 72
    14
 73
    10
 74
     0
 42
0.000000001
 43
0.00000001
 40
0.0
 40
0.0
 40
0.0
 40
0.0
 40
0.1616560107858882
 40
0.3258908893493888
 40
0.4918255020773899
 40
0.6590726806131341
 40
0.8255469272791933
 40
0.990629951711432
 40
1.0
 40
1.0
 40
1.0
 40
1.0
 10
1708.219375784872
 20
1442.293909990024
 30
0.0
 10
1709.794150896695
 20
1443.373733251859
 30
0.0
 10
1712.968823209975
 20
1445.550605991874
 30
0.0
 10
1716.539116664394
 20
1449.467435423897
 30
0.0
 10
1719.151213833124
 20
1453.836458223422
 30
0.0
 10
1720.692418732221
 20
1458.610479743169
 30
0.0
 10
1720.963333723443
 20
1463.588817779253
 30
0.0
 10
1720.684190272483
 20
1467.115302525977
 30
0.0
 10
1719.957464080737
 20
1468.80790590402
 30
0.0
 10
1719.91843089317
 20
1468.898817317263
 30
0.0
  0
SPLINE
  5
26C
330
1F
100
AcDbEntity
  8
0
  6
Continuous
 62
     7
370
    15
100
AcDbSpline
210
0.0
220
0.0
230
1.0
 70
     8
 71
     3
 72
    11
 73
     7
 74
     0
 42
0.000000001
 43
0.00000001
 40
0.0
 40
0.0
 40
0.0
 40
0.0
 40
0.2575310611538587
 40
0.5166246856925653
 40
0.7758186335297984
 40
1.0
 40
1.0
 40
1.0
 40
1.0
 10
1695.972540188575
 20
1678.033760282305
 30
0.0
 10
1696.122623431131
 20
1679.618290086562
 30
0.0
 10
1696.423700542629
 20
1682.796963790724
 30
0.0
 10
1697.724847726033
 20
1686.870987854723
 30
0.0
 10
1699.452851365362
 20
1690.195098944473
 30
0.0
 10
1700.978991310789
 20
1691.665090009407
 30
0.0
 10
1701.686789430105
 20
1692.346847219346
 30
0.0
  0
SPLINE
  5
26D
330
1F
100
AcDbEntity
  8
0
  6
Continuous
 62
     7
370
    15
100
AcDbSpline
210
0.0
220
0.0
230
1.0
 70
     8
 71
     3
 72
    12
 73
     8
 74
     0
 42
0.000000001
 43
0.00000001
 40
0.0
 40
0.0
 40
0.0
 40
0.0
 40
0.2049283124859686
 40
0.4060936429683146
 40
0.60505038375449
 40
0.8028164325219233
 40
1.0
 40
1.0
 40
1.0
 40
1.0
 10
1693.243849242045
 20
1607.0524231876
 30
0.0
 10
1693.539849784177
 20
1611.932056816049
 30
0.0
 10
1694.1264155789
 20
1621.601722137005
 30
0.0
 10
1694.482529449807
 20
1635.797539702242
 30
0.0
 10
1694.851835236469
 20
1649.862823095046
 30
0.0
 10
1695.289506896336
 20
1663.897266705706
 30
0.0
 10
1695.745086391065
 20
1673.326231112034
 30
0.0
 10
1695.972540188575
 20
1678.033760282305
 30
0.0
  0
SPLINE
  5
26E
330
1F
100
AcDbEntity
  8
0
  6
Continuous
 62
     7
370
    15
100
AcDbSpline
210
0.0
220
0.0
230
1.0
 70
     8
 71
     3
 72
    13
 73
     9
 74
     0
 42
0.000000001
 43
0.00000001
 40
0.0
 40
0.0
 40
0.0
 40
0.0
 40
0.097388827504024
 40
0.2713571902881678
 40
0.4477761533280094
 40
0.6287749583070593
 40
0.81199840384943
 40
1.0
 40
1.0
 40
1.0
 40
1.0
 10
1671.787264878675
 20
1513.637422725647
 30
0.0
 10
1671.497134607489
 20
1514.410056347001
 30
0.0
 10
1670.688736588698
 20
1516.562866828308
 30
0.0
 10
1670.355658706115
 20
1520.581939690058
 30
0.0
 10
1670.656408261029
 20
1525.554572112529
 30
0.0
 10
1671.81222803317
 20
1530.806537297961
 30
0.0
 10
1673.662653927024
 20
1536.235020653233
 30
0.0
 10
1675.397805489328
 20
1539.801791736169
 30
0.0
 10
1676.276548102674
 20
1541.608131776263
 30
0.0
  0
SPLINE
  5
26F
330
1F
100
AcDbEntity
  8
0
  6
Continuous
 62
     7
370
    15
100
AcDbSpline
210
0.0
220
0.0
230
1.0
 70
     8
 71
     3
 72
    12
 73
     8
 74
     0
 42
0.000000001
 43
0.00000001
 40
0.0
 40
0.0
 40
0.0
 40
0.0
 40
0.2092194882706303
 40
0.4134277899921625
 40
0.6124851858282939
 40
0.8076435049411902
 40
1.0
 40
1.0
 40
1.0
 40
1.0
 10
1685.048209086815
 20
1562.32981731717
 30
0.0
 10
1686.031759161654
 20
1565.521309945326
 30
0.0
 10
1687.975301501557
 20
1571.827853159541
 30
0.0
 10
1689.990764441286
 20
1581.108027533434
 30
0.0
 10
1691.489919041021
 20
1590.044608710062
 30
0.0
 10
1692.558662009779
 20
1598.674958561627
 30
0.0
 10
1693.01641529776
 20
1604.271580317239
 30
0.0
 10
1693.243637109308
 20
1607.049658743429
 30
0.0
  0
SPLINE
  5
270
330
1F
100
AcDbEntity
  8
0
  6
Continuous
 62
     7
370
    15
100
AcDbSpline
210
0.0
220
0.0
230
1.0
 70
     8
 71
     3
 72
    14
 73
    10
 74
     0
 42
0.000000001
 43
0.00000001
 40
0.0
 40
0.0
 40
0.0
 40
0.0
 40
0.1663260936879897
 40
0.3320262528587031
 40
0.4980523413387003
 40
0.6627743479395747
 40
0.828110848826371
 40
0.9917363453493346
 40
1.0
 40
1.0
 40
1.0
 40
1.0
 10
1513.484271751194
 20
1924.663601099908
 30
0.0
 10
1511.672657768334
 20
1925.127630242483
 30
0.0
 10
1508.056247444384
 20
1926.053942248076
 30
0.0
 10
1502.667294510552
 20
1926.33757622454
 30
0.0
 10
1497.489897037053
 20
1925.824160974105
 30
0.0
 10
1492.601243511987
 20
1924.472576329615
 30
0.0
 10
1488.247399657361
 20
1922.241741924646
 30
0.0
 10
1485.442559746087
 20
1920.391261386134
 30
0.0
 10
1484.3438486928
 20
1919.116201413073
 30
0.0
 10
1484.291027623854
 20
1919.054902283929
 30
0.0
  0
SPLINE
  5
271
330
1F
100
AcDbEntity
  8
0
  6
Continuous
 62
     7
370
    15
100
AcDbSpline
210
0.0
220
0.0
230
1.0
 70
     8
 71
     3
 72
    10
 73
     6
 74
     0
 42
0.000000001
 43
0.00000001
 40
0.0
 40
0.0
 40
0.0
 40
0.0
 40
0.4262582758657614
 40
0.8542520364662297
 40
1.0
 40
1.0
 40
1.0
 40
1.0
 10
1519.947506816406
 20
1864.088721235097
 30
0.0
 10
1520.152682836571
 20
1865.211100169239
 30
0.0
 10
1520.563870238631
 20
1867.460427735328
 30
0.0
 10
1521.627215649351
 20
1869.828924608651
 30
0.0
 10
1522.553978291464
 20
1870.896241874487
 30
0.0
 10
1522.789404376208
 20
1871.167373136859
 30
0.0
  0
SPLINE
  5
272
330
1F
100
AcDbEntity
  8
0
  6
Continuous
 62
     7
370
    15
100
AcDbSpline
210
0.0
220
0.0
230
1.0
 70
     8
 71
     3
 72
    19
 73
    15
 74
     0
 42
0.000000001
 43
0.00000001
 40
0.0
 40
0.0
 40
0.0
 40
0.0
 40
0.0265405204966194
 40
0.1150614852593471
 40
0.2043311118598272
 40
0.2931881945176444
 40
0.3824225633947083
 40
0.4711847330206026
 40
0.5598020906980073
 40
0.6482908103465012
 40
0.7361088511841103
 40
0.8242034313367297
 40
0.9117397956216191
 40
1.0
 40
1.0
 40
1.0
 40
1.0
 10
1547.539272385319
 20
1840.453804864164
 30
0.0
 10
1547.25546597124
 20
1840.327304178141
 30
0.0
 10
1546.025076102504
 20
1839.778884005973
 30
0.0
 10
1543.502443775843
 20
1839.479679041335
 30
0.0
 10
1540.103596841336
 20
1839.587843113576
 30
0.0
 10
1536.576705646494
 20
1840.420646244704
 30
0.0
 10
1533.088223119125
 20
1841.889488473681
 30
0.0
 10
1529.750344679076
 20
1843.974126283702
 30
0.0
 10
1526.700107653131
 20
1846.606326320368
 30
0.0
 10
1524.070732022574
 20
1849.700220415256
 30
0.0
 10
1521.977051559633
 20
1853.148011515785
 30
0.0
 10
1520.544854163311
 20
1856.797666804213
 30
0.0
 10
1519.773638610913
 20
1860.530919840399
 30
0.0
 10
1519.889391877051
 20
1862.899536520701
 30
0.0
 10
1519.947506816406
 20
1864.088721235097
 30
0.0
  0
SPLINE
  5
273
330
1F
100
AcDbEntity
  8
0
  6
Continuous
 62
     7
370
    15
100
AcDbSpline
210
0.0
220
0.0
230
1.0
 70
     8
 71
     3
 72
    10
 73
     6
 74
     0
 42
0.000000001
 43
0.00000001
 40
0.0
 40
0.0
 40
0.0
 40
0.0
 40
0.3326757648338818
 40
0.6655400746263371
 40
1.0
 40
1.0
 40
1.0
 40
1.0
 10
1676.276548102674
 20
1541.608131776262
 30
0.0
 10
1677.39663251113
 20
1543.85356898172
 30
0.0
 10
1679.637436139142
 20
1548.345716000712
 30
0.0
 10
1682.58198905991
 20
1555.290816233029
 30
0.0
 10
1684.224826367619
 20
1559.979746443581
 30
0.0
 10
1685.048209086815
 20
1562.32981731717
 30
0.0
  0
LINE
  5
274
330
1F
100
AcDbEntity
  8
0
  6
Continuous
 62
     7
370
    15
100
AcDbLine
 10
1558.8768898453
 20
961.5495572984
 30
0.0
 11
1524.2706241118
 21
949.969125908
 31
0.0
  0
LINE
  5
275
330
1F
100
AcDbEntity
  8
0
  6
Continuous
 62
     7
370
    15
100
AcDbLine
 10
1559.214050602
 20
954.3054728444
 30
0.0
 11
1558.8768898453
 21
961.5495572984
 31
0.0
  0
LINE
  5
276
330
1F
100
AcDbEntity
  8
0
  6
Continuous
 62
     7
370
    15
100
AcDbLine
 10
1524.6077848685
 20
942.725041454
 30
0.0
 11
1524.2706241118
 21
949.969125908
 31
0.0
  0
LWPOLYLINE
  5
277
330
1F
100
AcDbEntity
  8
0
  6
Continuous
 62
     7
370
    15
100
AcDbPolyline
 90
        6
 70
   128
 43
0.0
 10
1524.2706241118
 20
949.969125908
 10
1523.9960473824
 20
949.0347348056
 10
1523.55087192
 20
948.4134869357
 10
1522.9613114497
 20
948.1419638764
 10
1522.2620816676
 20
948.2361539995
 10
1522.032047242
 20
948.3379527439
  0
ARC
  5
278
330
1F
100
AcDbEntity
  8
0
  6
Continuous
 62
     7
370
    15
100
AcDbCircle
 10
1557.7897363026
 20
954.2384483461
 30
0.0
 40
1.425890426019879
100
AcDbArc
 50
0.031072241
 51
2.6942017276
  0
ARC
  5
279
330
1F
100
AcDbEntity
  8
0
  6
Continuous
 62
     7
370
    15
100
AcDbCircle
 10
1523.1834705697
 20
942.6580169557
 30
0.0
 40
1.425890425282951
100
AcDbArc
 50
0.0310722403
 51
2.6942017283
  0
LINE
  5
27A
330
1F
100
AcDbEntity
  8
0
  6
Continuous
 62
     7
370
    15
100
AcDbLine
 10
1559.2156265189
 20
953.0468021848
 30
0.0
 11
1559.2156265189
 21
954.2392216248
 31
0.0
  0
LINE
  5
27B
330
1F
100
AcDbEntity
  8
0
  6
Continuous
 62
     7
370
    15
100
AcDbLine
 10
1524.6093607853
 20
941.4663707944
 30
0.0
 11
1524.6093607853
 21
942.6587902344
 31
0.0
  0
ARC
  5
27C
330
1F
100
AcDbEntity
  8
0
  6
Continuous
 62
     7
370
    15
100
AcDbCircle
 10
1558.7813121038
 20
952.9627809583
 30
0.0
 40
0.4423670169267949
100
AcDbArc
 50
304.4357224295
 51
10.9490235029
  0
LWPOLYLINE
  5
27D
330
1F
100
AcDbEntity
  8
0
  6
Continuous
 62
     7
370
    15
100
AcDbPolyline
 90
        9
 70
   128
 43
0.0
 10
1524.107859058
 20
941.1492742818
 10
1524.2056971915
 20
941.0675271353
 10
1524.2997754604
 20
941.0203006914
 10
1524.3864784895
 20
941.0094098357
 10
1524.4624743302
 20
941.0352730976
 10
1524.5248425048
 20
941.0968965667
 10
1524.5711862394
 20
941.1919120874
 10
1524.5997245703
 20
941.3166682667
 10
1524.6093607853
 20
941.4663707944
  0
LINE
  5
27E
330
1F
100
AcDbEntity
  8
0
  6
Continuous
 62
     7
370
    15
100
AcDbLine
 10
1518.1829214897
 20
947.0499045901
 30
0.0
 11
1524.107859058
 21
941.1492742818
 31
0.0
  0
LINE
  5
27F
330
1F
100
AcDbEntity
  8
0
  6
Continuous
 62
     7
370
    15
100
AcDbLine
 10
1814.5367714848
 20
1112.3094039898
 30
0.0
 11
1815.016910927
 21
1105.9881358596
 31
0.0
  0
ARC
  5
280
330
1F
100
AcDbEntity
  8
0
  6
Continuous
 62
     7
370
    15
100
AcDbCircle
 10
1814.0247380266
 20
1105.911986769
 30
0.0
 40
0.9950908241421867
100
AcDbArc
 50
0.0473156597
 51
4.3888366792
  0
LINE
  5
281
330
1F
100
AcDbEntity
  8
0
  6
Continuous
 62
     7
370
    15
100
AcDbLine
 10
1815.0198285114
 20
1105.9128085288
 30
0.0
 11
1815.0198285114
 21
1103.8714564991
 31
0.0
  0
ARC
  5
282
330
1F
100
AcDbEntity
  8
0
  6
Continuous
 62
     7
370
    15
100
AcDbCircle
 10
1814.5815363514
 20
1103.8046761208
 30
0.0
 40
0.4433504668938604
100
AcDbArc
 50
231.3537786309
 51
8.663241317
  0
LINE
  5
283
330
1F
100
AcDbEntity
  8
0
  6
Continuous
 62
     7
370
    15
100
AcDbLine
 10
1814.3046596143
 20
1103.4584119024
 30
0.0
 11
1807.2097015929
 21
1107.4613666169
 31
0.0
  0
ARC
  5
284
330
1F
100
AcDbEntity
  8
0
  6
Continuous
 62
     7
370
    15
100
AcDbCircle
 10
1812.055675747
 20
1112.6729273668
 30
0.0
 40
2.507585553018266
100
AcDbArc
 50
264.3350918392
 51
351.664488076
  0
LINE
  5
285
330
1F
100
AcDbEntity
  8
0
  6
Continuous
 62
     7
370
    15
100
AcDbLine
 10
1814.5367714848
 20
1112.3094039898
 30
0.0
 11
1842.4948386144
 21
1128.823732646
 31
0.0
  0
LINE
  5
286
330
1F
100
AcDbEntity
  8
0
  6
Continuous
 62
     7
370
    15
100
AcDbLine
 10
1842.4948386144
 20
1128.823732646
 30
0.0
 11
1842.9749780566
 21
1122.5024645158
 31
0.0
  0
ARC
  5
287
330
1F
100
AcDbEntity
  8
0
  6
Continuous
 62
     7
370
    15
100
AcDbCircle
 10
1841.9828051562
 20
1122.4263154251
 30
0.0
 40
0.9950908241374086
100
AcDbArc
 50
0.0473156597
 51
4.3888366792
  0
LINE
  5
288
330
1F
100
AcDbEntity
  8
0
  6
Continuous
 62
     7
370
    15
100
AcDbLine
 10
1842.977895641
 20
1122.427137185
 30
0.0
 11
1842.977895641
 21
1120.3857851553
 31
0.0
  0
ARC
  5
289
330
1F
100
AcDbEntity
  8
0
  6
Continuous
 62
     7
370
    15
100
AcDbCircle
 10
1842.4744262873
 20
1120.337721197
 30
0.0
 40
0.5057583753748501
100
AcDbArc
 50
305.9450657262
 51
5.4532445066
  0
LINE
  5
28A
330
1F
100
AcDbEntity
  8
0
  6
Continuous
 62
     7
370
    15
100
AcDbLine
 10
1187.6659370065
 20
1146.9423478559
 30
0.0
 11
1188.2475837937
 21
1139.8394021832
 31
0.0
  0
ARC
  5
28B
330
1F
100
AcDbEntity
  8
0
  6
Continuous
 62
     7
370
    15
100
AcDbCircle
 10
1187.4465045944
 20
1139.773346618
 30
0.0
 40
0.8037979978557543
100
AcDbArc
 50
0.033077366
 51
4.7138436107
  0
LINE
  5
28C
330
1F
100
AcDbEntity
  8
0
  6
Continuous
 62
     7
370
    15
100
AcDbLine
 10
1188.2503024583
 20
1139.7738106578
 30
0.0
 11
1188.2503024583
 21
1138.5813912178
 31
0.0
  0
ARC
  5
28D
330
1F
100
AcDbEntity
  8
0
  6
Continuous
 62
     7
370
    15
100
AcDbCircle
 10
1187.6565140384
 20
1138.5825138534
 30
0.0
 40
0.5937894810722373
100
AcDbArc
 50
242.8056106178
 51
359.891674878
  0
LINE
  5
28E
330
1F
100
AcDbEntity
  8
0
  6
Continuous
 62
     7
370
    15
100
AcDbLine
 10
1187.3851458149
 20
1138.0543611907
 30
0.0
 11
1180.545985507
 21
1140.3429764179
 31
0.0
  0
ARC
  5
28F
330
1F
100
AcDbEntity
  8
0
  6
Continuous
 62
     7
370
    15
100
AcDbCircle
 10
1184.3763510346
 20
1147.806186635
 30
0.0
 40
3.40111647885294
100
AcDbArc
 50
283.6111326656
 51
345.2864418705
  0
LINE
  5
290
330
1F
100
AcDbEntity
  8
0
  6
Continuous
 62
     7
370
    15
100
AcDbLine
 10
1207.7260060985
 20
1166.9201198251
 30
0.0
 11
1187.6659370065
 21
1146.9423478559
 31
0.0
  0
LINE
  5
291
330
1F
100
AcDbEntity
  8
0
  6
Continuous
 62
     7
370
    15
100
AcDbLine
 10
1207.7260060985
 20
1166.9201198251
 30
0.0
 11
1208.3076528858
 21
1159.8171741523
 31
0.0
  0
ARC
  5
292
330
1F
100
AcDbEntity
  8
0
  6
Continuous
 62
     7
370
    15
100
AcDbCircle
 10
1207.5065736862
 20
1159.7511185872
 30
0.0
 40
0.8037979979962594
100
AcDbArc
 50
0.0330773666
 51
4.7138436105
  0
LINE
  5
293
330
1F
100
AcDbEntity
  8
0
  6
Continuous
 62
     7
370
    15
100
AcDbLine
 10
1208.3103715503
 20
1159.7515826269
 30
0.0
 11
1208.3103715503
 21
1158.559163187
 31
0.0
  0
ARC
  5
294
330
1F
100
AcDbEntity
  8
0
  6
Continuous
 62
     7
370
    15
100
AcDbCircle
 10
1207.7410641154
 20
1158.5359815606
 30
0.0
 40
0.5697792056908834
100
AcDbArc
 50
315.9909932164
 51
2.3317383992
  0
LINE
  5
295
330
1F
100
AcDbEntity
  8
0
  6
Continuous
 62
     7
370
    15
100
AcDbLine
 10
1467.2449234483
 20
1306.6216392076
 30
0.0
 11
1466.8224446424
 21
1312.3184898372
 31
0.0
  0
ARC
  5
296
330
1F
100
AcDbEntity
  8
0
  6
Continuous
 62
     7
370
    15
100
AcDbCircle
 10
1466.2281753511
 20
1306.5454342382
 30
0.0
 40
1.019599867878703
100
AcDbArc
 50
0.0471721312
 51
4.2862877162
  0
LINE
  5
297
330
1F
100
AcDbEntity
  8
0
  6
Continuous
 62
     7
370
    15
100
AcDbLine
 10
1467.2477748734
 20
1304.5049216541
 30
0.0
 11
1467.2477748734
 21
1306.5462736838
 31
0.0
  0
ARC
  5
298
330
1F
100
AcDbEntity
  8
0
  6
Continuous
 62
     7
370
    15
100
AcDbCircle
 10
1466.8239236194
 20
1304.4318568299
 30
0.0
 40
0.4301027250389519
100
AcDbArc
 50
230.2368362497
 51
9.7807032859
  0
LINE
  5
299
330
1F
100
AcDbEntity
  8
0
  6
Continuous
 62
     7
370
    15
100
AcDbLine
 10
1459.4823645902
 20
1308.2752693769
 30
0.0
 11
1466.5488231952
 21
1304.1012390586
 31
0.0
  0
ARC
  5
29A
330
1F
100
AcDbEntity
  8
0
  6
Continuous
 62
     7
370
    15
100
AcDbCircle
 10
1464.4020608532
 20
1313.1570764352
 30
0.0
 40
2.323897829308048
100
AcDbArc
 50
261.5543584785
 51
337.3087716423
  0
ELLIPSE
  5
29B
330
1F
100
AcDbEntity
  8
0
  6
Continuous
 62
     7
370
    15
100
AcDbEllipse
 10
1519.4665367683
 20
1219.1188230513
 30
0.0
 11
-4.069324983902334
 21
7.822255399582674
 31
0.0
210
0.0
220
0.0
230
1.0
 40
0.4947778099
 41
0.6599986786743507
 42
1.497207781160094
  0
ELLIPSE
  5
29C
330
1F
100
AcDbEntity
  8
0
  6
Continuous
 62
     7
370
    15
100
AcDbEllipse
 10
1519.4665367683
 20
1219.1188230513
 30
0.0
 11
6.295391119807846
 21
3.275013542594934
 31
0.0
210
0.0
220
0.0
230
1.0
 40
0.1156389626
 41
2.230795005463013
 42
3.068004107948699
  0
ELLIPSE
  5
29D
330
1F
100
AcDbEntity
  8
0
  6
Continuous
 62
     7
370
    15
100
AcDbEllipse
 10
1226.6801302531
 20
1388.1408177981
 30
0.0
 11
6.853989810640087
 21
2.965377967216909
 31
0.0
210
0.0
220
0.0
230
1.0
 40
0.0556554216
 41
0.0413203390268458
 42
2.198526798734979
  0
ELLIPSE
  5
29E
330
1F
100
AcDbEntity
  8
0
  6
Continuous
 62
     7
370
    15
100
AcDbEllipse
 10
1226.6801302531
 20
1388.1408177981
 30
0.0
 11
-3.233630040537264
 21
7.474010933595537
 31
0.0
210
0.0
220
0.0
230
1.0
 40
0.5390481187
 41
1.529475987888074
 42
2.513862181651565
  0
ENDSEC
  0
SECTION
  2
OBJECTS
  0
DICTIONARY
  5
C
330
0
100
AcDbDictionary
281
     1
  3
ACAD_GROUP
350
D
  3
ACAD_LAYOUT
350
1A
  3
ACAD_MLINESTYLE
350
17
  3
ACAD_PLOTSETTINGS
350
19
  3
ACAD_PLOTSTYLENAME
350
E
  3
ACAD_SCALELIST
350
47
  0
DICTIONARY
  5
D
102
{ACAD_REACTORS
330
C
102
}
330
C
100
AcDbDictionary
281
     1
  0
DICTIONARY
  5
1A
102
{ACAD_REACTORS
330
C
102
}
330
C
100
AcDbDictionary
281
     1
  3
Layout1
350
1E
  3
Layout2
350
26
  3
Model
350
22
  0
DICTIONARY
  5
17
102
{ACAD_REACTORS
330
C
102
}
330
C
100
AcDbDictionary
281
     1
  3
Standard
350
18
  0
DICTIONARY
  5
19
102
{ACAD_REACTORS
330
C
102
}
330
C
100
AcDbDictionary
281
     1
  0
ACDBDICTIONARYWDFLT
  5
E
102
{ACAD_REACTORS
330
C
102
}
330
C
100
AcDbDictionary
281
     1
  3
Normal
350
F
100
AcDbDictionaryWithDefault
340
F
  0
DICTIONARY
  5
47
102
{ACAD_REACTORS
330
C
102
}
330
C
100
AcDbDictionary
281
     1
  3
A0
350
48
  3
A1
350
49
  3
A2
350
4A
  3
A3
350
4B
  3
A4
350
4C
  3
A5
350
4D
  3
A6
350
4E
  3
A7
350
4F
  3
A8
350
50
  3
A9
350
51
  3
B0
350
52
  3
B1
350
53
  3
B2
350
54
  3
B3
350
55
  3
B4
350
56
  3
B5
350
57
  3
B6
350
58
  3
B7
350
59
  3
B8
350
5A
  3
B9
350
5B
  3
C0
350
5C
  3
C1
350
5D
  3
C2
350
5E
  3
C3
350
5F
  3
C4
350
60
  3
C5
350
61
  3
C6
350
62
  3
C7
350
63
  3
C8
350
64
  3
C9
350
65
  3
D0
350
66
  3
D1
350
67
  3
D2
350
68
  0
LAYOUT
  5
1E
102
{ACAD_REACTORS
330
1A
102
}
330
1A
100
AcDbPlotSettings
  1

  2
none_device
  4

  6

 40
0.0
 41
0.0
 42
0.0
 43
0.0
 44
0.0
 45
0.0
 46
0.0
 47
0.0
 48
0.0
 49
0.0
140
0.0
141
0.0
142
1.0
143
1.0
 70
   688
 72
     1
 73
     0
 74
     5
  7

 75
    16
147
1.0
148
0.0
149
0.0
100
AcDbLayout
  1
Layout1
 70
     1
 71
     1
 10
0.0
 20
0.0
 11
420.0
 21
297.0
 12
0.0
 22
0.0
 32
0.0
 14
1.0000000000E+20
 24
1.0000000000E+20
 34
1.0000000000E+20
 15
-1.0000000000E+20
 25
-1.0000000000E+20
 35
-1.0000000000E+20
146
0.0
 13
0.0
 23
0.0
 33
0.0
 16
1.0
 26
0.0
 36
0.0
 17
0.0
 27
1.0
 37
0.0
 76
     0
330
1B
  0
LAYOUT
  5
26
102
{ACAD_REACTORS
330
1A
102
}
330
1A
100
AcDbPlotSettings
  1

  2
none_device
  4

  6

 40
0.0
 41
0.0
 42
0.0
 43
0.0
 44
0.0
 45
0.0
 46
0.0
 47
0.0
 48
0.0
 49
0.0
140
0.0
141
0.0
142
1.0
143
1.0
 70
   688
 72
     1
 73
     0
 74
     5
  7

 75
    16
147
1.0
148
0.0
149
0.0
100
AcDbLayout
  1
Layout2
 70
     1
 71
     2
 10
0.0
 20
0.0
 11
0.0
 21
0.0
 12
0.0
 22
0.0
 32
0.0
 14
0.0
 24
0.0
 34
0.0
 15
0.0
 25
0.0
 35
0.0
146
0.0
 13
0.0
 23
0.0
 33
0.0
 16
1.0
 26
0.0
 36
0.0
 17
0.0
 27
1.0
 37
0.0
 76
     0
330
23
  0
LAYOUT
  5
22
102
{ACAD_REACTORS
330
1A
102
}
330
1A
100
AcDbPlotSettings
  1

  2
none_device
  4
Letter_(8.50_x_11.00_Inches)
  6

 40
6.35
 41
6.35
 42
6.35000508
 43
6.35000508
 44
215.9
 45
279.4
 46
0.0
 47
0.0
 48
0.0
 49
0.0
140
0.0
141
0.0
142
1.0
143
1.0
 70
  1712
 72
     1
 73
     0
 74
     0
  7

 75
     0
147
1.0
148
0.0
149
0.0
100
AcDbLayout
  1
Model
 70
     1
 71
     0
 10
0.0
 20
0.0
 11
2000.0
 21
2000.0
 12
0.0
 22
0.0
 32
0.0
 14
0.0
 24
0.0
 34
0.0
 15
2000.0
 25
2000.0
 35
0.0
146
0.0
 13
0.0
 23
0.0
 33
0.0
 16
1.0
 26
0.0
 36
0.0
 17
0.0
 27
1.0
 37
0.0
 76
     0
330
1F
331
29
  0
MLINESTYLE
  5
18
102
{ACAD_REACTORS
330
17
102
}
330
17
100
AcDbMlineStyle
  2
Standard
 70
     0
  3

 62
   256
 51
90.0
 52
90.0
 71
     2
 49
0.5
 62
   256
  6
BYLAYER
 49
-0.5
 62
   256
  6
BYLAYER
  0
ACDBPLACEHOLDER
  5
F
102
{ACAD_REACTORS
330
E
102
}
330
E
  0
SCALE
  5
48
102
{ACAD_REACTORS
330
47
102
}
330
47
100
AcDbScale
 70
     0
300
1:1
140
1.0
141
1.0
290
     1
  0
SCALE
  5
49
102
{ACAD_REACTORS
330
47
102
}
330
47
100
AcDbScale
 70
     0
300
1:2
140
1.0
141
2.0
290
     0
  0
SCALE
  5
4A
102
{ACAD_REACTORS
330
47
102
}
330
47
100
AcDbScale
 70
     0
300
1:4
140
1.0
141
4.0
290
     0
  0
SCALE
  5
4B
102
{ACAD_REACTORS
330
47
102
}
330
47
100
AcDbScale
 70
     0
300
1:5
140
1.0
141
5.0
290
     0
  0
SCALE
  5
4C
102
{ACAD_REACTORS
330
47
102
}
330
47
100
AcDbScale
 70
     0
300
1:8
140
1.0
141
8.0
290
     0
  0
SCALE
  5
4D
102
{ACAD_REACTORS
330
47
102
}
330
47
100
AcDbScale
 70
     0
300
1:10
140
1.0
141
10.0
290
     0
  0
SCALE
  5
4E
102
{ACAD_REACTORS
330
47
102
}
330
47
100
AcDbScale
 70
     0
300
1:16
140
1.0
141
16.0
290
     0
  0
SCALE
  5
4F
102
{ACAD_REACTORS
330
47
102
}
330
47
100
AcDbScale
 70
     0
300
1:20
140
1.0
141
20.0
290
     0
  0
SCALE
  5
50
102
{ACAD_REACTORS
330
47
102
}
330
47
100
AcDbScale
 70
     0
300
1:30
140
1.0
141
30.0
290
     0
  0
SCALE
  5
51
102
{ACAD_REACTORS
330
47
102
}
330
47
100
AcDbScale
 70
     0
300
1:40
140
1.0
141
40.0
290
     0
  0
SCALE
  5
52
102
{ACAD_REACTORS
330
47
102
}
330
47
100
AcDbScale
 70
     0
300
1:50
140
1.0
141
50.0
290
     0
  0
SCALE
  5
53
102
{ACAD_REACTORS
330
47
102
}
330
47
100
AcDbScale
 70
     0
300
1:100
140
1.0
141
100.0
290
     0
  0
SCALE
  5
54
102
{ACAD_REACTORS
330
47
102
}
330
47
100
AcDbScale
 70
     0
300
2:1
140
2.0
141
1.0
290
     0
  0
SCALE
  5
55
102
{ACAD_REACTORS
330
47
102
}
330
47
100
AcDbScale
 70
     0
300
4:1
140
4.0
141
1.0
290
     0
  0
SCALE
  5
56
102
{ACAD_REACTORS
330
47
102
}
330
47
100
AcDbScale
 70
     0
300
8:1
140
8.0
141
1.0
290
     0
  0
SCALE
  5
57
102
{ACAD_REACTORS
330
47
102
}
330
47
100
AcDbScale
 70
     0
300
10:1
140
10.0
141
1.0
290
     0
  0
SCALE
  5
58
102
{ACAD_REACTORS
330
47
102
}
330
47
100
AcDbScale
 70
     0
300
100:1
140
100.0
141
1.0
290
     0
  0
SCALE
  5
59
102
{ACAD_REACTORS
330
47
102
}
330
47
100
AcDbScale
 70
     0
300
1/128" = 1'-0"
140
0.0078125
141
12.0
290
     0
  0
SCALE
  5
5A
102
{ACAD_REACTORS
330
47
102
}
330
47
100
AcDbScale
 70
     0
300
1/64" = 1'-0"
140
0.015625
141
12.0
290
     0
  0
SCALE
  5
5B
102
{ACAD_REACTORS
330
47
102
}
330
47
100
AcDbScale
 70
     0
300
1/32" = 1'-0"
140
0.03125
141
12.0
290
     0
  0
SCALE
  5
5C
102
{ACAD_REACTORS
330
47
102
}
330
47
100
AcDbScale
 70
     0
300
1/16" = 1'-0"
140
0.0625
141
12.0
290
     0
  0
SCALE
  5
5D
102
{ACAD_REACTORS
330
47
102
}
330
47
100
AcDbScale
 70
     0
300
3/32" = 1'-0"
140
0.09375
141
12.0
290
     0
  0
SCALE
  5
5E
102
{ACAD_REACTORS
330
47
102
}
330
47
100
AcDbScale
 70
     0
300
1/8" = 1'-0"
140
0.125
141
12.0
290
     0
  0
SCALE
  5
5F
102
{ACAD_REACTORS
330
47
102
}
330
47
100
AcDbScale
 70
     0
300
3/16" = 1'-0"
140
0.1875
141
12.0
290
     0
  0
SCALE
  5
60
102
{ACAD_REACTORS
330
47
102
}
330
47
100
AcDbScale
 70
     0
300
1/4" = 1'-0"
140
0.25
141
12.0
290
     0
  0
SCALE
  5
61
102
{ACAD_REACTORS
330
47
102
}
330
47
100
AcDbScale
 70
     0
300
3/8" = 1'-0"
140
0.375
141
12.0
290
     0
  0
SCALE
  5
62
102
{ACAD_REACTORS
330
47
102
}
330
47
100
AcDbScale
 70
     0
300
1/2" = 1'-0"
140
0.5
141
12.0
290
     0
  0
SCALE
  5
63
102
{ACAD_REACTORS
330
47
102
}
330
47
100
AcDbScale
 70
     0
300
3/4" = 1'-0"
140
0.75
141
12.0
290
     0
  0
SCALE
  5
64
102
{ACAD_REACTORS
330
47
102
}
330
47
100
AcDbScale
 70
     0
300
1" = 1'-0"
140
1.0
141
12.0
290
     0
  0
SCALE
  5
65
102
{ACAD_REACTORS
330
47
102
}
330
47
100
AcDbScale
 70
     0
300
1-1/2" = 1'-0"
140
1.5
141
12.0
290
     0
  0
SCALE
  5
66
102
{ACAD_REACTORS
330
47
102
}
330
47
100
AcDbScale
 70
     0
300
3" = 1'-0"
140
3.0
141
12.0
290
     0
  0
SCALE
  5
67
102
{ACAD_REACTORS
330
47
102
}
330
47
100
AcDbScale
 70
     0
300
6" = 1'-0"
140
6.0
141
12.0
290
     0
  0
SCALE
  5
68
102
{ACAD_REACTORS
330
47
102
}
330
47
100
AcDbScale
 70
     0
300
1'-0" = 1'-0"
140
12.0
141
12.0
290
     0
  0
ENDSEC
  0
EOF
