  0
SECTION
  2
HEADER
  9
$ACADVER
  1
AC1015
  9
$ACADMAINTVER
 70
     6
  9
$DWGCODEPAGE
  3
ANSI_1252
  9
$INSBASE
 10
0.0
 20
0.0
 30
0.0
  9
$EXTMIN
 10
0.0
 20
0.0
 30
0.0
  9
$EXTMAX
 10
4000.0
 20
4000.0
 30
0.0
  9
$LIMMIN
 10
0.0
 20
0.0
  9
$LIMMAX
 10
4000.0
 20
4000.0
  9
$ORTHOMODE
 70
     0
  9
$REGENMODE
 70
     1
  9
$FILLMODE
 70
     1
  9
$QTEXTMODE
 70
     0
  9
$MIRRTEXT
 70
     1
  9
$LTSCALE
 40
1.0
  9
$ATTMODE
 70
     1
  9
$TEXTSIZE
 40
3.5
  9
$TRACEWID
 40
1.0
  9
$TEXTSTYLE
  7
Standard
  9
$CLAYER
  8
0
  9
$CELTYPE
  6
ByLayer
  9
$CECOLOR
 62
   256
  9
$CELTSCALE
 40
1.0
  9
$DISPSILH
 70
     0
  9
$DIMSCALE
 40
1.0
  9
$DIMASZ
 40
3.302
  9
$DIMEXO
 40
1.0
  9
$DIMDLI
 40
3.75
  9
$DIMRND
 40
0.0
  9
$DIMDLE
 40
0.0
  9
$DIMEXE
 40
1.0
  9
$DIMTP
 40
0.0
  9
$DIMTM
 40
0.0
  9
$DIMTXT
 40
3.5
  9
$DIMCEN
 40
2.5
  9
$DIMTSZ
 40
0.0
  9
$DIMTOL
 70
     0
  9
$DIMLIM
 70
     0
  9
$DIMTIH
 70
     1
  9
$DIMTOH
 70
     1
  9
$DIMSE1
 70
     0
  9
$DIMSE2
 70
     0
  9
$DIMTAD
 70
     1
  9
$DIMZIN
 70
     0
  9
$DIMBLK
  1

  9
$DIMASO
 70
     1
  9
$DIMSHO
 70
     1
  9
$DIMPOST
  1

  9
$DIMAPOST
  1

  9
$DIMALT
 70
     0
  9
$DIMALTD
 70
     3
  9
$DIMALTF
 40
0.0393700787
  9
$DIMLFAC
 40
2.0
  9
$DIMTOFL
 70
     1
  9
$DIMTVP
 40
0.0
  9
$DIMTIX
 70
     0
  9
$DIMSOXD
 70
     0
  9
$DIMSAH
 70
     0
  9
$DIMBLK1
  1

  9
$DIMBLK2
  1

  9
$DIMSTYLE
  2
ISO-25
  9
$DIMCLRD
 70
     0
  9
$DIMCLRE
 70
     0
  9
$DIMCLRT
 70
     0
  9
$DIMTFAC
 40
1.0
  9
$DIMGAP
 40
1.524
  9
$DIMJUST
 70
     0
  9
$DIMSD1
 70
     0
  9
$DIMSD2
 70
     0
  9
$DIMTOLJ
 70
     0
  9
$DIMTZIN
 70
     0
  9
$DIMALTZ
 70
     0
  9
$DIMALTTZ
 70
     0
  9
$DIMUPT
 70
     0
  9
$DIMDEC
 70
     2
  9
$DIMTDEC
 70
     2
  9
$DIMALTU
 70
     2
  9
$DIMALTTD
 70
     3
  9
$DIMTXSTY
  7
Standard
  9
$DIMAUNIT
 70
     0
  9
$DIMADEC
 70
     2
  9
$DIMALTRND
 40
0.0
  9
$DIMAZIN
 70
     0
  9
$DIMDSEP
 70
    44
  9
$DIMATFIT
 70
     3
  9
$DIMFRAC
 70
     0
  9
$DIMLDRBLK
  1

  9
$DIMLUNIT
 70
     2
  9
$DIMLWD
 70
    -2
  9
$DIMLWE
 70
    -2
  9
$DIMTMOVE
 70
     0
  9
$LUNITS
 70
     2
  9
$LUPREC
 70
     2
  9
$SKETCHINC
 40
1.0
  9
$FILLETRAD
 40
10.0
  9
$AUNITS
 70
     0
  9
$AUPREC
 70
     2
  9
$MENU
  1
.
  9
$ELEVATION
 40
0.0
  9
$PELEVATION
 40
0.0
  9
$THICKNESS
 40
0.0
  9
$LIMCHECK
 70
     0
  9
$CHAMFERA
 40
0.0
  9
$CHAMFERB
 40
0.0
  9
$CHAMFERC
 40
0.0
  9
$CHAMFERD
 40
0.0
  9
$SKPOLY
 70
     0
  9
$TDCREATE
 40
2458663.665642454
  9
$TDUCREATE
 40
2458663.623975787
  9
$TDUPDATE
 40
2458663.665643079
  9
$TDUUPDATE
 40
2458663.623976412
  9
$TDINDWG
 40
0.0000000116
  9
$TDUSRTIMER
 40
0.0000000116
  9
$USRTIMER
 70
     1
  9
$ANGBASE
 50
0.0
  9
$ANGDIR
 70
     0
  9
$PDMODE
 70
     0
  9
$PDSIZE
 40
-1.0
  9
$PLINEWID
 40
0.0
  9
$SPLFRAME
 70
     0
  9
$SPLINETYPE
 70
     6
  9
$SPLINESEGS
 70
     8
  9
$HANDSEED
  5
216
  9
$SURFTAB1
 70
     6
  9
$SURFTAB2
 70
     6
  9
$SURFTYPE
 70
     6
  9
$SURFU
 70
     6
  9
$SURFV
 70
     6
  9
$UCSBASE
  2

  9
$UCSNAME
  2

  9
$UCSORG
 10
0.0
 20
0.0
 30
0.0
  9
$UCSXDIR
 10
1.0
 20
0.0
 30
0.0
  9
$UCSYDIR
 10
0.0
 20
1.0
 30
0.0
  9
$UCSORTHOREF
  2

  9
$UCSORTHOVIEW
 70
     0
  9
$UCSORGTOP
 10
0.0
 20
0.0
 30
0.0
  9
$UCSORGBOTTOM
 10
0.0
 20
0.0
 30
0.0
  9
$UCSORGLEFT
 10
0.0
 20
0.0
 30
0.0
  9
$UCSORGRIGHT
 10
0.0
 20
0.0
 30
0.0
  9
$UCSORGFRONT
 10
0.0
 20
0.0
 30
0.0
  9
$UCSORGBACK
 10
0.0
 20
0.0
 30
0.0
  9
$PUCSBASE
  2

  9
$PUCSNAME
  2

  9
$PUCSORG
 10
0.0
 20
0.0
 30
0.0
  9
$PUCSXDIR
 10
1.0
 20
0.0
 30
0.0
  9
$PUCSYDIR
 10
0.0
 20
1.0
 30
0.0
  9
$PUCSORTHOREF
  2

  9
$PUCSORTHOVIEW
 70
     0
  9
$PUCSORGTOP
 10
0.0
 20
0.0
 30
0.0
  9
$PUCSORGBOTTOM
 10
0.0
 20
0.0
 30
0.0
  9
$PUCSORGLEFT
 10
0.0
 20
0.0
 30
0.0
  9
$PUCSORGRIGHT
 10
0.0
 20
0.0
 30
0.0
  9
$PUCSORGFRONT
 10
0.0
 20
0.0
 30
0.0
  9
$PUCSORGBACK
 10
0.0
 20
0.0
 30
0.0
  9
$USERI1
 70
     0
  9
$USERI2
 70
     0
  9
$USERI3
 70
     0
  9
$USERI4
 70
     0
  9
$USERI5
 70
     0
  9
$USERR1
 40
0.0
  9
$USERR2
 40
0.0
  9
$USERR3
 40
0.0
  9
$USERR4
 40
0.0
  9
$USERR5
 40
0.0
  9
$WORLDVIEW
 70
     1
  9
$SHADEDGE
 70
     3
  9
$SHADEDIF
 70
    70
  9
$TILEMODE
 70
     1
  9
$MAXACTVP
 70
    64
  9
$PINSBASE
 10
0.0
 20
0.0
 30
0.0
  9
$PLIMCHECK
 70
     0
  9
$PEXTMIN
 10
1.0000000000E+20
 20
1.0000000000E+20
 30
1.0000000000E+20
  9
$PEXTMAX
 10
-1.0000000000E+20
 20
-1.0000000000E+20
 30
-1.0000000000E+20
  9
$PLIMMIN
 10
0.0
 20
0.0
  9
$PLIMMAX
 10
420.0
 20
297.0
  9
$UNITMODE
 70
     0
  9
$VISRETAIN
 70
     1
  9
$PLINEGEN
 70
     0
  9
$PSLTSCALE
 70
     1
  9
$TREEDEPTH
 70
  3020
  9
$CMLSTYLE
  2
Standard
  9
$CMLJUST
 70
     0
  9
$CMLSCALE
 40
20.0
  9
$PROXYGRAPHICS
 70
     1
  9
$MEASUREMENT
 70
     1
  9
$CELWEIGHT
370
    -1
  9
$ENDCAPS
280
     0
  9
$JOINSTYLE
280
     0
  9
$LWDISPLAY
290
     1
  9
$INSUNITS
 70
     4
  9
$HYPERLINKBASE
  1

  9
$STYLESHEET
  1

  9
$XEDIT
290
     1
  9
$CEPSNTYPE
380
     0
  9
$PSTYLEMODE
290
     1
  9
$FINGERPRINTGUID
  2
{4D431CD0-7511-4E07-9CF8-DBDE10D9EF84}
  9
$VERSIONGUID
  2
{FAEB1C32-E019-11D5-929B-00C0DF256EC4}
  9
$EXTNAMES
290
     1
  9
$PSVPSCALE
 40
0.0
  9
$OLESTARTUP
290
     0
  0
ENDSEC
  0
SECTION
  2
CLASSES
  0
CLASS
  1
ACDBDICTIONARYWDFLT
  2
AcDbDictionaryWithDefault
  3
ObjectDBX Classes
 90
        0
280
     0
281
     0
  0
CLASS
  1
VISUALSTYLE
  2
AcDbVisualStyle
  3
ObjectDBX Classes
 90
     4095
280
     0
281
     0
  0
CLASS
  1
MATERIAL
  2
AcDbMaterial
  3
ObjectDBX Classes
 90
     1153
280
     0
281
     0
  0
CLASS
  1
SCALE
  2
AcDbScale
  3
ObjectDBX Classes
 90
     1153
280
     0
281
     0
  0
CLASS
  1
TABLESTYLE
  2
AcDbTableStyle
  3
ObjectDBX Classes
 90
     4095
280
     0
281
     0
  0
CLASS
  1
MLEADERSTYLE
  2
AcDbMLeaderStyle
  3
ACDB_MLEADERSTYLE_CLASS
 90
     4095
280
     0
281
     0
  0
CLASS
  1
SUN
  2
AcDbSun
  3
SCENEOE
 90
     1153
280
     0
281
     0
  0
CLASS
  1
ACDBPLACEHOLDER
  2
AcDbPlaceHolder
  3
ObjectDBX Classes
 90
        0
280
     0
281
     0
  0
CLASS
  1
LAYOUT
  2
AcDbLayout
  3
ObjectDBX Classes
 90
        0
280
     0
281
     0
  0
ENDSEC
  0
SECTION
  2
TABLES
  0
TABLE
  2
VPORT
  5
8
330
0
100
AcDbSymbolTable
 70
     1
  0
VPORT
  5
29
330
8
100
AcDbSymbolTableRecord
100
AcDbViewportTableRecord
  2
*Active
 70
     0
 10
0.0
 20
0.0
 11
1.0
 21
1.0
 12
2000.0
 22
2000.0
 13
0.0
 23
0.0
 14
10.0
 24
10.0
 15
10.0
 25
10.0
 16
0.0
 26
0.0
 36
1.0
 17
0.0
 27
0.0
 37
0.0
 40
4000.0
 41
1.0
 42
50.0
 43
0.0
 44
0.0
 50
0.0
 51
0.0
 71
     0
 72
  2000
 73
     1
 74
     3
 75
     0
 76
     0
 77
     0
 78
     0
281
     0
 65
     1
110
0.0
120
0.0
130
0.0
111
1.0
121
0.0
131
0.0
112
0.0
122
1.0
132
0.0
 79
     0
146
0.0
  0
ENDTAB
  0
TABLE
  2
LTYPE
  5
5
330
0
100
AcDbSymbolTable
 70
     6
  0
LTYPE
  5
14
330
5
100
AcDbSymbolTableRecord
100
AcDbLinetypeTableRecord
  2
ByBlock
 70
     0
  3

 72
    65
 73
     0
 40
0.0
  0
LTYPE
  5
15
330
5
100
AcDbSymbolTableRecord
100
AcDbLinetypeTableRecord
  2
ByLayer
 70
     0
  3

 72
    65
 73
     0
 40
0.0
  0
LTYPE
  5
16
330
5
100
AcDbSymbolTableRecord
100
AcDbLinetypeTableRecord
  2
Continuous
 70
     0
  3
Solid line
 72
    65
 73
     0
 40
0.0
  0
LTYPE
  5
6E
330
5
100
AcDbSymbolTableRecord
100
AcDbLinetypeTableRecord
  2
HIDDEN
 70
     0
  3
Hidden __ __ __ __ __ __ __ __ __ __ __ __ __ __
 72
    65
 73
     2
 40
1.905
 49
1.27
 74
     0
 49
-0.635
 74
     0
  0
LTYPE
  5
6F
330
5
100
AcDbSymbolTableRecord
100
AcDbLinetypeTableRecord
  2
PHANTOM
 70
     0
  3
Phantom ______  __  __  ______  __  __  ______
 72
    65
 73
     6
 40
12.7
 49
6.35
 74
     0
 49
-1.27
 74
     0
 49
1.27
 74
     0
 49
-1.27
 74
     0
 49
1.27
 74
     0
 49
-1.27
 74
     0
  0
LTYPE
  5
70
330
5
100
AcDbSymbolTableRecord
100
AcDbLinetypeTableRecord
  2
CENTER
 70
     0
  3
Center ____ _ ____ _ ____ _ ____ _ ____ _ ____
 72
    65
 73
     4
 40
10.16
 49
6.35
 74
     0
 49
-1.27
 74
     0
 49
1.27
 74
     0
 49
-1.27
 74
     0
  0
LTYPE
  5
71
330
5
100
AcDbSymbolTableRecord
100
AcDbLinetypeTableRecord
  2
CENTERX2
 70
     0
  3
Center (2x) ________  __  ________  __  _____
 72
    65
 73
     4
 40
20.32
 49
12.7
 74
     0
 49
-2.54
 74
     0
 49
2.54
 74
     0
 49
-2.54
 74
     0
  0
LTYPE
  5
72
330
5
100
AcDbSymbolTableRecord
100
AcDbLinetypeTableRecord
  2
DOT2
 70
     0
  3
Dot (.5x) ........................................
 72
    65
 73
     2
 40
0.635
 49
0.0
 74
     0
 49
-0.635
 74
     0
  0
ENDTAB
  0
TABLE
  2
LAYER
  5
2
330
0
100
AcDbSymbolTable
 70
     1
  0
LAYER
  5
10
330
2
100
AcDbSymbolTableRecord
100
AcDbLayerTableRecord
  2
0
 70
     0
 62
     7
  6
Continuous
370
    -3
390
F
  0
ENDTAB
  0
TABLE
  2
STYLE
  5
3
330
0
100
AcDbSymbolTable
 70
     1
  0
STYLE
  5
11
330
3
100
AcDbSymbolTableRecord
100
AcDbTextStyleTableRecord
  2
Standard
 70
     0
 40
0.0
 41
1.0
 50
0.0
 71
     0
 42
3.5
  3
txt
  4

  0
ENDTAB
  0
TABLE
  2
VIEW
  5
6
330
0
100
AcDbSymbolTable
 70
     0
  0
ENDTAB
  0
TABLE
  2
UCS
  5
7
330
0
100
AcDbSymbolTable
 70
     0
  0
ENDTAB
  0
TABLE
  2
APPID
  5
9
330
0
100
AcDbSymbolTable
 70
     1
  0
APPID
  5
12
330
9
100
AcDbSymbolTableRecord
100
AcDbRegAppTableRecord
  2
ACAD
 70
     0
  0
ENDTAB
  0
TABLE
  2
DIMSTYLE
  5
A
330
0
100
AcDbSymbolTable
 70
     1
100
AcDbDimStyleTable
  0
DIMSTYLE
105
27
330
A
100
AcDbSymbolTableRecord
100
AcDbDimStyleTableRecord
  2
ISO-25
 70
     0
 41
2.5
 42
0.625
 43
3.75
 44
1.25
 73
     0
 74
     0
 77
     1
 78
     8
140
2.5
141
2.5
143
0.0393700787
147
0.625
171
     3
172
     1
178
     0
271
     2
272
     2
274
     3
278
    44
283
     0
284
     8
340
11
  0
ENDTAB
  0
TABLE
  2
BLOCK_RECORD
  5
1
330
0
100
AcDbSymbolTable
 70
     1
  0
BLOCK_RECORD
  5
1F
330
1
100
AcDbSymbolTableRecord
100
AcDbBlockTableRecord
  2
*Model_Space
340
22
  0
BLOCK_RECORD
  5
1B
330
1
100
AcDbSymbolTableRecord
100
AcDbBlockTableRecord
  2
*Paper_Space
340
1E
  0
BLOCK_RECORD
  5
23
330
1
100
AcDbSymbolTableRecord
100
AcDbBlockTableRecord
  2
*Paper_Space0
340
26
  0
ENDTAB
  0
ENDSEC
  0
SECTION
  2
BLOCKS
  0
BLOCK
  5
20
330
1F
100
AcDbEntity
  8
0
100
AcDbBlockBegin
  2
*Model_Space
 70
     0
 10
0.0
 20
0.0
 30
0.0
  3
*Model_Space
  1

  0
ENDBLK
  5
21
330
1F
100
AcDbEntity
  8
0
100
AcDbBlockEnd
  0
BLOCK
  5
1C
330
1B
100
AcDbEntity
 67
     1
  8
0
100
AcDbBlockBegin
  2
*Paper_Space
 70
     0
 10
0.0
 20
0.0
 30
0.0
  3
*Paper_Space
  1

  0
ENDBLK
  5
1D
330
1B
100
AcDbEntity
 67
     1
  8
0
100
AcDbBlockEnd
  0
BLOCK
  5
24
330
23
100
AcDbEntity
  8
0
100
AcDbBlockBegin
  2
*Paper_Space0
 70
     0
 10
0.0
 20
0.0
 30
0.0
  3
*Paper_Space0
  1

  0
ENDBLK
  5
25
330
23
100
AcDbEntity
  8
0
100
AcDbBlockEnd
  0
ENDSEC
  0
SECTION
  2
ENTITIES
  0
LINE
  5
73
330
1F
100
AcDbEntity
  8
0
  6
Continuous
 62
     7
370
    15
100
AcDbLine
 10
229.3096179791
 20
2110.0535996964
 30
0.0
 11
229.3096179791
 21
120.0535901597
 31
0.0
  0
SPLINE
  5
74
330
1F
100
AcDbEntity
  8
0
  6
Continuous
 62
     7
370
    15
100
AcDbSpline
210
0.0
220
0.0
230
1.0
 70
     8
 71
     3
 72
    15
 73
    11
 74
     0
 42
0.000000001
 43
0.00000001
 40
0.0
 40
0.0
 40
0.0
 40
0.0
 40
0.0793805911730351
 40
0.2359007190385571
 40
0.4190357904944018
 40
0.5522540546459984
 40
0.6658931176168864
 40
0.79008916511029
 40
0.9199479440447585
 40
1.0
 40
1.0
 40
1.0
 40
1.0
 10
229.3096179790781
 20
120.0535901596531
 30
0.0
 10
229.3126385833204
 20
119.8638569073276
 30
0.0
 10
229.3216151190476
 20
119.3000136556244
 30
0.0
 10
229.4319698276989
 20
118.3317217627904
 30
0.0
 10
229.6830623169012
 20
117.3544366051513
 30
0.0
 10
230.1165011883606
 20
116.5068875626107
 30
0.0
 10
230.674687457859
 20
115.8535786955873
 30
0.0
 10
231.3868016695934
 20
115.3578106662239
 30
0.0
 10
232.1428095798398
 20
115.0905214171752
 30
0.0
 10
232.6382886943335
 20
115.0637679040794
 30
0.0
 10
232.8272456951425
 20
115.0535651257023
 30
0.0
  0
SPLINE
  5
75
330
1F
100
AcDbEntity
  8
0
  6
Continuous
 62
     7
370
    15
100
AcDbSpline
210
0.0
220
0.0
230
1.0
 70
     8
 71
     3
 72
    15
 73
    11
 74
     0
 42
0.000000001
 43
0.00000001
 40
0.0
 40
0.0
 40
0.0
 40
0.0
 40
0.1344497294479335
 40
0.256017069687026
 40
0.3660350240741926
 40
0.4711632895831498
 40
0.5791175030612159
 40
0.7041330459221099
 40
0.8719028284334237
 40
1.0
 40
1.0
 40
1.0
 40
1.0
 10
232.8272456951426
 20
2115.053594928025
 30
0.0
 10
232.508951041212
 20
2115.025514827356
 30
0.0
 10
231.9028593448513
 20
2114.972045139325
 30
0.0
 10
231.1159697521587
 20
2114.58577392142
 30
0.0
 10
230.5091073193554
 20
2114.083012627785
 30
0.0
 10
230.0595160162301
 20
2113.493830366488
 30
0.0
 10
229.7300267092462
 20
2112.826809616347
 30
0.0
 10
229.4833383295731
 20
2112.007815759859
 30
0.0
 10
229.3353493553209
 20
2111.068584823078
 30
0.0
 10
229.3173924965852
 20
2110.360268860237
 30
0.0
 10
229.3096179790781
 20
2110.053599696396
 30
0.0
  0
SPLINE
  5
76
330
1F
100
AcDbEntity
  8
0
  6
Continuous
 62
     7
370
    15
100
AcDbSpline
210
0.0
220
0.0
230
1.0
 70
     8
 71
     3
 72
    15
 73
    11
 74
     0
 42
0.000000001
 43
0.00000001
 40
0.0
 40
0.0
 40
0.0
 40
0.0
 40
0.0793812780366255
 40
0.2358945616916492
 40
0.4190309630488451
 40
0.5522468037380021
 40
0.6658897007667188
 40
0.7900902699136494
 40
0.9199473627178911
 40
1.0
 40
1.0
 40
1.0
 40
1.0
 10
262.4620492286966
 20
2110.053599696396
 30
0.0
 10
262.4590172333712
 20
2110.243333152975
 30
0.0
 10
262.4500071591315
 20
2110.807157415884
 30
0.0
 10
262.3396663922754
 20
2111.77542239793
 30
0.0
 10
262.0885823389771
 20
2112.752691232574
 30
0.0
 10
261.6551251006442
 20
2113.600224783429
 30
0.0
 10
261.0969371754156
 20
2114.253529944031
 30
0.0
 10
260.3849032773953
 20
2114.749449668455
 30
0.0
 10
259.6288454475911
 20
2115.016624804165
 30
0.0
 10
259.1333768640101
 20
2115.0433882383
 30
0.0
 10
258.9444215126322
 20
2115.053594928025
 30
0.0
  0
SPLINE
  5
77
330
1F
100
AcDbEntity
  8
0
  6
Continuous
 62
     7
370
    15
100
AcDbSpline
210
0.0
220
0.0
230
1.0
 70
     8
 71
     3
 72
    15
 73
    11
 74
     0
 42
0.000000001
 43
0.00000001
 40
0.0
 40
0.0
 40
0.0
 40
0.0
 40
0.1344496022918117
 40
0.2560113906801081
 40
0.366034397500857
 40
0.4711625635845302
 40
0.5791166749646659
 40
0.7041285152828641
 40
0.8718903830592662
 40
1.0
 40
1.0
 40
1.0
 40
1.0
 10
258.9444215126322
 20
115.0535651257023
 30
0.0
 10
259.2627145969704
 20
115.0816480113993
 30
0.0
 10
259.86879043339
 20
115.1351218670229
 30
0.0
 10
260.6557012519107
 20
115.5213504791446
 30
0.0
 10
261.2625121807617
 20
116.0241823454984
 30
0.0
 10
261.7121246950136
 20
116.6133551552943
 30
0.0
 10
262.0416044474559
 20
117.2803762828584
 30
0.0
 10
262.288300499817
 20
118.0993334162985
 30
0.0
 10
262.4362840782346
 20
119.0385614807553
 30
0.0
 10
262.4542640619918
 20
119.7468903215495
 30
0.0
 10
262.4620492286966
 20
120.0535901596531
 30
0.0
  0
SPLINE
  5
78
330
1F
100
AcDbEntity
  8
0
  6
Continuous
 62
     7
370
    15
100
AcDbSpline
210
0.0
220
0.0
230
1.0
 70
     8
 71
     3
 72
    29
 73
    25
 74
     0
 42
0.000000001
 43
0.00000001
 40
0.0
 40
0.0
 40
0.0
 40
0.0
 40
0.026065934485601
 40
0.075648276048817
 40
0.1252278945617131
 40
0.1747842137898278
 40
0.2243044828706301
 40
0.2737734178420543
 40
0.3231740912407265
 40
0.3724850942603336
 40
0.4216796778286853
 40
0.4707227940549375
 40
0.5195700470364929
 40
0.5681629917906463
 40
0.6164247423789867
 40
0.6642559786861184
 40
0.7115339534524255
 40
0.7581197525167422
 40
0.8038925455389659
 40
0.8488425784260037
 40
0.893298461788169
 40
0.9380396563985564
 40
0.985487133668557
 40
1.0
 40
1.0
 40
1.0
 40
1.0
 10
262.4620492286966
 20
670.0535722782597
 30
0.0
 10
262.4642940791218
 20
670.7602708785554
 30
0.0
 10
262.4708090599966
 20
672.8112439916813
 30
0.0
 10
262.5431033384011
 20
676.1991001265048
 30
0.0
 10
262.7049776078771
 20
680.1843449737754
 30
0.0
 10
262.946798410252
 20
684.1058781990081
 30
0.0
 10
263.2655139897439
 20
687.9382179835029
 30
0.0
 10
263.6589615426663
 20
691.6566539642996
 30
0.0
 10
264.124151808991
 20
695.2370080601771
 30
0.0
 10
264.6572396272848
 20
698.6556907903927
 30
0.0
 10
265.2538017431623
 20
701.8897279425311
 30
0.0
 10
265.9084140826462
 20
704.9168896924549
 30
0.0
 10
266.6145276459238
 20
707.715782954959
 30
0.0
 10
267.3643647666433
 20
710.265829486939
 30
0.0
 10
268.1481308617938
 20
712.5474803081026
 30
0.0
 10
268.9535965408
 20
714.542435657407
 30
0.0
 10
269.7650111451892
 20
716.2344425272624
 30
0.0
 10
270.5615379650153
 20
717.6105156651548
 30
0.0
 10
271.3159890270655
 20
718.6635808101207
 30
0.0
 10
271.9930390318196
 20
719.3974811462703
 30
0.0
 10
272.5486970624981
 20
719.8332073674743
 30
0.0
 10
272.9391598506825
 20
720.021885263066
 30
0.0
 10
273.0936564802207
 20
720.0510384628775
 30
0.0
 10
273.1631612191905
 20
720.0531010766568
 30
0.0
 10
273.1794411964701
 20
720.0535841991887
 30
0.0
  0
LINE
  5
79
330
1F
100
AcDbEntity
  8
0
  6
Continuous
 62
     7
370
    15
100
AcDbLine
 10
262.4620492287
 20
435.0535765996
 30
0.0
 11
262.4620492287
 21
670.0535722783
 31
0.0
  0
LINE
  5
7A
330
1F
100
AcDbEntity
  8
0
  6
Continuous
 62
     7
370
    15
100
AcDbLine
 10
262.4620492287
 20
1935.0535281708
 30
0.0
 11
262.4620492287
 21
2110.0535996964
 31
0.0
  0
LINE
  5
7B
330
1F
100
AcDbEntity
  8
0
  6
Continuous
 62
     7
370
    15
100
AcDbLine
 10
262.4620492287
 20
1185.0535877755
 30
0.0
 11
262.4620492287
 21
1420.0535424759
 31
0.0
  0
LINE
  5
7C
330
1F
100
AcDbEntity
  8
0
  6
Continuous
 62
     7
370
    15
100
AcDbLine
 10
262.4620492287
 20
120.0535901597
 30
0.0
 11
262.4620492287
 21
295.0535722783
 31
0.0
  0
SPLINE
  5
7D
330
1F
100
AcDbEntity
  8
0
  6
Continuous
 62
     7
370
    15
100
AcDbSpline
210
0.0
220
0.0
230
1.0
 70
     8
 71
     3
 72
    29
 73
    25
 74
     0
 42
0.000000001
 43
0.00000001
 40
0.0
 40
0.0
 40
0.0
 40
0.0
 40
0.0255719238821012
 40
0.0720857144785294
 40
0.1156172241084003
 40
0.1620439527899601
 40
0.2067180741775728
 40
0.2514319920506067
 40
0.2967974674643455
 40
0.3429784948754201
 40
0.3899134569275076
 40
0.4374763917326928
 40
0.4855368252800874
 40
0.5339830265215415
 40
0.5827251614141555
 40
0.6316935196569161
 40
0.6808350198171828
 40
0.7301088535529815
 40
0.7794836914274771
 40
0.8289347300413259
 40
0.8784423891926241
 40
0.9279902933449621
 40
0.9775647060174273
 40
0.9999999999999999
 40
0.9999999999999999
 40
0.9999999999999999
 40
0.9999999999999999
 10
273.1794411964701
 20
385.0535758545384
 30
0.0
 10
273.1507602015031
 20
385.054839575798
 30
0.0
 10
273.0699102027435
 20
385.0584019299768
 30
0.0
 10
272.869633654485
 20
385.1100169707197
 30
0.0
 10
272.4385252369829
 20
385.3465025550144
 30
0.0
 10
271.8492559364325
 20
385.84673518276
 30
0.0
 10
271.149259754402
 20
386.6567725296942
 30
0.0
 10
270.4001793835131
 20
387.7558241278062
 30
0.0
 10
269.6207704498275
 20
389.1540797767987
 30
0.0
 10
268.8293264462548
 20
390.8536280957946
 30
0.0
 10
268.0423563478587
 20
392.8490726377178
 30
0.0
 10
267.2744138384492
 20
395.1286478325319
 30
0.0
 10
266.5378794547406
 20
397.6765455732658
 30
0.0
 10
265.8428208317942
 20
400.4741653490238
 30
0.0
 10
265.197638747521
 20
403.501197772069
 30
0.0
 10
264.6093870291041
 20
406.7360896649623
 30
0.0
 10
264.0837073581014
 20
410.1563273266334
 30
0.0
 10
263.6253878357167
 20
413.7386576431769
 30
0.0
 10
263.2384380578567
 20
417.459162560797
 30
0.0
 10
262.9259699804545
 20
421.2933871838531
 30
0.0
 10
262.6902226823934
 20
425.2164553882456
 30
0.0
 10
262.5342324453927
 20
429.2029432123351
 30
0.0
 10
262.469112146758
 20
432.4930243792961
 30
0.0
 10
262.4637270162133
 20
434.4453205624072
 30
0.0
 10
262.4620492286966
 20
435.0535765995965
 30
0.0
  0
SPLINE
  5
7E
330
1F
100
AcDbEntity
  8
0
  6
Continuous
 62
     7
370
    15
100
AcDbSpline
210
0.0
220
0.0
230
1.0
 70
     8
 71
     3
 72
    29
 73
    25
 74
     0
 42
0.000000001
 43
0.00000001
 40
0.0
 40
0.0
 40
0.0
 40
0.0
 40
0.0260660254071124
 40
0.0756481830843006
 40
0.1252279812424903
 40
0.1747842992063436
 40
0.2243043057754837
 40
0.2737734932325037
 40
0.3231742469263488
 40
0.3724851706723189
 40
0.4216795310496434
 40
0.4707227849490377
 40
0.5195700689262939
 40
0.5681629533806423
 40
0.6164246495305414
 40
0.6642559784949602
 40
0.71153395205513
 40
0.7581197333194802
 40
0.8038925768960711
 40
0.8488425443786317
 40
0.8932984656270644
 40
0.9380396590960319
 40
0.9854871344764443
 40
1.0
 40
1.0
 40
1.0
 40
1.0
 10
262.4620492286966
 20
295.0535722782597
 30
0.0
 10
262.4642940457088
 20
295.7602733702402
 30
0.0
 10
262.4708088988818
 20
297.8112440401848
 30
0.0
 10
262.5431039221029
 20
301.1991023667451
 30
0.0
 10
262.7049773286967
 20
305.1843474671509
 30
0.0
 10
262.9467971958388
 20
309.1058798665413
 30
0.0
 10
263.2655164841937
 20
312.9382143316698
 30
0.0
 10
263.6589604101359
 20
316.6566581094042
 30
0.0
 10
264.1241512271228
 20
320.2370192075725
 30
0.0
 10
264.6572382621674
 20
323.6556975684849
 30
0.0
 10
265.2538047977761
 20
326.8897159797097
 30
0.0
 10
265.9084128985833
 20
329.9168896860259
 30
0.0
 10
266.6145270540414
 20
332.7157857295989
 30
0.0
 10
267.3643646411499
 20
335.2658271395405
 30
0.0
 10
268.1481324702697
 20
337.5474661372206
 30
0.0
 10
268.9535954369578
 20
339.5424415624253
 30
0.0
 10
269.7650109945787
 20
341.2344484806129
 30
0.0
 10
270.5615388293047
 20
342.6105069514423
 30
0.0
 10
271.3159877003631
 20
343.663612145804
 30
0.0
 10
271.9930401028182
 20
344.3974501829128
 30
0.0
 10
272.5486966412284
 20
344.8332357420308
 30
0.0
 10
272.9391599398112
 20
345.0218914582975
 30
0.0
 10
273.0936564733399
 20
345.0510679106096
 30
0.0
 10
273.1631612180446
 20
345.0531006285368
 30
0.0
 10
273.1794411964701
 20
345.0535767486081
 30
0.0
  0
SPLINE
  5
7F
330
1F
100
AcDbEntity
  8
0
  6
Continuous
 62
     7
370
    15
100
AcDbSpline
210
0.0
220
0.0
230
1.0
 70
     8
 71
     3
 72
    29
 73
    25
 74
     0
 42
0.000000001
 43
0.00000001
 40
0.0
 40
0.0
 40
0.0
 40
0.0
 40
0.0255719202874331
 40
0.0720857076145835
 40
0.1156172007154894
 40
0.1620439384726558
 40
0.2067180050785916
 40
0.251431930114444
 40
0.2967973938741747
 40
0.3429784459705275
 40
0.3899135540898648
 40
0.4374764014114208
 40
0.4855369700824398
 40
0.5339827177537009
 40
0.582725335242365
 40
0.6316932220561045
 40
0.6808349112692521
 40
0.730108697311251
 40
0.7794833587959163
 40
0.8289345214744851
 40
0.8784419063058461
 40
0.9279900752451615
 40
0.9775648464939111
 40
1.0
 40
1.0
 40
1.0
 40
1.0
 10
273.17944119647
 20
1135.053575854538
 30
0.0
 10
273.150760197633
 20
1135.054838159479
 30
0.0
 10
273.0699101842973
 20
1135.058396521302
 30
0.0
 10
272.8696337756817
 20
1135.110038022925
 30
0.0
 10
272.4385249520451
 20
1135.346489274496
 30
0.0
 10
271.849256623373
 20
1135.846753256837
 30
0.0
 10
271.1492590487279
 20
1136.656752916722
 30
0.0
 10
270.40017965309
 20
1137.755819816304
 30
0.0
 10
269.6207702713547
 20
1139.154070353365
 30
0.0
 10
268.8293248276969
 20
1140.853621050142
 30
0.0
 10
268.0423594001145
 20
1142.849099829702
 30
0.0
 10
267.2744103512445
 20
1145.128649830146
 30
0.0
 10
266.5378864705608
 20
1147.676578445883
 30
0.0
 10
265.8428109595422
 20
1150.474139554589
 30
0.0
 10
265.1976480938346
 20
1153.501222561164
 30
0.0
 10
264.6093808880302
 20
1156.7360753372
 30
0.0
 10
264.0837096885377
 20
1160.15632600096
 30
0.0
 10
263.6253882477068
 20
1163.738650237685
 30
0.0
 10
263.2384365897111
 20
1167.459150709652
 30
0.0
 10
262.9259716534166
 20
1171.293370306489
 30
0.0
 10
262.6902211206429
 20
1175.216439179949
 30
0.0
 10
262.5342325756766
 20
1179.202938553625
 30
0.0
 10
262.4691123062949
 20
1182.493033094775
 30
0.0
 10
262.4637270422266
 20
1184.445335462272
 30
0.0
 10
262.4620492286966
 20
1185.053587775467
 30
0.0
  0
SPLINE
  5
80
330
1F
100
AcDbEntity
  8
0
  6
Continuous
 62
     7
370
    15
100
AcDbSpline
210
0.0
220
0.0
230
1.0
 70
     8
 71
     3
 72
    29
 73
    25
 74
     0
 42
0.000000001
 43
0.00000001
 40
0.0
 40
0.0
 40
0.0
 40
0.0
 40
0.0255719403621769
 40
0.0720857642040808
 40
0.1156173413644134
 40
0.1620439125040812
 40
0.2067181753380722
 40
0.2514323554876543
 40
0.2967978548606691
 40
0.3429786120659342
 40
0.3899137570307747
 40
0.4374762100497759
 40
0.4855368164498193
 40
0.5339831221804373
 40
0.5827252187235095
 40
0.6316943335783042
 40
0.6808354347441463
 40
0.7301099139966267
 40
0.7794839358820036
 40
0.8289351373812558
 40
0.8784432744165858
 40
0.9279914822527374
 40
0.9775655616116277
 40
1.0
 40
1.0
 40
1.0
 40
1.0
 10
273.1794411964701
 20
1885.053575854538
 30
0.0
 10
273.150760215357
 20
1885.054839364201
 30
0.0
 10
273.0699102519841
 20
1885.05840112206
 30
0.0
 10
272.8696331594054
 20
1885.110002029744
 30
0.0
 10
272.4385271035603
 20
1885.346615685663
 30
0.0
 10
271.8492533139324
 20
1885.846631388592
 30
0.0
 10
271.1492587245569
 20
1886.656767885518
 30
0.0
 10
270.4001813763979
 20
1887.755883752669
 30
0.0
 10
269.6207740579946
 20
1889.154141149673
 30
0.0
 10
268.8293203502354
 20
1890.853605327822
 30
0.0
 10
268.0423645931046
 20
1892.84911119991
 30
0.0
 10
267.2744063669663
 20
1895.128585601468
 30
0.0
 10
266.537880808226
 20
1897.676518415785
 30
0.0
 10
265.8428227134585
 20
1900.474141097328
 30
0.0
 10
265.1976312518067
 20
1903.50117163633
 30
0.0
 10
264.6093970405986
 20
1906.736119142284
 30
0.0
 10
264.0836985586058
 20
1910.156340299472
 30
0.0
 10
263.6253972950487
 20
1913.738687422872
 30
0.0
 10
263.2384324641519
 20
1917.459163180513
 30
0.0
 10
262.9259698548443
 20
1921.293389159792
 30
0.0
 10
262.6902229327056
 20
1925.216480492231
 30
0.0
 10
262.5342333498769
 20
1929.20297840642
 30
0.0
 10
262.4691125039566
 20
1932.493033043497
 30
0.0
 10
262.4637270733992
 20
1934.445295725248
 30
0.0
 10
262.4620492286966
 20
1935.053528170823
 30
0.0
  0
SPLINE
  5
81
330
1F
100
AcDbEntity
  8
0
  6
Continuous
 62
     7
370
    15
100
AcDbSpline
210
0.0
220
0.0
230
1.0
 70
     8
 71
     3
 72
    29
 73
    25
 74
     0
 42
0.000000001
 43
0.00000001
 40
0.0
 40
0.0
 40
0.0
 40
0.0
 40
0.0260655763658886
 40
0.0756479335772603
 40
0.1252279295578921
 40
0.1747842644259499
 40
0.2243038524732189
 40
0.27377347971808
 40
0.3231738424859597
 40
0.3724851731311978
 40
0.421679180396996
 40
0.4707225899502321
 40
0.5195701162836273
 40
0.5681628401337251
 40
0.6164243931252371
 40
0.6642560200412659
 40
0.7115338486514333
 40
0.7581195295273458
 40
0.8038924404403536
 40
0.8488424875135935
 40
0.8932984295009612
 40
0.9380396382316414
 40
0.9854871304760359
 40
1.0
 40
1.0
 40
1.0
 40
1.0
 10
262.4620492286966
 20
1045.053602080582
 30
0.0
 10
262.4642941127308
 20
1045.760290743819
 30
0.0
 10
262.4708092511622
 20
1047.811253910947
 30
0.0
 10
262.5431038652746
 20
1051.199109853922
 30
0.0
 10
262.7049773001468
 20
1055.184364542027
 30
0.0
 10
262.9467949391126
 20
1059.105892985205
 30
0.0
 10
263.2655213312244
 20
1062.938216756171
 30
0.0
 10
263.6589545592184
 20
1066.656666606762
 30
0.0
 10
264.1241577213905
 20
1070.237014605457
 30
0.0
 10
264.6572316270632
 20
1073.655712427499
 30
0.0
 10
265.2538094334678
 20
1076.889705087659
 30
0.0
 10
265.9084134052789
 20
1079.916889871787
 30
0.0
 10
266.6145235844408
 20
1082.715810506581
 30
0.0
 10
267.3643644703557
 20
1085.265834630533
 30
0.0
 10
268.1481374913548
 20
1087.547436249949
 30
0.0
 10
268.9535902491452
 20
1089.542481266072
 30
0.0
 10
269.7650119323591
 20
1091.23444233945
 30
0.0
 10
270.5615403110225
 20
1092.610470850865
 30
0.0
 10
271.3159877366369
 20
1093.663594902782
 30
0.0
 10
271.9930396324521
 20
1094.39746607348
 30
0.0
 10
272.5486966662754
 20
1094.833254111396
 30
0.0
 10
272.9391599316099
 20
1095.021890707169
 30
0.0
 10
273.0936564685836
 20
1095.051127279088
 30
0.0
 10
273.1631612179477
 20
1095.053093785447
 30
0.0
 10
273.17944119647
 20
1095.053554396866
 30
0.0
  0
LINE
  5
82
330
1F
100
AcDbEntity
  8
0
  6
Continuous
 62
     7
370
    15
100
AcDbLine
 10
262.4620492287
 20
810.0535877755
 30
0.0
 11
262.4620492287
 21
1045.0536020806
 31
0.0
  0
SPLINE
  5
83
330
1F
100
AcDbEntity
  8
0
  6
Continuous
 62
     7
370
    15
100
AcDbSpline
210
0.0
220
0.0
230
1.0
 70
     8
 71
     3
 72
    29
 73
    25
 74
     0
 42
0.000000001
 43
0.00000001
 40
0.0
 40
0.0
 40
0.0
 40
0.0
 40
0.0260670235642954
 40
0.0756486156997385
 40
0.1252285770902126
 40
0.17478487738462
 40
0.2243051275454885
 40
0.2737733669575925
 40
0.3231743477039739
 40
0.3724850198214563
 40
0.4216801764260243
 40
0.470722996066996
 40
0.5195704883212507
 40
0.5681627057952311
 40
0.6164250764397072
 40
0.6642559189673776
 40
0.7115340367496692
 40
0.7581196851244486
 40
0.8038927710011563
 40
0.8488426398428528
 40
0.8932984616280584
 40
0.9380396800714002
 40
0.9854871392134071
 40
1.0
 40
1.0
 40
1.0
 40
1.0
 10
262.4620492286966
 20
1420.053542475937
 30
0.0
 10
262.4642938648616
 20
1420.760270924075
 30
0.0
 10
262.4708079809901
 20
1422.811254176741
 30
0.0
 10
262.5431052715846
 20
1426.199128992158
 30
0.0
 10
262.7049763593654
 20
1430.184365807607
 30
0.0
 10
262.9467992218925
 20
1434.105906741262
 30
0.0
 10
263.2655099538843
 20
1437.938234787606
 30
0.0
 10
263.6589681577217
 20
1441.656641730208
 30
0.0
 10
264.1241459143882
 20
1445.237001757913
 30
0.0
 10
264.6572479228788
 20
1448.655667778251
 30
0.0
 10
265.2537928582382
 20
1451.889756035825
 30
0.0
 10
265.9084215176233
 20
1454.916880644401
 30
0.0
 10
266.6145156709907
 20
1457.715828940882
 30
0.0
 10
267.3643809142656
 20
1460.265743995156
 30
0.0
 10
268.1481176247713
 20
1462.547542219564
 30
0.0
 10
268.9536045580035
 20
1464.542375586071
 30
0.0
 10
269.7650061340802
 20
1466.23447334828
 30
0.0
 10
270.5615438553017
 20
1467.610441344503
 30
0.0
 10
271.3159837359677
 20
1468.663687120862
 30
0.0
 10
271.9930405994731
 20
1469.397469018519
 30
0.0
 10
272.548697310965
 20
1469.833153159608
 30
0.0
 10
272.9391596782891
 20
1470.021939863546
 30
0.0
 10
273.0936564875312
 20
1470.051066662063
 30
0.0
 10
273.1631612205778
 20
1470.053130574741
 30
0.0
 10
273.1794411964701
 20
1470.053614001511
 30
0.0
  0
SPLINE
  5
84
330
1F
100
AcDbEntity
  8
0
  6
Continuous
 62
     7
370
    15
100
AcDbSpline
210
0.0
220
0.0
230
1.0
 70
     8
 71
     3
 72
    29
 73
    25
 74
     0
 42
0.000000001
 43
0.00000001
 40
0.0
 40
0.0
 40
0.0
 40
0.0
 40
0.0255719199382607
 40
0.0720857066302876
 40
0.1156171991367917
 40
0.1620439362600231
 40
0.2067180022559559
 40
0.2514319266812609
 40
0.2967973898215479
 40
0.3429784412873204
 40
0.3899133573545701
 40
0.4374764198496975
 40
0.4855367491408442
 40
0.5339830161781416
 40
0.5827250737916494
 40
0.6316935547342885
 40
0.6808349299637914
 40
0.7301087153329803
 40
0.7794837153237291
 40
0.8289345283272689
 40
0.8784422691518488
 40
0.9279900752672168
 40
0.9775644804355411
 40
1.0
 40
1.0
 40
1.0
 40
1.0
 10
273.1794411964701
 20
760.0535758545384
 30
0.0
 10
273.1507601976132
 20
760.0548381593551
 30
0.0
 10
273.0699101842215
 20
760.0583965208275
 30
0.0
 10
272.8696337762756
 20
760.1100380266395
 30
0.0
 10
272.4385249499578
 20
760.3464892614453
 30
0.0
 10
271.849256631617
 20
760.8467533083854
 30
0.0
 10
271.1492590192993
 20
761.6567527327061
 30
0.0
 10
270.4001797638307
 20
762.7558205087622
 30
0.0
 10
269.6207698481379
 20
764.1540677069962
 30
0.0
 10
268.8293275431057
 20
765.8536288399804
 30
0.0
 10
268.0423541300443
 20
767.8490585527549
 30
0.0
 10
267.2744166131377
 20
770.1286613667919
 30
0.0
 10
266.5378773085417
 20
772.6765400140272
 30
0.0
 10
265.842822601491
 20
775.4741723181488
 30
0.0
 10
265.1976367302227
 20
778.5011964381307
 30
0.0
 10
264.6093890580569
 20
781.7360983483228
 30
0.0
 10
264.0837067562048
 20
785.1563279931635
 30
0.0
 10
263.6253866433451
 20
788.7386583345308
 30
0.0
 10
263.2384400013358
 20
792.45916527077
 30
0.0
 10
262.9259686063144
 20
796.2933867743076
 30
0.0
 10
262.6902233609985
 20
800.2164510515175
 30
0.0
 10
262.5342321821656
 20
804.2029380314317
 30
0.0
 10
262.4691120338422
 20
807.4930231445363
 30
0.0
 10
262.4637269983784
 20
809.4453255315785
 30
0.0
 10
262.4620492286966
 20
810.0535877754673
 30
0.0
  0
SPLINE
  5
85
330
1F
100
AcDbEntity
  8
0
  6
Continuous
 62
     7
370
    15
100
AcDbSpline
210
0.0
220
0.0
230
1.0
 70
     8
 71
     3
 72
    29
 73
    25
 74
     0
 42
0.000000001
 43
0.00000001
 40
0.0
 40
0.0
 40
0.0
 40
0.0
 40
0.0255719403621769
 40
0.0720857642040808
 40
0.1156173413644134
 40
0.1620439125040812
 40
0.2067181753380722
 40
0.2514323554876543
 40
0.2967978548606691
 40
0.3429786120659342
 40
0.3899137570307747
 40
0.4374762100497759
 40
0.4855368164498193
 40
0.5339831221804373
 40
0.5827252187235095
 40
0.6316943335783042
 40
0.6808354347441463
 40
0.7301099139966267
 40
0.7794839358820036
 40
0.8289351373812558
 40
0.8784432744165858
 40
0.9279914822527374
 40
0.9775655616116277
 40
1.0
 40
1.0
 40
1.0
 40
1.0
 10
273.1794411964701
 20
1510.053575854538
 30
0.0
 10
273.150760215357
 20
1510.054839364201
 30
0.0
 10
273.0699102519841
 20
1510.05840112206
 30
0.0
 10
272.8696331594054
 20
1510.110002029743
 30
0.0
 10
272.4385271035603
 20
1510.346615685663
 30
0.0
 10
271.8492533139324
 20
1510.846631388592
 30
0.0
 10
271.1492587245569
 20
1511.656767885518
 30
0.0
 10
270.4001813763979
 20
1512.755883752669
 30
0.0
 10
269.6207740579946
 20
1514.154141149673
 30
0.0
 10
268.8293203502354
 20
1515.853605327822
 30
0.0
 10
268.0423645931046
 20
1517.84911119991
 30
0.0
 10
267.2744063669663
 20
1520.128585601469
 30
0.0
 10
266.537880808226
 20
1522.676518415786
 30
0.0
 10
265.8428227134585
 20
1525.474141097328
 30
0.0
 10
265.1976312518067
 20
1528.50117163633
 30
0.0
 10
264.6093970405986
 20
1531.736119142284
 30
0.0
 10
264.0836985586058
 20
1535.156340299471
 30
0.0
 10
263.6253972950487
 20
1538.738687422872
 30
0.0
 10
263.2384324641519
 20
1542.459163180513
 30
0.0
 10
262.9259698548443
 20
1546.293389159792
 30
0.0
 10
262.6902229327056
 20
1550.216480492232
 30
0.0
 10
262.5342333498769
 20
1554.202978406419
 30
0.0
 10
262.4691125039566
 20
1557.493033043497
 30
0.0
 10
262.4637270733992
 20
1559.445295725248
 30
0.0
 10
262.4620492286966
 20
1560.053528170823
 30
0.0
  0
LINE
  5
86
330
1F
100
AcDbEntity
  8
0
  6
Continuous
 62
     7
370
    15
100
AcDbLine
 10
262.4620492287
 20
1560.0535281708
 30
0.0
 11
262.4620492287
 21
1795.0535424759
 31
0.0
  0
SPLINE
  5
87
330
1F
100
AcDbEntity
  8
0
  6
Continuous
 62
     7
370
    15
100
AcDbSpline
210
0.0
220
0.0
230
1.0
 70
     8
 71
     3
 72
    29
 73
    25
 74
     0
 42
0.000000001
 43
0.00000001
 40
0.0
 40
0.0
 40
0.0
 40
0.0
 40
0.0260670235642954
 40
0.0756486156997385
 40
0.1252285770902126
 40
0.17478487738462
 40
0.2243051275454885
 40
0.2737733669575925
 40
0.3231743477039739
 40
0.3724850198214563
 40
0.4216801764260243
 40
0.470722996066996
 40
0.5195704883212507
 40
0.5681627057952311
 40
0.6164250764397072
 40
0.6642559189673776
 40
0.7115340367496692
 40
0.7581196851244486
 40
0.8038927710011563
 40
0.8488426398428528
 40
0.8932984616280584
 40
0.9380396800714002
 40
0.9854871392134071
 40
1.0
 40
1.0
 40
1.0
 40
1.0
 10
262.4620492286966
 20
1795.053542475937
 30
0.0
 10
262.4642938648616
 20
1795.760270924075
 30
0.0
 10
262.4708079809901
 20
1797.811254176741
 30
0.0
 10
262.5431052715846
 20
1801.199128992158
 30
0.0
 10
262.7049763593654
 20
1805.184365807607
 30
0.0
 10
262.9467992218925
 20
1809.105906741262
 30
0.0
 10
263.2655099538843
 20
1812.938234787606
 30
0.0
 10
263.6589681577217
 20
1816.656641730208
 30
0.0
 10
264.1241459143882
 20
1820.237001757913
 30
0.0
 10
264.6572479228788
 20
1823.655667778251
 30
0.0
 10
265.2537928582382
 20
1826.889756035825
 30
0.0
 10
265.9084215176233
 20
1829.916880644401
 30
0.0
 10
266.6145156709907
 20
1832.715828940882
 30
0.0
 10
267.3643809142656
 20
1835.265743995156
 30
0.0
 10
268.1481176247713
 20
1837.547542219564
 30
0.0
 10
268.9536045580035
 20
1839.542375586071
 30
0.0
 10
269.7650061340802
 20
1841.23447334828
 30
0.0
 10
270.5615438553017
 20
1842.610441344503
 30
0.0
 10
271.3159837359677
 20
1843.663687120862
 30
0.0
 10
271.9930405994731
 20
1844.397469018519
 30
0.0
 10
272.548697310965
 20
1844.833153159608
 30
0.0
 10
272.9391596782891
 20
1845.021939863546
 30
0.0
 10
273.0936564875312
 20
1845.051066662063
 30
0.0
 10
273.1631612205778
 20
1845.053130574741
 30
0.0
 10
273.1794411964701
 20
1845.053614001511
 30
0.0
  0
SPLINE
  5
88
330
1F
100
AcDbEntity
  8
0
  6
Continuous
 62
     7
370
    15
100
AcDbSpline
210
0.0
220
0.0
230
1.0
 70
     8
 71
     3
 72
    14
 73
    10
 74
     0
 42
0.000000001
 43
0.00000001
 40
0.0
 40
0.0
 40
0.0
 40
0.0
 40
0.0812112416575069
 40
0.2356882694091514
 40
0.3901556417639354
 40
0.544551421333558
 40
0.6988351852813675
 40
0.8529586312160622
 40
1.0
 40
1.0
 40
1.0
 40
1.0
 10
322.484462959318
 20
1185.053587775467
 30
0.0
 10
322.4822175875341
 20
1184.346880430624
 30
0.0
 10
322.4757011523817
 20
1182.295900447
 30
0.0
 10
322.4034277368132
 20
1178.907999586169
 30
0.0
 10
322.2414669918221
 20
1174.922956721485
 30
0.0
 10
321.9999622546574
 20
1171.00072400784
 30
0.0
 10
321.680071433905
 20
1167.171006483727
 30
0.0
 10
321.2967864397484
 20
1163.49823358108
 30
0.0
 10
320.9840293453016
 20
1161.183636137991
 30
0.0
 10
320.8313281364725
 20
1160.05355201268
 30
0.0
  0
SPLINE
  5
89
330
1F
100
AcDbEntity
  8
0
  6
Continuous
 62
     7
370
    15
100
AcDbSpline
210
0.0
220
0.0
230
1.0
 70
     8
 71
     3
 72
    29
 73
    25
 74
     0
 42
0.000000001
 43
0.00000001
 40
0.0
 40
0.0
 40
0.0
 40
0.0
 40
0.0255719489066342
 40
0.0720857431940817
 40
0.1156173074288147
 40
0.1620440678471428
 40
0.2067182439485247
 40
0.2514321908095049
 40
0.296797511492213
 40
0.3429785861298069
 40
0.389913485946266
 40
0.4374762129510549
 40
0.4855369397259176
 40
0.5339832310716318
 40
0.5827252535611297
 40
0.6316938131507457
 40
0.6808355263502388
 40
0.7301093364430604
 40
0.7794839549874311
 40
0.828935141803401
 40
0.8784425507996056
 40
0.9279907709040592
 40
0.9775648355431816
 40
1.0
 40
1.0
 40
1.0
 40
1.0
 10
311.7670411892221
 20
1095.053554396866
 30
0.0
 10
311.7957340379532
 20
1095.052288599168
 30
0.0
 10
311.8766174048284
 20
1095.048720393703
 30
0.0
 10
312.0768740554839
 20
1094.997196686343
 30
0.0
 10
312.5079880676376
 20
1094.760612068585
 30
0.0
 10
313.0972560920915
 20
1094.260383765616
 30
0.0
 10
313.7972525491435
 20
1093.450376354792
 30
0.0
 10
314.5463306271012
 20
1092.351312843632
 30
0.0
 10
315.3257441745603
 20
1090.9530608834
 30
0.0
 10
316.1171846442651
 20
1089.253493727738
 30
0.0
 10
316.9041537421625
 20
1087.258111026854
 30
0.0
 10
317.6721044887208
 20
1084.978521771938
 30
0.0
 10
318.4086268096198
 20
1082.430622272654
 30
0.0
 10
319.1037034898841
 20
1079.632992008633
 30
0.0
 10
319.7488243506984
 20
1076.605957450738
 30
0.0
 10
320.3371389134606
 20
1073.371060613866
 30
0.0
 10
320.8627998730435
 20
1069.950806304223
 30
0.0
 10
321.3211242682177
 20
1066.368482827977
 30
0.0
 10
321.7080757578315
 20
1062.647976102851
 30
0.0
 10
322.0205405007343
 20
1058.813760596191
 30
0.0
 10
322.2562912274954
 20
1054.890689461482
 30
0.0
 10
322.4122784589862
 20
1050.904212786354
 30
0.0
 10
322.4774001494783
 20
1047.614136919166
 30
0.0
 10
322.4827851964108
 20
1045.66185438694
 30
0.0
 10
322.4844629593179
 20
1045.053602080582
 30
0.0
  0
SPLINE
  5
8A
330
1F
100
AcDbEntity
  8
0
  6
Continuous
 62
     7
370
    15
100
AcDbSpline
210
0.0
220
0.0
230
1.0
 70
     8
 71
     3
 72
    14
 73
    10
 74
     0
 42
0.000000001
 43
0.00000001
 40
0.0
 40
0.0
 40
0.0
 40
0.0
 40
0.081211318586783
 40
0.2356873547340414
 40
0.390157127962761
 40
0.5445530537874501
 40
0.6988358786364754
 40
0.8529605246603639
 40
1.0
 40
1.0
 40
1.0
 40
1.0
 10
322.484462959318
 20
810.0535877754673
 30
0.0
 10
322.482217648723
 20
809.3468804063307
 30
0.0
 10
322.4757014226117
 20
807.295910254616
 30
0.0
 10
322.4034258316414
 20
803.9080005620584
 30
0.0
 10
322.2414686207794
 20
799.9229460321726
 30
0.0
 10
321.9999638945247
 20
796.0007016833576
 30
0.0
 10
321.6800675546568
 20
792.1709926372818
 30
0.0
 10
321.2967920651232
 20
788.4982230346493
 30
0.0
 10
320.98403010576
 20
786.18364467348
 30
0.0
 10
320.8313281364725
 20
785.0535818150029
 30
0.0
  0
SPLINE
  5
8B
330
1F
100
AcDbEntity
  8
0
  6
Continuous
 62
     7
370
    15
100
AcDbSpline
210
0.0
220
0.0
230
1.0
 70
     8
 71
     3
 72
    14
 73
    10
 74
     0
 42
0.000000001
 43
0.00000001
 40
0.0
 40
0.0
 40
0.0
 40
0.0
 40
0.0812104849499982
 40
0.2356871326646028
 40
0.3901562439430946
 40
0.5445523510551172
 40
0.6988354897617833
 40
0.8529598488837519
 40
0.9999999999999999
 40
0.9999999999999999
 40
0.9999999999999999
 40
0.9999999999999999
 10
322.484462959318
 20
435.0535765995965
 30
0.0
 10
322.4822175899112
 20
434.3468766948209
 30
0.0
 10
322.4757011323678
 20
432.2959090849925
 30
0.0
 10
322.4034265674404
 20
428.9080076435708
 30
0.0
 10
322.2414679512538
 20
424.9229538704741
 30
0.0
 10
321.9999636426936
 20
421.0007121068472
 30
0.0
 10
321.6800686422591
 20
417.1710002216392
 30
0.0
 10
321.296790323176
 20
413.4982300370271
 30
0.0
 10
320.9840298733642
 20
411.183645725294
 30
0.0
 10
320.8313281364725
 20
410.0535762270674
 30
0.0
  0
SPLINE
  5
8C
330
1F
100
AcDbEntity
  8
0
  6
Continuous
 62
     7
370
    15
100
AcDbSpline
210
0.0
220
0.0
230
1.0
 70
     8
 71
     3
 72
    14
 73
    10
 74
     0
 42
0.000000001
 43
0.00000001
 40
0.0
 40
0.0
 40
0.0
 40
0.0
 40
0.0812091398925444
 40
0.2356842360395738
 40
0.3901542071978601
 40
0.5445503308574918
 40
0.6988344386456697
 40
0.8529603362515961
 40
1.0
 40
1.0
 40
1.0
 40
1.0
 10
322.484462959318
 20
1560.053528170823
 30
0.0
 10
322.4822175969964
 20
1559.346840668364
 30
0.0
 10
322.4757011321738
 20
1557.295900289533
 30
0.0
 10
322.4034252224371
 20
1553.908020677357
 30
0.0
 10
322.2414688271099
 20
1549.922975641053
 30
0.0
 10
321.999962715176
 20
1546.00072296833
 30
0.0
 10
321.6800674786974
 20
1542.170993364369
 30
0.0
 10
321.296793788276
 20
1538.498200251886
 30
0.0
 10
320.9840303119368
 20
1536.183614516321
 30
0.0
 10
320.8313281364725
 20
1535.05355201268
 30
0.0
  0
SPLINE
  5
8D
330
1F
100
AcDbEntity
  8
0
  6
Continuous
 62
     7
370
    15
100
AcDbSpline
210
0.0
220
0.0
230
1.0
 70
     8
 71
     3
 72
    14
 73
    10
 74
     0
 42
0.000000001
 43
0.00000001
 40
0.0
 40
0.0
 40
0.0
 40
0.0
 40
0.0812091398925444
 40
0.2356842360395738
 40
0.3901542071978601
 40
0.5445503308574918
 40
0.6988344386456697
 40
0.8529603362515961
 40
1.0
 40
1.0
 40
1.0
 40
1.0
 10
322.484462959318
 20
1935.053528170823
 30
0.0
 10
322.4822175969964
 20
1934.346840668364
 30
0.0
 10
322.4757011321738
 20
1932.295900289533
 30
0.0
 10
322.4034252224371
 20
1928.908020677357
 30
0.0
 10
322.2414688271099
 20
1924.922975641053
 30
0.0
 10
321.999962715176
 20
1921.000722968331
 30
0.0
 10
321.6800674786974
 20
1917.170993364369
 30
0.0
 10
321.296793788276
 20
1913.498200251887
 30
0.0
 10
320.9840303119368
 20
1911.183614516321
 30
0.0
 10
320.8313281364725
 20
1910.05355201268
 30
0.0
  0
SPLINE
  5
8E
330
1F
100
AcDbEntity
  8
0
  6
Continuous
 62
     7
370
    15
100
AcDbSpline
210
0.0
220
0.0
230
1.0
 70
     8
 71
     3
 72
    29
 73
    25
 74
     0
 42
0.000000001
 43
0.00000001
 40
0.0
 40
0.0
 40
0.0
 40
0.0
 40
0.0255719295039697
 40
0.072085704242512
 40
0.1156172354477586
 40
0.1620439606398762
 40
0.206717941699205
 40
0.2514320746452597
 40
0.2967973609071224
 40
0.3429780693606351
 40
0.3899133163843411
 40
0.437476438950081
 40
0.4855371292589644
 40
0.533983383846153
 40
0.5827253693527399
 40
0.6316932969908371
 40
0.6808343462797735
 40
0.7301087735145443
 40
0.7794826762359021
 40
0.828933825530884
 40
0.8784419103018384
 40
0.9279900928116802
 40
0.9775641198365813
 40
1.0
 40
1.0
 40
1.0
 40
1.0
 10
311.7670411892221
 20
1845.053614001511
 30
0.0
 10
311.7957340456441
 20
1845.05235097906
 30
0.0
 10
311.8766174518643
 20
1845.048790596069
 30
0.0
 10
312.076873885899
 20
1844.99717330651
 30
0.0
 10
312.5079884062051
 20
1844.7606248404
 30
0.0
 10
313.0972540758892
 20
1844.260356105569
 30
0.0
 10
313.7972566338187
 20
1843.450472772375
 30
0.0
 10
314.5463284348032
 20
1842.35129423084
 30
0.0
 10
315.3257402606567
 20
1840.953051586394
 30
0.0
 10
316.1171923261854
 20
1839.253571616184
 30
0.0
 10
316.904153610548
 20
1837.258104081098
 30
0.0
 10
317.672100502245
 20
1834.978460874884
 30
0.0
 10
318.4086271809287
 20
1832.430564743689
 30
0.0
 10
319.1037038114696
 20
1829.632933153702
 30
0.0
 10
319.7488200499786
 20
1826.605905026594
 30
0.0
 10
320.3371381773854
 20
1823.371061335293
 30
0.0
 10
320.862808566268
 20
1819.950844523579
 30
0.0
 10
321.3211158774153
 20
1816.368507153204
 30
0.0
 10
321.7080797015414
 20
1812.648022723105
 30
0.0
 10
322.0205423686492
 20
1808.81380149116
 30
0.0
 10
322.256289320117
 20
1804.890707693766
 30
0.0
 10
322.4122787639342
 20
1800.904213033356
 30
0.0
 10
322.4774005486266
 20
1797.614117061345
 30
0.0
 10
322.482785262468
 20
1795.661814651527
 30
0.0
 10
322.484462959318
 20
1795.053542475937
 30
0.0
  0
SPLINE
  5
8F
330
1F
100
AcDbEntity
  8
0
  6
Continuous
 62
     7
370
    15
100
AcDbSpline
210
0.0
220
0.0
230
1.0
 70
     8
 71
     3
 72
    29
 73
    25
 74
     0
 42
0.000000001
 43
0.00000001
 40
0.0
 40
0.0
 40
0.0
 40
0.0
 40
0.0255719295039697
 40
0.072085704242512
 40
0.1156172354477586
 40
0.1620439606398762
 40
0.206717941699205
 40
0.2514320746452597
 40
0.2967973609071224
 40
0.3429780693606351
 40
0.3899133163843411
 40
0.437476438950081
 40
0.4855371292589644
 40
0.533983383846153
 40
0.5827253693527399
 40
0.6316932969908371
 40
0.6808343462797735
 40
0.7301087735145443
 40
0.7794826762359021
 40
0.828933825530884
 40
0.8784419103018384
 40
0.9279900928116802
 40
0.9775641198365813
 40
1.0
 40
1.0
 40
1.0
 40
1.0
 10
311.7670411892221
 20
1470.053614001511
 30
0.0
 10
311.7957340456441
 20
1470.05235097906
 30
0.0
 10
311.8766174518643
 20
1470.048790596069
 30
0.0
 10
312.076873885899
 20
1469.99717330651
 30
0.0
 10
312.5079884062051
 20
1469.7606248404
 30
0.0
 10
313.0972540758892
 20
1469.260356105569
 30
0.0
 10
313.7972566338187
 20
1468.450472772375
 30
0.0
 10
314.5463284348032
 20
1467.35129423084
 30
0.0
 10
315.3257402606567
 20
1465.953051586394
 30
0.0
 10
316.1171923261854
 20
1464.253571616184
 30
0.0
 10
316.904153610548
 20
1462.258104081098
 30
0.0
 10
317.672100502245
 20
1459.978460874884
 30
0.0
 10
318.4086271809287
 20
1457.430564743689
 30
0.0
 10
319.1037038114696
 20
1454.632933153702
 30
0.0
 10
319.7488200499786
 20
1451.605905026594
 30
0.0
 10
320.3371381773854
 20
1448.371061335293
 30
0.0
 10
320.862808566268
 20
1444.950844523579
 30
0.0
 10
321.3211158774153
 20
1441.368507153204
 30
0.0
 10
321.7080797015414
 20
1437.648022723105
 30
0.0
 10
322.0205423686492
 20
1433.81380149116
 30
0.0
 10
322.256289320117
 20
1429.890707693766
 30
0.0
 10
322.4122787639342
 20
1425.904213033356
 30
0.0
 10
322.4774005486266
 20
1422.614117061345
 30
0.0
 10
322.482785262468
 20
1420.661814651527
 30
0.0
 10
322.484462959318
 20
1420.053542475937
 30
0.0
  0
SPLINE
  5
90
330
1F
100
AcDbEntity
  8
0
  6
Continuous
 62
     7
370
    15
100
AcDbSpline
210
0.0
220
0.0
230
1.0
 70
     8
 71
     3
 72
    29
 73
    25
 74
     0
 42
0.000000001
 43
0.00000001
 40
0.0
 40
0.0
 40
0.0
 40
0.0
 40
0.0255719382628459
 40
0.0720857289332481
 40
0.1156172251630486
 40
0.1620439662572098
 40
0.2067182043410251
 40
0.2514321325907613
 40
0.2967974343911045
 40
0.3429783242334375
 40
0.3899135873333656
 40
0.4374762945411654
 40
0.4855367625887771
 40
0.5339830337697369
 40
0.5827250359713886
 40
0.631693575178867
 40
0.6808349546114857
 40
0.7301087441951156
 40
0.7794836813690958
 40
0.8289348476020447
 40
0.8784422359918269
 40
0.9279904354728714
 40
0.9775648448813491
 40
1.0
 40
1.0
 40
1.0
 40
1.0
 10
311.7670411892221
 20
720.0535841991887
 30
0.0
 10
311.7957340482072
 20
720.0523218706923
 30
0.0
 10
311.8766174616527
 20
720.0487634439165
 30
0.0
 10
312.0768737228686
 20
719.9971227805369
 30
0.0
 10
312.5079883235834
 20
719.7606681446254
 30
0.0
 10
313.0972569200787
 20
719.2604165777744
 30
0.0
 10
313.797251566207
 20
718.4503677969922
 30
0.0
 10
314.5463311576397
 20
717.3513183360816
 30
0.0
 10
315.3257416100535
 20
715.9530496643025
 30
0.0
 10
316.1171910237989
 20
714.253540533057
 30
0.0
 10
316.9041493234517
 20
712.2580701032289
 30
0.0
 10
317.6721026322996
 20
709.978494830154
 30
0.0
 10
318.40862914838
 20
707.4306227937443
 30
0.0
 10
319.1037030931267
 20
704.6329904457116
 30
0.0
 10
319.7488247324696
 20
701.6059585407548
 30
0.0
 10
320.33713652379
 20
698.3710647126425
 30
0.0
 10
320.8628018814159
 20
694.9508311959079
 30
0.0
 10
321.3211258933007
 20
691.3685050490042
 30
0.0
 10
321.7080741046855
 20
687.6479834450593
 30
0.0
 10
322.020540763891
 20
683.8137609816672
 30
0.0
 10
322.2562911151402
 20
679.8906893472782
 30
0.0
 10
322.4122790285776
 20
675.9042030565487
 30
0.0
 10
322.4774000155844
 20
672.6141169934349
 30
0.0
 10
322.4827851710958
 20
670.661824577474
 30
0.0
 10
322.4844629593179
 20
670.0535722782597
 30
0.0
  0
SPLINE
  5
91
330
1F
100
AcDbEntity
  8
0
  6
Continuous
 62
     7
370
    15
100
AcDbSpline
210
0.0
220
0.0
230
1.0
 70
     8
 71
     3
 72
    29
 73
    25
 74
     0
 42
0.000000001
 43
0.00000001
 40
0.0
 40
0.0
 40
0.0
 40
0.0
 40
0.0255719382440467
 40
0.0720857256313629
 40
0.1156172309046714
 40
0.1620439526299653
 40
0.206718160179759
 40
0.2514320743615756
 40
0.2967973931403777
 40
0.3429784068345446
 40
0.3899135260429993
 40
0.4374763138466874
 40
0.4855368710739142
 40
0.5339830769070723
 40
0.5827251137130811
 40
0.6316935410480892
 40
0.6808350376238808
 40
0.7301089086735316
 40
0.7794835911112583
 40
0.8289346697430378
 40
0.8784423252831525
 40
0.9279902528018955
 40
0.9775646618583083
 40
1.0
 40
1.0
 40
1.0
 40
1.0
 10
311.7670411892221
 20
345.0535767486081
 30
0.0
 10
311.7957340455424
 20
345.0523122545828
 30
0.0
 10
311.8766174478307
 20
345.0487477234747
 30
0.0
 10
312.0768738057994
 20
344.9971325892074
 30
0.0
 10
312.5079881434504
 20
344.7606485936442
 30
0.0
 10
313.0972568048429
 20
344.2604181907537
 30
0.0
 10
313.7972517601447
 20
343.4503803097747
 30
0.0
 10
314.5463312221052
 20
342.3513326109019
 30
0.0
 10
315.3257431029461
 20
340.953066338709
 30
0.0
 10
316.1171878088639
 20
339.2535202952025
 30
0.0
 10
316.9041519687568
 20
337.2580875785943
 30
0.0
 10
317.6721025043527
 20
334.9784926292957
 30
0.0
 10
318.4086276734072
 20
332.4306118307905
 30
0.0
 10
319.1037042923597
 20
329.6329873583985
 30
0.0
 10
319.748823248797
 20
326.6059515581879
 30
0.0
 10
320.3371383058862
 20
323.3710658294465
 30
0.0
 10
320.8628015989227
 20
319.9508238797591
 30
0.0
 10
321.3211241675947
 20
316.368497217498
 30
0.0
 10
321.7080748970115
 20
312.6479874380007
 30
0.0
 10
322.0205419591898
 20
308.8137670183428
 30
0.0
 10
322.2562896217065
 20
304.8906956386627
 30
0.0
 10
322.412279678214
 20
300.9042109480259
 30
0.0
 10
322.4774000730324
 20
297.6141269024366
 30
0.0
 10
322.482785177552
 20
295.6618295382008
 30
0.0
 10
322.484462959318
 20
295.0535722782597
 30
0.0
  0
LINE
  5
92
330
1F
100
AcDbEntity
  8
0
  6
Continuous
 62
     7
370
    15
100
AcDbLine
 10
322.4844629593
 20
1420.0535424759
 30
0.0
 11
322.4844629593
 21
1185.0535877755
 31
0.0
  0
LINE
  5
93
330
1F
100
AcDbEntity
  8
0
  6
Continuous
 62
     7
370
    15
100
AcDbLine
 10
322.4844629593
 20
1045.0536020806
 30
0.0
 11
322.4844629593
 21
810.0535877755
 31
0.0
  0
SPLINE
  5
94
330
1F
100
AcDbEntity
  8
0
  6
Continuous
 62
     7
370
    15
100
AcDbSpline
210
0.0
220
0.0
230
1.0
 70
     8
 71
     3
 72
    15
 73
    11
 74
     0
 42
0.000000001
 43
0.00000001
 40
0.0
 40
0.0
 40
0.0
 40
0.0
 40
0.1344497032272267
 40
0.2560177128606519
 40
0.3660359219110304
 40
0.4711644307648298
 40
0.5791163499093498
 40
0.704132182149008
 40
0.8719023530041325
 40
1.0
 40
1.0
 40
1.0
 40
1.0
 10
326.0020906753824
 20
2115.053594928025
 30
0.0
 10
325.6837955699874
 20
2115.025514490567
 30
0.0
 10
325.0777013731095
 20
2114.972044016468
 30
0.0
 10
324.2908157046908
 20
2114.585775257941
 30
0.0
 10
323.6839543311269
 20
2114.08301108057
 30
0.0
 10
323.2343564418732
 20
2113.493840325377
 30
0.0
 10
322.904909523578
 20
2112.826798099563
 30
0.0
 10
322.6582071525722
 20
2112.007818349599
 30
0.0
 10
322.5102356778032
 20
2111.068583441551
 30
0.0
 10
322.4922499723377
 20
2110.360268612319
 30
0.0
 10
322.484462959318
 20
2110.053599696396
 30
0.0
  0
LINE
  5
95
330
1F
100
AcDbEntity
  8
0
  6
Continuous
 62
     7
370
    15
100
AcDbLine
 10
322.4844629593
 20
2110.0535996964
 30
0.0
 11
322.4844629593
 21
1935.0535281708
 31
0.0
  0
LINE
  5
96
330
1F
100
AcDbEntity
  8
0
  6
Continuous
 62
     7
370
    15
100
AcDbLine
 10
322.4844629593
 20
1795.0535424759
 30
0.0
 11
322.4844629593
 21
1560.0535281708
 31
0.0
  0
LINE
  5
97
330
1F
100
AcDbEntity
  8
0
  6
Continuous
 62
     7
370
    15
100
AcDbLine
 10
322.4844629593
 20
670.0535722783
 30
0.0
 11
322.4844629593
 21
435.0535765996
 31
0.0
  0
SPLINE
  5
98
330
1F
100
AcDbEntity
  8
0
  6
Continuous
 62
     7
370
    15
100
AcDbSpline
210
0.0
220
0.0
230
1.0
 70
     8
 71
     3
 72
    15
 73
    11
 74
     0
 42
0.000000001
 43
0.00000001
 40
0.0
 40
0.0
 40
0.0
 40
0.0
 40
0.0793807266930834
 40
0.235901194467284
 40
0.4190366636304459
 40
0.5522560210139306
 40
0.6658927231302052
 40
0.7900890403353382
 40
0.91994810127907
 40
1.0
 40
1.0
 40
1.0
 40
1.0
 10
322.4844629593179
 20
120.0535901596531
 30
0.0
 10
322.4874953126943
 20
119.8638568595132
 30
0.0
 10
322.496506766902
 20
119.3000132919646
 30
0.0
 10
322.6068381484141
 20
118.3317230427123
 30
0.0
 10
322.8579374059762
 20
117.3544302398863
 30
0.0
 10
323.2913785200696
 20
116.5069010560893
 30
0.0
 10
323.8495301526188
 20
115.8535691531237
 30
0.0
 10
324.561649122799
 20
115.357812440003
 30
0.0
 10
325.3176524192666
 20
115.0905214436977
 30
0.0
 10
325.813133433533
 20
115.0637678925039
 30
0.0
 10
326.0020906753824
 20
115.0535651257023
 30
0.0
  0
LINE
  5
99
330
1F
100
AcDbEntity
  8
0
  6
Continuous
 62
     7
370
    15
100
AcDbLine
 10
322.4844629593
 20
295.0535722783
 30
0.0
 11
322.4844629593
 21
120.0535901597
 31
0.0
  0
SPLINE
  5
9A
330
1F
100
AcDbEntity
  8
0
  6
Continuous
 62
     7
370
    15
100
AcDbSpline
210
0.0
220
0.0
230
1.0
 70
     8
 71
     3
 72
    15
 73
    11
 74
     0
 42
0.000000001
 43
0.00000001
 40
0.0
 40
0.0
 40
0.0
 40
0.0
 40
0.1344492197806931
 40
0.2560143610140762
 40
0.366037054817734
 40
0.4711649218102109
 40
0.5791179053670944
 40
0.7041291665693026
 40
0.871891161638239
 40
1.0
 40
1.0
 40
1.0
 40
1.0
 10
352.119266492872
 20
115.0535651257023
 30
0.0
 10
352.4375586782407
 20
115.0816497989264
 30
0.0
 10
353.0436415590925
 20
115.1351278308666
 30
0.0
 10
353.8305707122936
 20
115.521341887631
 30
0.0
 10
354.4373875099246
 20
116.0241834885227
 30
0.0
 10
354.8869950450269
 20
116.613351926987
 30
0.0
 10
355.2164915382091
 20
117.2803789165688
 30
0.0
 10
355.4631200691516
 20
118.0993363884033
 30
0.0
 10
355.6111802711483
 20
119.0385570125767
 30
0.0
 10
355.6291245376081
 20
119.7468898010702
 30
0.0
 10
355.6368942089365
 20
120.0535901596531
 30
0.0
  0
SPLINE
  5
9B
330
1F
100
AcDbEntity
  8
0
  6
Continuous
 62
     7
370
    15
100
AcDbSpline
210
0.0
220
0.0
230
1.0
 70
     8
 71
     3
 72
    15
 73
    11
 74
     0
 42
0.000000001
 43
0.00000001
 40
0.0
 40
0.0
 40
0.0
 40
0.0
 40
0.0793809318090067
 40
0.2358938232066176
 40
0.419028764136718
 40
0.5522450749065843
 40
0.6658870847579423
 40
0.7900911270756458
 40
0.919947894428871
 40
0.9999999999999999
 40
0.9999999999999999
 40
0.9999999999999999
 40
0.9999999999999999
 10
355.6368942089365
 20
2110.053599696396
 30
0.0
 10
355.6338624365866
 20
2110.24333329256
 30
0.0
 10
355.6248530138649
 20
2110.807158664345
 30
0.0
 10
355.5145029125026
 20
2111.775416915485
 30
0.0
 10
355.2634616440078
 20
2112.752700156995
 30
0.0
 10
354.8300014018828
 20
2113.600217772417
 30
0.0
 10
354.2718066384256
 20
2114.253543692797
 30
0.0
 10
353.5597531060544
 20
2114.749439540843
 30
0.0
 10
352.8036927483943
 20
2115.01662554848
 30
0.0
 10
352.3082221349278
 20
2115.043388462694
 30
0.0
 10
352.119266492872
 20
2115.053594928025
 30
0.0
  0
LINE
  5
9C
330
1F
100
AcDbEntity
  8
0
  6
Continuous
 62
     7
370
    15
100
AcDbLine
 10
355.6368942089
 20
120.0535901597
 30
0.0
 11
355.6368942089
 21
385.0535758545
 31
0.0
  0
LINE
  5
9D
330
1F
100
AcDbEntity
  8
0
  6
Continuous
 62
     7
370
    15
100
AcDbLine
 10
355.6368942089
 20
410.0535762271
 30
0.0
 11
355.6368942089
 21
760.0535758545
 31
0.0
  0
LINE
  5
9E
330
1F
100
AcDbEntity
  8
0
  6
Continuous
 62
     7
370
    15
100
AcDbLine
 10
355.6368942089
 20
785.053581815
 30
0.0
 11
355.6368942089
 21
1135.0535758545
 31
0.0
  0
LINE
  5
9F
330
1F
100
AcDbEntity
  8
0
  6
Continuous
 62
     7
370
    15
100
AcDbLine
 10
355.6368942089
 20
1160.0535520127
 30
0.0
 11
355.6368942089
 21
1510.0535758545
 31
0.0
  0
LINE
  5
A0
330
1F
100
AcDbEntity
  8
0
  6
Continuous
 62
     7
370
    15
100
AcDbLine
 10
355.6368942089
 20
1535.0535520127
 30
0.0
 11
355.6368942089
 21
1885.0535758545
 31
0.0
  0
LINE
  5
A1
330
1F
100
AcDbEntity
  8
0
  6
Continuous
 62
     7
370
    15
100
AcDbLine
 10
355.6368942089
 20
1910.0535520127
 30
0.0
 11
355.6368942089
 21
2110.0535996964
 31
0.0
  0
LINE
  5
A2
330
1F
100
AcDbEntity
  8
0
  6
Continuous
 62
     7
370
    15
100
AcDbLine
 10
1217.8103322811
 20
120.0535901597
 30
0.0
 11
1217.8103322811
 21
2110.0535996964
 31
0.0
  0
SPLINE
  5
A3
330
1F
100
AcDbEntity
  8
0
  6
Continuous
 62
     7
370
    15
100
AcDbSpline
210
0.0
220
0.0
230
1.0
 70
     8
 71
     3
 72
    15
 73
    11
 74
     0
 42
0.000000001
 43
0.00000001
 40
0.0
 40
0.0
 40
0.0
 40
0.0
 40
0.1344491290576007
 40
0.2560141882617569
 40
0.3660368078247532
 40
0.4711646038794796
 40
0.5791183352839377
 40
0.7041297355868543
 40
0.8718910128769047
 40
1.0
 40
1.0
 40
1.0
 40
1.0
 10
1214.292704565077
 20
115.0535651257023
 30
0.0
 10
1214.610996722632
 20
115.0816497858473
 30
0.0
 10
1215.217079550523
 20
115.1351277928825
 30
0.0
 10
1216.004009060561
 20
115.521342017449
 30
0.0
 10
1216.610824670373
 20
116.0241830597717
 30
0.0
 10
1217.060437542849
 20
116.6133549675965
 30
0.0
 10
1217.38991773574
 20
117.2803763234289
 30
0.0
 10
1217.636611015434
 20
118.0993334946872
 30
0.0
 10
1217.784607730328
 20
119.0385606133688
 30
0.0
 10
1217.802559386272
 20
119.7468902289294
 30
0.0
 10
1217.810332281141
 20
120.0535901596531
 30
0.0
  0
SPLINE
  5
A4
330
1F
100
AcDbEntity
  8
0
  6
Continuous
 62
     7
370
    15
100
AcDbSpline
210
0.0
220
0.0
230
1.0
 70
     8
 71
     3
 72
    15
 73
    11
 74
     0
 42
0.000000001
 43
0.00000001
 40
0.0
 40
0.0
 40
0.0
 40
0.0
 40
0.0793809116683655
 40
0.2358936906642913
 40
0.4190295015192054
 40
0.5522449126691921
 40
0.6658874432694463
 40
0.790090946743453
 40
0.9199476208384211
 40
1.0
 40
1.0
 40
1.0
 40
1.0
 10
1217.810332281141
 20
2110.053599696396
 30
0.0
 10
1217.807312040211
 20
2110.243333203012
 30
0.0
 10
1217.798336887815
 20
2110.807158134948
 30
0.0
 10
1217.687972295254
 20
2111.775422087293
 30
0.0
 10
1217.436896964274
 20
2112.752691761865
 30
0.0
 10
1217.003436741703
 20
2113.600223570118
 30
0.0
 10
1216.445248190475
 20
2114.253539770422
 30
0.0
 10
1215.733189290398
 20
2114.749441203685
 30
0.0
 10
1214.977129163491
 20
2115.016625643008
 30
0.0
 10
1214.481660099621
 20
2115.043388469887
 30
0.0
 10
1214.292704565077
 20
2115.053594928025
 30
0.0
  0
SPLINE
  5
A5
330
1F
100
AcDbEntity
  8
0
  6
Continuous
 62
     7
370
    15
100
AcDbSpline
210
0.0
220
0.0
230
1.0
 70
     8
 71
     3
 72
    15
 73
    11
 74
     0
 42
0.000000001
 43
0.00000001
 40
0.0
 40
0.0
 40
0.0
 40
0.0
 40
0.1344502026769344
 40
0.2560142721379438
 40
0.3660326137604499
 40
0.4711612492942801
 40
0.5791158427438403
 40
0.7041318256277875
 40
0.8719021986462513
 40
0.9999999999999999
 40
0.9999999999999999
 40
0.9999999999999999
 40
0.9999999999999999
 10
1188.175528747587
 20
2115.053594928025
 30
0.0
 10
1187.857233166787
 20
2115.025516601882
 30
0.0
 10
1187.251148461663
 20
2114.972051065297
 30
0.0
 10
1186.464277560617
 20
2114.585765460338
 30
0.0
 10
1185.857419808888
 20
2114.083013342145
 30
0.0
 10
1185.407828864074
 20
2113.493830178764
 30
0.0
 10
1185.078339997592
 20
2112.826809656924
 30
0.0
 10
1184.831648844741
 20
2112.007815838271
 30
0.0
 10
1184.683673009125
 20
2111.068583955533
 30
0.0
 10
1184.665687820691
 20
2110.360268767614
 30
0.0
 10
1184.657901031523
 20
2110.053599696396
 30
0.0
  0
SPLINE
  5
A6
330
1F
100
AcDbEntity
  8
0
  6
Continuous
 62
     7
370
    15
100
AcDbSpline
210
0.0
220
0.0
230
1.0
 70
     8
 71
     3
 72
    15
 73
    11
 74
     0
 42
0.000000001
 43
0.00000001
 40
0.0
 40
0.0
 40
0.0
 40
0.0
 40
0.0793809575536061
 40
0.2359015901291129
 40
0.4190372521166701
 40
0.5522559458397793
 40
0.6658953752476907
 40
0.790088488238275
 40
0.9199476859113636
 40
0.9999999999999999
 40
0.9999999999999999
 40
0.9999999999999999
 40
0.9999999999999999
 10
1184.657901031523
 20
120.0535901596531
 30
0.0
 10
1184.660933390106
 20
119.8638569573641
 30
0.0
 10
1184.669944848695
 20
119.3000143747141
 30
0.0
 10
1184.780275730589
 20
118.3317214521506
 30
0.0
 10
1185.031376942164
 20
117.3544371344251
 30
0.0
 10
1185.464812829581
 20
116.5068863493315
 30
0.0
 10
1186.022998471826
 20
115.8535885219571
 30
0.0
 10
1186.735087683302
 20
115.3578022005999
 30
0.0
 10
1187.491093295643
 20
115.0905222559715
 30
0.0
 10
1187.986571929916
 20
115.0637681356517
 30
0.0
 10
1188.175528747587
 20
115.0535651257023
 30
0.0
  0
SPLINE
  5
A7
330
1F
100
AcDbEntity
  8
0
  6
Continuous
 62
     7
370
    15
100
AcDbSpline
210
0.0
220
0.0
230
1.0
 70
     8
 71
     3
 72
    29
 73
    25
 74
     0
 42
0.000000001
 43
0.00000001
 40
0.0
 40
0.0
 40
0.0
 40
0.0
 40
0.0255719230399973
 40
0.0720857153738968
 40
0.1156172131605372
 40
0.1620439559150827
 40
0.2067181079070247
 40
0.2514320377558888
 40
0.2967975063987628
 40
0.3429783978926874
 40
0.3899135110641248
 40
0.4374763635053507
 40
0.4855366986259573
 40
0.5339829715395268
 40
0.5827250350651846
 40
0.6316935219474374
 40
0.6808349031375254
 40
0.73010869448336
 40
0.7794837004630313
 40
0.8289348684645284
 40
0.8784422586248696
 40
0.9279904328975552
 40
0.9775648440789888
 40
1.0
 40
1.0
 40
1.0
 40
1.0
 10
1173.940509063749
 20
720.0535841991887
 30
0.0
 10
1173.969190061362
 20
720.0523218678765
 30
0.0
 10
1174.050040071246
 20
720.0487634317143
 30
0.0
 10
1174.250316521138
 20
719.9971228191819
 30
0.0
 10
1174.681425179561
 20
719.7606680088879
 30
0.0
 10
1175.270694497515
 20
719.2604174397155
 30
0.0
 10
1175.970690259428
 20
718.4503670260125
 30
0.0
 10
1176.719770980401
 20
717.3513154167772
 30
0.0
 10
1177.499178036751
 20
715.9530525946789
 30
0.0
 10
1178.290627274785
 20
714.2535451611119
 30
0.0
 10
1179.077591155358
 20
712.2580602420101
 30
0.0
 10
1179.845536466659
 20
709.9785051156762
 30
0.0
 10
1180.582072486076
 20
707.4306172586438
 30
0.0
 10
1181.277127783583
 20
704.6329884868803
 30
0.0
 10
1181.922313500632
 20
701.6059634178556
 30
0.0
 10
1182.510561193755
 20
698.3710617395164
 30
0.0
 10
1183.036243567487
 20
694.9508321233127
 30
0.0
 10
1183.494563370517
 20
691.3685014328777
 30
0.0
 10
1183.881512095068
 20
687.6479871008652
 30
0.0
 10
1184.193978826815
 20
683.8137602664716
 30
0.0
 10
1184.429729122093
 20
679.8906909956658
 30
0.0
 10
1184.585717150503
 20
675.9042014796141
 30
0.0
 10
1184.650838084299
 20
672.6141170772131
 30
0.0
 10
1184.656223242471
 20
670.6618245973754
 30
0.0
 10
1184.657901031523
 20
670.0535722782597
 30
0.0
  0
LINE
  5
A8
330
1F
100
AcDbEntity
  8
0
  6
Continuous
 62
     7
370
    15
100
AcDbLine
 10
1184.6579010315
 20
670.0535722783
 30
0.0
 11
1184.6579010315
 21
435.0535765996
 31
0.0
  0
LINE
  5
A9
330
1F
100
AcDbEntity
  8
0
  6
Continuous
 62
     7
370
    15
100
AcDbLine
 10
1184.6579010315
 20
1420.0535424759
 30
0.0
 11
1184.6579010315
 21
1185.0535877755
 31
0.0
  0
SPLINE
  5
AA
330
1F
100
AcDbEntity
  8
0
  6
Continuous
 62
     7
370
    15
100
AcDbSpline
210
0.0
220
0.0
230
1.0
 70
     8
 71
     3
 72
    29
 73
    25
 74
     0
 42
0.000000001
 43
0.00000001
 40
0.0
 40
0.0
 40
0.0
 40
0.0
 40
0.0255719230212123
 40
0.0720857120720512
 40
0.1156172189022237
 40
0.1620439422879265
 40
0.2067180637458116
 40
0.2514319795267801
 40
0.2967974651480744
 40
0.3429784804938626
 40
0.3899134497733845
 40
0.4374763828102826
 40
0.4855368071107855
 40
0.5339830146765773
 40
0.582725112806577
 40
0.6316934878162594
 40
0.6808349861495514
 40
0.7301088589614367
 40
0.7794836102052174
 40
0.828934690605569
 40
0.8784423479162793
 40
0.9279902502265334
 40
0.977564661055929
 40
1.0
 40
1.0
 40
1.0
 40
1.0
 10
1173.940509063749
 20
345.0535767486081
 30
0.0
 10
1173.969190058697
 20
345.0523122517678
 30
0.0
 10
1174.050040057426
 20
345.0487477112731
 30
0.0
 10
1174.25031660407
 20
344.997132627853
 30
0.0
 10
1174.681424999429
 20
344.7606484579076
 30
0.0
 10
1175.270694382277
 20
344.2604190526758
 30
0.0
 10
1175.970690453368
 20
343.4503795388056
 30
0.0
 10
1176.719771044863
 20
342.3513296915924
 30
0.0
 10
1177.499179529649
 20
340.9530692691287
 30
0.0
 10
1178.290624059842
 20
339.2535249232963
 30
0.0
 10
1179.077593800667
 20
337.2580777174026
 30
0.0
 10
1179.845536338718
 20
334.9785029148364
 30
0.0
 10
1180.582071011102
 20
332.4306062957087
 30
0.0
 10
1181.277128982835
 20
329.6329853995723
 30
0.0
 10
1181.922312016952
 20
326.6059564352911
 30
0.0
 10
1182.5105629758
 20
323.3710628563071
 30
0.0
 10
1183.036243285012
 20
319.9508248071737
 30
0.0
 10
1183.494561644817
 20
316.3684936013423
 30
0.0
 10
1183.88151288739
 20
312.647991093828
 30
0.0
 10
1184.193980022114
 20
308.8137663031363
 30
0.0
 10
1184.429727628658
 20
304.8906972870685
 30
0.0
 10
1184.58571780014
 20
300.9042093710794
 30
0.0
 10
1184.650838141747
 20
297.6141269862166
 30
0.0
 10
1184.656223248928
 20
295.6618295581026
 30
0.0
 10
1184.657901031523
 20
295.0535722782597
 30
0.0
  0
LINE
  5
AB
330
1F
100
AcDbEntity
  8
0
  6
Continuous
 62
     7
370
    15
100
AcDbLine
 10
1184.6579010315
 20
295.0535722783
 30
0.0
 11
1184.6579010315
 21
120.0535901597
 31
0.0
  0
LINE
  5
AC
330
1F
100
AcDbEntity
  8
0
  6
Continuous
 62
     7
370
    15
100
AcDbLine
 10
1184.6579010315
 20
2110.0535996964
 30
0.0
 11
1184.6579010315
 21
1935.0535281708
 31
0.0
  0
SPLINE
  5
AD
330
1F
100
AcDbEntity
  8
0
  6
Continuous
 62
     7
370
    15
100
AcDbSpline
210
0.0
220
0.0
230
1.0
 70
     8
 71
     3
 72
    29
 73
    25
 74
     0
 42
0.000000001
 43
0.00000001
 40
0.0
 40
0.0
 40
0.0
 40
0.0
 40
0.0260662984499065
 40
0.0756486354827684
 40
0.1252278876453345
 40
0.1747842023454729
 40
0.2243044669015928
 40
0.273773397353025
 40
0.3231743924599867
 40
0.3724850789117974
 40
0.4216796579852247
 40
0.4707230475792864
 40
0.5195700381634671
 40
0.5681632147191449
 40
0.6164247480696743
 40
0.6642559800064509
 40
0.711534111532219
 40
0.7581197734491778
 40
0.8038926657340045
 40
0.8488425476423688
 40
0.8932984715375217
 40
0.9380396620598922
 40
0.985487134994602
 40
1.0
 40
1.0
 40
1.0
 40
1.0
 10
1184.657901031523
 20
1185.053587775467
 30
0.0
 10
1184.655656209559
 20
1184.346879245185
 30
0.0
 10
1184.6491413713
 20
1182.295896206583
 30
0.0
 10
1184.576847619176
 20
1178.908039618098
 30
0.0
 10
1184.414971718722
 20
1174.922805705759
 30
0.0
 10
1184.173151843235
 20
1171.001282013826
 30
0.0
 10
1183.854436641655
 20
1167.16894126438
 30
0.0
 10
1183.460986377139
 20
1163.450500973993
 30
0.0
 10
1182.995802822014
 20
1159.870132508536
 30
0.0
 10
1182.462708408886
 20
1156.451464015888
 30
0.0
 10
1181.866145890519
 20
1153.217431999964
 30
0.0
 10
1181.211541731724
 20
1150.190239045708
 30
0.0
 10
1180.505416810046
 20
1147.391382823761
 30
0.0
 10
1179.755590802091
 20
1144.841293845734
 30
0.0
 10
1178.971816865569
 20
1142.559682386006
 30
0.0
 10
1178.166351940583
 20
1140.564732714515
 30
0.0
 10
1177.354942743746
 20
1138.872668567342
 30
0.0
 10
1176.558409074544
 20
1137.496670667589
 30
0.0
 10
1175.803964289066
 20
1136.443513977445
 30
0.0
 10
1175.126909152477
 20
1135.709742744965
 30
0.0
 10
1174.571253826494
 20
1135.27393555615
 30
0.0
 10
1174.180790261354
 20
1135.085279872029
 30
0.0
 10
1174.026293789574
 20
1135.0561212625
 30
0.0
 10
1173.956789042846
 20
1135.054058914757
 30
0.0
 10
1173.940509063749
 20
1135.053575854538
 30
0.0
  0
SPLINE
  5
AE
330
1F
100
AcDbEntity
  8
0
  6
Continuous
 62
     7
370
    15
100
AcDbSpline
210
0.0
220
0.0
230
1.0
 70
     8
 71
     3
 72
    29
 73
    25
 74
     0
 42
0.000000001
 43
0.00000001
 40
0.0
 40
0.0
 40
0.0
 40
0.0
 40
0.026066026335343
 40
0.0756481857781887
 40
0.1252279404744114
 40
0.1747843047246778
 40
0.2243043130572622
 40
0.2737734811302717
 40
0.3231742161944445
 40
0.3724851416964133
 40
0.4216795223202321
 40
0.4707227692833149
 40
0.5195700550000593
 40
0.5681629485673463
 40
0.6164246364595416
 40
0.664255961259908
 40
0.7115339402789511
 40
0.7581197242404726
 40
0.8038925686389052
 40
0.8488425398736188
 40
0.8932984616163899
 40
0.9380396568909225
 40
0.9854871339778863
 40
1.0
 40
1.0
 40
1.0
 40
1.0
 10
1184.657901031523
 20
435.0535765995965
 30
0.0
 10
1184.655656211927
 20
434.3468755094196
 30
0.0
 10
1184.649141351256
 20
432.2959048447098
 30
0.0
 10
1184.576846449801
 20
428.9080476749326
 30
0.0
 10
1184.414972678898
 20
424.9228028551399
 30
0.0
 10
1184.173153231792
 20
421.001270103988
 30
0.0
 10
1183.85443384586
 20
417.1689350401936
 30
0.0
 10
1183.460989852259
 20
413.4504925928545
 30
0.0
 10
1182.995798932147
 20
409.8701329598163
 30
0.0
 10
1182.462711850144
 20
406.451454857391
 30
0.0
 10
1181.866145694956
 20
403.2174349817962
 30
0.0
 10
1181.211537273586
 20
400.1902619445997
 30
0.0
 10
1180.505423131003
 20
397.3913660239928
 30
0.0
 10
1179.755585795701
 20
394.8413234479156
 30
0.0
 10
1178.971817740859
 20
392.5596860253774
 30
0.0
 10
1178.166354729208
 20
390.5647117056347
 30
0.0
 10
1177.354939300224
 20
388.8727038036895
 30
0.0
 10
1176.558411448739
 20
387.4966450044865
 30
0.0
 10
1175.803962526551
 20
386.4435406722121
 30
0.0
 10
1175.126910189756
 20
385.7097007312775
 30
0.0
 10
1174.571253605569
 20
385.2739168619676
 30
0.0
 10
1174.180790324073
 20
385.0852605399281
 30
0.0
 10
1174.026293786769
 20
385.0560831488543
 30
0.0
 10
1173.956789042137
 20
385.0540516816535
 30
0.0
 10
1173.940509063749
 20
385.0535758545384
 30
0.0
  0
SPLINE
  5
AF
330
1F
100
AcDbEntity
  8
0
  6
Continuous
 62
     7
370
    15
100
AcDbSpline
210
0.0
220
0.0
230
1.0
 70
     8
 71
     3
 72
    29
 73
    25
 74
     0
 42
0.000000001
 43
0.00000001
 40
0.0
 40
0.0
 40
0.0
 40
0.0
 40
0.0260655826218095
 40
0.0756472212484858
 40
0.125227229128664
 40
0.1747835758905892
 40
0.2243038724851723
 40
0.2737735116030905
 40
0.3231732337857103
 40
0.372485200394626
 40
0.4216792194673306
 40
0.470722085094344
 40
0.5195696231514876
 40
0.5681628311458241
 40
0.6164243957204469
 40
0.6642560341164011
 40
0.7115335519262974
 40
0.7581197755616571
 40
0.8038924905732949
 40
0.8488424015631909
 40
0.893298443419152
 40
0.9380396219729898
 40
0.9854871256051149
 40
1.0
 40
1.0
 40
1.0
 40
1.0
 10
1184.657901031523
 20
1935.053528170823
 30
0.0
 10
1184.655656218295
 20
1934.346839484487
 30
0.0
 10
1184.649141348272
 20
1932.295896055189
 30
0.0
 10
1184.576845128218
 20
1928.90806065893
 30
0.0
 10
1184.414973469749
 20
1924.922824806255
 30
0.0
 10
1184.173152621877
 20
1921.001280290818
 30
0.0
 10
1183.854431506494
 20
1917.16893067974
 30
0.0
 10
1183.461000009639
 20
1913.450474284898
 30
0.0
 10
1182.995783816117
 20
1909.870154858018
 30
0.0
 10
1182.462723376249
 20
1906.451426945837
 30
0.0
 10
1181.866144885675
 20
1903.217430617228
 30
0.0
 10
1181.211532502859
 20
1900.190294169452
 30
0.0
 10
1180.505422252918
 20
1897.391381730298
 30
0.0
 10
1179.755591005308
 20
1894.841289091101
 30
0.0
 10
1178.971811296685
 20
1892.559705184706
 30
0.0
 10
1178.166365038494
 20
1890.564622995734
 30
0.0
 10
1177.354927783167
 20
1888.872797748978
 30
0.0
 10
1176.558418851593
 20
1887.496551857023
 30
0.0
 10
1175.803960962411
 20
1886.44353696398
 30
0.0
 10
1175.126908930735
 20
1885.709761568334
 30
0.0
 10
1174.571254626729
 20
1885.273835244479
 30
0.0
 10
1174.180789963589
 20
1885.085309506643
 30
0.0
 10
1174.026293804987
 20
1885.056119346838
 30
0.0
 10
1173.956789045771
 20
1885.054058551208
 30
0.0
 10
1173.940509063749
 20
1885.053575854538
 30
0.0
  0
SPLINE
  5
B0
330
1F
100
AcDbEntity
  8
0
  6
Continuous
 62
     7
370
    15
100
AcDbSpline
210
0.0
220
0.0
230
1.0
 70
     8
 71
     3
 72
    29
 73
    25
 74
     0
 42
0.000000001
 43
0.00000001
 40
0.0
 40
0.0
 40
0.0
 40
0.0
 40
0.0255719142811357
 40
0.0720856906831921
 40
0.1156172234452961
 40
0.1620439502978145
 40
0.2067178452648329
 40
0.2514319798100395
 40
0.2967974329143927
 40
0.3429781430195077
 40
0.3899132401147917
 40
0.4374765079126386
 40
0.4855370652952576
 40
0.5339833216150732
 40
0.5827253684456634
 40
0.631693243757893
 40
0.680834294804305
 40
0.7301087238013216
 40
0.7794826953297105
 40
0.8289338463932584
 40
0.8784419329348151
 40
0.927990090236325
 40
0.9775641190341867
 40
1.0
 40
1.0
 40
1.0
 40
1.0
 10
1173.940509063749
 20
1470.053614001511
 30
0.0
 10
1173.969190058799
 20
1470.052350976245
 30
0.0
 10
1174.050040061458
 20
1470.04879058387
 30
0.0
 10
1174.250316684174
 20
1469.99717334515
 30
0.0
 10
1174.681425262185
 20
1469.760624704679
 30
0.0
 10
1175.270691653314
 20
1469.260356967453
 30
0.0
 10
1175.97069532705
 20
1468.450472001386
 30
0.0
 10
1176.719768257561
 20
1467.351291311388
 30
0.0
 10
1177.499176687354
 20
1465.95305451675
 30
0.0
 10
1178.290628577182
 20
1464.253576244196
 30
0.0
 10
1179.077595442426
 20
1462.258094219836
 30
0.0
 10
1179.845534336629
 20
1459.978471160464
 30
0.0
 10
1180.582070518639
 20
1457.430559208615
 30
0.0
 10
1181.277128501871
 20
1454.63293119486
 30
0.0
 10
1181.922308818112
 20
1451.605909903711
 30
0.0
 10
1182.510562847356
 20
1448.371058362144
 30
0.0
 10
1183.036250252428
 20
1444.950845451018
 30
0.0
 10
1183.49455335465
 20
1441.36850353694
 30
0.0
 10
1183.881517691911
 20
1437.64802637901
 30
0.0
 10
1184.193980431575
 20
1433.813800775934
 30
0.0
 10
1184.429727327069
 20
1429.890709342174
 30
0.0
 10
1184.58571688586
 20
1425.904211456429
 30
0.0
 10
1184.650838617342
 20
1422.614117145127
 30
0.0
 10
1184.656223333844
 20
1420.661814671429
 30
0.0
 10
1184.657901031523
 20
1420.053542475937
 30
0.0
  0
SPLINE
  5
B1
330
1F
100
AcDbEntity
  8
0
  6
Continuous
 62
     7
370
    15
100
AcDbSpline
210
0.0
220
0.0
230
1.0
 70
     8
 71
     3
 72
    29
 73
    25
 74
     0
 42
0.000000001
 43
0.00000001
 40
0.0
 40
0.0
 40
0.0
 40
0.0
 40
0.0255719336837864
 40
0.0720857296347444
 40
0.115617295426332
 40
0.162044057505058
 40
0.2067181475143821
 40
0.2514320959745035
 40
0.2967975834998245
 40
0.3429786597890297
 40
0.3899134096756984
 40
0.4374762819139874
 40
0.4855368757624804
 40
0.5339831688408186
 40
0.5827252526543618
 40
0.6316937599187442
 40
0.6808354748757323
 40
0.730109286730773
 40
0.7794839740813257
 40
0.8289351626658584
 40
0.8784425734326367
 40
0.9279907683287348
 40
0.9775648347408147
 40
1.0
 40
1.0
 40
1.0
 40
1.0
 10
1173.940509063749
 20
1095.053554396866
 30
0.0
 10
1173.969190051107
 20
1095.052288596356
 30
0.0
 10
1174.050040014428
 20
1095.04872038151
 30
0.0
 10
1174.250316853759
 20
1094.997196724989
 30
0.0
 10
1174.681424923616
 20
1094.760611932852
 30
0.0
 10
1175.270693669523
 20
1094.260384627524
 30
0.0
 10
1175.970691242369
 20
1093.450375583827
 30
0.0
 10
1176.719770449859
 20
1092.351309924305
 30
0.0
 10
1177.499180601268
 20
1090.953063813844
 30
0.0
 10
1178.290620895224
 20
1089.253498355855
 30
0.0
 10
1179.077595574091
 20
1087.258101165725
 30
0.0
 10
1179.845538323084
 20
1084.978532057484
 30
0.0
 10
1180.582070147324
 20
1082.430616737577
 30
0.0
 10
1181.277128180349
 20
1079.632990049802
 30
0.0
 10
1181.922313118848
 20
1076.605962327838
 30
0.0
 10
1182.510563583328
 20
1073.371057640722
 30
0.0
 10
1183.036241559123
 20
1069.95080723164
 30
0.0
 10
1183.494561745447
 20
1066.368479211818
 30
0.0
 10
1183.881513748209
 20
1062.647979758691
 30
0.0
 10
1184.193978563659
 20
1058.813759880988
 30
0.0
 10
1184.429729234447
 20
1054.890691109873
 30
0.0
 10
1184.585716580912
 20
1050.904211209426
 30
0.0
 10
1184.650838218193
 20
1047.614137002945
 30
0.0
 10
1184.656223267787
 20
1045.661854406841
 30
0.0
 10
1184.657901031523
 20
1045.053602080582
 30
0.0
  0
LINE
  5
B2
330
1F
100
AcDbEntity
  8
0
  6
Continuous
 62
     7
370
    15
100
AcDbLine
 10
1184.6579010315
 20
1045.0536020806
 30
0.0
 11
1184.6579010315
 21
810.0535877755
 31
0.0
  0
SPLINE
  5
B3
330
1F
100
AcDbEntity
  8
0
  6
Continuous
 62
     7
370
    15
100
AcDbSpline
210
0.0
220
0.0
230
1.0
 70
     8
 71
     3
 72
    29
 73
    25
 74
     0
 42
0.000000001
 43
0.00000001
 40
0.0
 40
0.0
 40
0.0
 40
0.0
 40
0.0260655826218095
 40
0.0756472212484858
 40
0.125227229128664
 40
0.1747835758905892
 40
0.2243038724851723
 40
0.2737735116030905
 40
0.3231732337857103
 40
0.372485200394626
 40
0.4216792194673306
 40
0.470722085094344
 40
0.5195696231514876
 40
0.5681628311458241
 40
0.6164243957204469
 40
0.6642560341164011
 40
0.7115335519262974
 40
0.7581197755616571
 40
0.8038924905732949
 40
0.8488424015631909
 40
0.893298443419152
 40
0.9380396219729898
 40
0.9854871256051149
 40
1.0
 40
1.0
 40
1.0
 40
1.0
 10
1184.657901031523
 20
1560.053528170823
 30
0.0
 10
1184.655656218295
 20
1559.346839484487
 30
0.0
 10
1184.649141348272
 20
1557.295896055189
 30
0.0
 10
1184.576845128218
 20
1553.90806065893
 30
0.0
 10
1184.414973469749
 20
1549.922824806255
 30
0.0
 10
1184.173152621877
 20
1546.001280290818
 30
0.0
 10
1183.854431506494
 20
1542.16893067974
 30
0.0
 10
1183.461000009639
 20
1538.450474284899
 30
0.0
 10
1182.995783816117
 20
1534.870154858017
 30
0.0
 10
1182.462723376249
 20
1531.451426945837
 30
0.0
 10
1181.866144885675
 20
1528.217430617228
 30
0.0
 10
1181.211532502859
 20
1525.190294169452
 30
0.0
 10
1180.505422252918
 20
1522.391381730298
 30
0.0
 10
1179.755591005308
 20
1519.841289091101
 30
0.0
 10
1178.971811296685
 20
1517.559705184706
 30
0.0
 10
1178.166365038494
 20
1515.564622995735
 30
0.0
 10
1177.354927783167
 20
1513.872797748978
 30
0.0
 10
1176.558418851593
 20
1512.496551857022
 30
0.0
 10
1175.803960962411
 20
1511.44353696398
 30
0.0
 10
1175.126908930735
 20
1510.709761568334
 30
0.0
 10
1174.571254626729
 20
1510.273835244479
 30
0.0
 10
1174.180789963589
 20
1510.085309506643
 30
0.0
 10
1174.026293804987
 20
1510.056119346838
 30
0.0
 10
1173.956789045771
 20
1510.054058551208
 30
0.0
 10
1173.940509063749
 20
1510.053575854538
 30
0.0
  0
SPLINE
  5
B4
330
1F
100
AcDbEntity
  8
0
  6
Continuous
 62
     7
370
    15
100
AcDbSpline
210
0.0
220
0.0
230
1.0
 70
     8
 71
     3
 72
    29
 73
    25
 74
     0
 42
0.000000001
 43
0.00000001
 40
0.0
 40
0.0
 40
0.0
 40
0.0
 40
0.0260662978400909
 40
0.0756482684708166
 40
0.1252282431139867
 40
0.1747845566547656
 40
0.2243044717213392
 40
0.2737737393456467
 40
0.3231744070748457
 40
0.3724850923730434
 40
0.4216796702955738
 40
0.470722780893388
 40
0.5195700282689837
 40
0.5681629674463631
 40
0.6164247124959389
 40
0.664255943313714
 40
0.7115339126541598
 40
0.7581197063720527
 40
0.8038925975860323
 40
0.8488425518771558
 40
0.893298474732272
 40
0.9380396642079317
 40
0.9854871360326181
 40
1.0
 40
1.0
 40
1.0
 40
1.0
 10
1184.657901031523
 20
810.0535877754673
 30
0.0
 10
1184.655656270857
 20
809.3468792206593
 30
0.0
 10
1184.649141641949
 20
807.2959060133127
 30
0.0
 10
1184.576845710424
 20
803.9080406015875
 30
0.0
 10
1184.41497336204
 20
799.922794985749
 30
0.0
 10
1184.173153434568
 20
796.0012597925619
 30
0.0
 10
1183.854432941887
 20
792.1689270364134
 30
0.0
 10
1183.460990561025
 20
788.4504835285306
 30
0.0
 10
1182.995800411971
 20
784.8701270936734
 30
0.0
 10
1182.462708265113
 20
781.4514651711285
 30
0.0
 10
1181.866148812245
 20
778.2174313766722
 30
0.0
 10
1181.211536098638
 20
775.1902705622799
 30
0.0
 10
1180.505422636325
 20
772.3913770257004
 30
0.0
 10
1179.755585483911
 20
769.8413306586971
 30
0.0
 10
1178.971819415075
 20
767.5596794536801
 30
0.0
 10
1178.166353663202
 20
765.5647254575853
 30
0.0
 10
1177.354939319605
 20
763.8727136429524
 30
0.0
 10
1176.558410959644
 20
762.4966575265096
 30
0.0
 10
1175.803963219242
 20
761.4435268862208
 30
0.0
 10
1175.126909939238
 20
760.70970287764
 30
0.0
 10
1174.571253697022
 20
760.273906004943
 30
0.0
 10
1174.180790298878
 20
760.0852596617668
 30
0.0
 10
1174.026293790374
 20
760.0560621204071
 30
0.0
 10
1173.956789042512
 20
760.0540476909263
 30
0.0
 10
1173.940509063749
 20
760.0535758545384
 30
0.0
  0
LINE
  5
B5
330
1F
100
AcDbEntity
  8
0
  6
Continuous
 62
     7
370
    15
100
AcDbLine
 10
1184.6579010315
 20
1795.0535424759
 30
0.0
 11
1184.6579010315
 21
1560.0535281708
 31
0.0
  0
SPLINE
  5
B6
330
1F
100
AcDbEntity
  8
0
  6
Continuous
 62
     7
370
    15
100
AcDbSpline
210
0.0
220
0.0
230
1.0
 70
     8
 71
     3
 72
    29
 73
    25
 74
     0
 42
0.000000001
 43
0.00000001
 40
0.0
 40
0.0
 40
0.0
 40
0.0
 40
0.0255719142811357
 40
0.0720856906831921
 40
0.1156172234452961
 40
0.1620439502978145
 40
0.2067178452648329
 40
0.2514319798100395
 40
0.2967974329143927
 40
0.3429781430195077
 40
0.3899132401147917
 40
0.4374765079126386
 40
0.4855370652952576
 40
0.5339833216150732
 40
0.5827253684456634
 40
0.631693243757893
 40
0.680834294804305
 40
0.7301087238013216
 40
0.7794826953297105
 40
0.8289338463932584
 40
0.8784419329348151
 40
0.927990090236325
 40
0.9775641190341867
 40
1.0
 40
1.0
 40
1.0
 40
1.0
 10
1173.940509063749
 20
1845.053614001511
 30
0.0
 10
1173.969190058799
 20
1845.052350976245
 30
0.0
 10
1174.050040061458
 20
1845.04879058387
 30
0.0
 10
1174.250316684174
 20
1844.997173345151
 30
0.0
 10
1174.681425262185
 20
1844.760624704679
 30
0.0
 10
1175.270691653314
 20
1844.260356967453
 30
0.0
 10
1175.97069532705
 20
1843.450472001386
 30
0.0
 10
1176.719768257561
 20
1842.351291311388
 30
0.0
 10
1177.499176687354
 20
1840.95305451675
 30
0.0
 10
1178.290628577182
 20
1839.253576244197
 30
0.0
 10
1179.077595442426
 20
1837.258094219836
 30
0.0
 10
1179.845534336629
 20
1834.978471160464
 30
0.0
 10
1180.582070518639
 20
1832.430559208615
 30
0.0
 10
1181.277128501871
 20
1829.63293119486
 30
0.0
 10
1181.922308818112
 20
1826.605909903711
 30
0.0
 10
1182.510562847356
 20
1823.371058362144
 30
0.0
 10
1183.036250252428
 20
1819.950845451018
 30
0.0
 10
1183.49455335465
 20
1816.36850353694
 30
0.0
 10
1183.881517691911
 20
1812.64802637901
 30
0.0
 10
1184.193980431575
 20
1808.813800775934
 30
0.0
 10
1184.429727327069
 20
1804.890709342174
 30
0.0
 10
1184.58571688586
 20
1800.904211456429
 30
0.0
 10
1184.650838617342
 20
1797.614117145127
 30
0.0
 10
1184.656223333844
 20
1795.661814671429
 30
0.0
 10
1184.657901031523
 20
1795.053542475937
 30
0.0
  0
SPLINE
  5
B7
330
1F
100
AcDbEntity
  8
0
  6
Continuous
 62
     7
370
    15
100
AcDbSpline
210
0.0
220
0.0
230
1.0
 70
     8
 71
     3
 72
    15
 73
    11
 74
     0
 42
0.000000001
 43
0.00000001
 40
0.0
 40
0.0
 40
0.0
 40
0.0
 40
0.0056020316338541
 40
0.159120573021543
 40
0.3129531953867779
 40
0.4670243755040994
 40
0.6212707226541104
 40
0.7756442217698206
 40
0.9301005195921423
 40
1.0
 40
1.0
 40
1.0
 40
1.0
 10
1126.288264495878
 20
1160.05355201268
 30
0.0
 10
1126.281843769451
 20
1160.095205068444
 30
0.0
 10
1126.09946892135
 20
1161.278321932884
 30
0.0
 10
1125.803745223037
 20
1163.750233112893
 30
0.0
 10
1125.410553030918
 20
1167.456041828859
 30
0.0
 10
1125.099764532744
 20
1171.29420526133
 30
0.0
 10
1124.863563780823
 20
1175.216216265887
 30
0.0
 10
1124.707696803219
 20
1179.202998461105
 30
0.0
 10
1124.642547791903
 20
1182.493027094774
 30
0.0
 10
1124.637164499993
 20
1184.44533403699
 30
0.0
 10
1124.635487300901
 20
1185.053587775467
 30
0.0
  0
SPLINE
  5
B8
330
1F
100
AcDbEntity
  8
0
  6
Continuous
 62
     7
370
    15
100
AcDbSpline
210
0.0
220
0.0
230
1.0
 70
     8
 71
     3
 72
    29
 73
    25
 74
     0
 42
0.000000001
 43
0.00000001
 40
0.0
 40
0.0
 40
0.0
 40
0.0
 40
0.026065575078088
 40
0.0756479440534518
 40
0.1252279375845254
 40
0.1747842283953994
 40
0.2243038689797659
 40
0.273773425741982
 40
0.3231737860691785
 40
0.3724852071697492
 40
0.4216791074551593
 40
0.4707225145853478
 40
0.5195701035625196
 40
0.5681628912566606
 40
0.6164242972672264
 40
0.6642559218200771
 40
0.7115337480944276
 40
0.7581195930480945
 40
0.8038923298389932
 40
0.8488424628704553
 40
0.8932984577032309
 40
0.9380396257826741
 40
0.9854871156828693
 40
1.0
 40
1.0
 40
1.0
 40
1.0
 10
1124.635487300901
 20
1045.053602080582
 30
0.0
 10
1124.637732185181
 20
1045.760290777858
 30
0.0
 10
1124.644247325551
 20
1047.811254429135
 30
0.0
 10
1124.71654195032
 20
1051.199109494964
 30
0.0
 10
1124.878415199345
 20
1055.184361813742
 30
0.0
 10
1125.120233436356
 20
1059.105898674744
 30
0.0
 10
1125.438958820497
 20
1062.938210099945
 30
0.0
 10
1125.83239286006
 20
1066.656669839786
 30
0.0
 10
1126.297596803248
 20
1070.237019190478
 30
0.0
 10
1126.830667135041
 20
1073.655703341733
 30
0.0
 10
1127.427252209507
 20
1076.889710156338
 30
0.0
 10
1128.081837883026
 20
1079.916891196676
 30
0.0
 10
1128.788013598888
 20
1082.715811384942
 30
0.0
 10
1129.537786540775
 20
1085.265827583912
 30
0.0
 10
1130.321581039347
 20
1087.547441239265
 30
0.0
 10
1131.127026676177
 20
1089.542479943723
 30
0.0
 10
1131.938452911631
 20
1091.234446641564
 30
0.0
 10
1132.734973237987
 20
1092.610464486132
 30
0.0
 10
1133.489432502403
 20
1093.663598972825
 30
0.0
 10
1134.166463813634
 20
1094.39746514812
 30
0.0
 10
1134.72218318035
 20
1094.833253932444
 30
0.0
 10
1135.112593417339
 20
1095.021890785375
 30
0.0
 10
1135.267066192235
 20
1095.05112727954
 30
0.0
 10
1135.336618045967
 20
1095.053093785227
 30
0.0
 10
1135.352909070997
 20
1095.053554396866
 30
0.0
  0
SPLINE
  5
B9
330
1F
100
AcDbEntity
  8
0
  6
Continuous
 62
     7
370
    15
100
AcDbSpline
210
0.0
220
0.0
230
1.0
 70
     8
 71
     3
 72
    15
 73
    11
 74
     0
 42
0.000000001
 43
0.00000001
 40
0.0
 40
0.0
 40
0.0
 40
0.0
 40
0.0056010611728858
 40
0.159119759279191
 40
0.3129535954440539
 40
0.4670238454912291
 40
0.6212714613508058
 40
0.7756439897426158
 40
0.9300993067801123
 40
1.0
 40
1.0
 40
1.0
 40
1.0
 10
1126.288264495878
 20
785.0535818150029
 30
0.0
 10
1126.281843751671
 20
785.0952248934949
 30
0.0
 10
1126.099437732322
 20
786.2782572548246
 30
0.0
 10
1125.803756682538
 20
788.7502723458692
 30
0.0
 10
1125.410552950417
 20
792.4560480663916
 30
0.0
 10
1125.099762426952
 20
796.2942239726729
 30
0.0
 10
1124.863565769199
 20
800.2162275368831
 30
0.0
 10
1124.707696478518
 20
804.2029981029186
 30
0.0
 10
1124.64254751257
 20
807.4930171281408
 30
0.0
 10
1124.637164454503
 20
809.4453241023836
 30
0.0
 10
1124.635487300901
 20
810.0535877754673
 30
0.0
  0
SPLINE
  5
BA
330
1F
100
AcDbEntity
  8
0
  6
Continuous
 62
     7
370
    15
100
AcDbSpline
210
0.0
220
0.0
230
1.0
 70
     8
 71
     3
 72
    15
 73
    11
 74
     0
 42
0.000000001
 43
0.00000001
 40
0.0
 40
0.0
 40
0.0
 40
0.0
 40
0.0056012455878279
 40
0.1591201091355307
 40
0.3129534549853269
 40
0.4670244227520607
 40
0.6212717989673291
 40
0.7756446476367187
 40
0.930100002893405
 40
0.9999999999999999
 40
0.9999999999999999
 40
0.9999999999999999
 40
0.9999999999999999
 10
1126.288264495878
 20
410.0535762270674
 30
0.0
 10
1126.28184375481
 20
410.0952211759554
 30
0.0
 10
1126.099443429113
 20
411.2782703224541
 30
0.0
 10
1125.80375553773
 20
413.7502660493971
 30
0.0
 10
1125.410551625332
 20
417.4560468399046
 30
0.0
 10
1125.09976363374
 20
421.2942239808113
 30
0.0
 10
1124.863565135423
 20
425.2162319811351
 30
0.0
 10
1124.707696729467
 20
429.2030032543742
 30
0.0
 10
1124.642547626734
 20
432.4930183658909
 30
0.0
 10
1124.637164472637
 20
434.4453191339301
 30
0.0
 10
1124.635487300901
 20
435.0535765995965
 30
0.0
  0
SPLINE
  5
BB
330
1F
100
AcDbEntity
  8
0
  6
Continuous
 62
     7
370
    15
100
AcDbSpline
210
0.0
220
0.0
230
1.0
 70
     8
 71
     3
 72
    15
 73
    11
 74
     0
 42
0.000000001
 43
0.00000001
 40
0.0
 40
0.0
 40
0.0
 40
0.0
 40
0.0056020451436592
 40
0.1591229960242379
 40
0.3129538758506645
 40
0.4670254275245492
 40
0.6212743691530346
 40
0.7756482405543776
 40
0.9301026339373983
 40
0.9999999999999999
 40
0.9999999999999999
 40
0.9999999999999999
 40
0.9999999999999999
 10
1126.288264495878
 20
1535.05355201268
 30
0.0
 10
1126.281843767327
 20
1535.09520506442
 30
0.0
 10
1126.099466521616
 20
1536.278336977205
 30
0.0
 10
1125.803753691181
 20
1538.750268358901
 30
0.0
 10
1125.410549056392
 20
1542.456054809965
 30
0.0
 10
1125.099762701554
 20
1546.294223996315
 30
0.0
 10
1124.863565602548
 20
1550.21625761209
 30
0.0
 10
1124.707697574205
 20
1554.203038303292
 30
0.0
 10
1124.642547989954
 20
1557.49302704471
 30
0.0
 10
1124.637164531264
 20
1559.445294300267
 30
0.0
 10
1124.635487300901
 20
1560.053528170823
 30
0.0
  0
SPLINE
  5
BC
330
1F
100
AcDbEntity
  8
0
  6
Continuous
 62
     7
370
    15
100
AcDbSpline
210
0.0
220
0.0
230
1.0
 70
     8
 71
     3
 72
    29
 73
    25
 74
     0
 42
0.000000001
 43
0.00000001
 40
0.0
 40
0.0
 40
0.0
 40
0.0
 40
0.0260670222762765
 40
0.0756486261756696
 40
0.1252285851163076
 40
0.1747848413532829
 40
0.2243051440501252
 40
0.2737733129775601
 40
0.3231742912829493
 40
0.3724850538566299
 40
0.4216801034830642
 40
0.4707229207007412
 40
0.5195704755984536
 40
0.5681627569168264
 40
0.6164249805826953
 40
0.6642558207469569
 40
0.7115339361931509
 40
0.7581197486453075
 40
0.8038926604005364
 40
0.8488426152004374
 40
0.893298489830878
 40
0.9380396676227923
 40
0.9854871244203341
 40
1.0
 40
1.0
 40
1.0
 40
1.0
 10
1124.635487300901
 20
1795.053542475937
 30
0.0
 10
1124.637731937312
 20
1795.760270958119
 30
0.0
 10
1124.644246055379
 20
1797.811254694948
 30
0.0
 10
1124.716543356629
 20
1801.199128633176
 30
0.0
 10
1124.878414258565
 20
1805.18436307933
 30
0.0
 10
1125.120237719135
 20
1809.105912430798
 30
0.0
 10
1125.438947443143
 20
1812.93822813134
 30
0.0
 10
1125.832406458582
 20
1816.65664496341
 30
0.0
 10
1126.297584996248
 20
1820.237006343021
 30
0.0
 10
1126.830683430885
 20
1823.655658692518
 30
0.0
 10
1127.427235634338
 20
1826.889761104308
 30
0.0
 10
1128.081845995528
 20
1829.916881969279
 30
0.0
 10
1128.788005685395
 20
1832.715829819323
 30
0.0
 10
1129.537802984361
 20
1835.265736948568
 30
0.0
 10
1130.321561172719
 20
1837.547547208657
 30
0.0
 10
1131.127040985045
 20
1839.54237426372
 30
0.0
 10
1131.938447113346
 20
1841.234477650559
 30
0.0
 10
1132.734976782277
 20
1842.610434979654
 30
0.0
 10
1133.489428501742
 20
1843.663691190894
 30
0.0
 10
1134.166464780694
 20
1844.39746809318
 30
0.0
 10
1134.722183825047
 20
1844.833152980652
 30
0.0
 10
1135.112593164024
 20
1845.021939941706
 30
0.0
 10
1135.267066211186
 20
1845.051066662578
 30
0.0
 10
1135.336618048597
 20
1845.053130574518
 30
0.0
 10
1135.352909070997
 20
1845.053614001511
 30
0.0
  0
SPLINE
  5
BD
330
1F
100
AcDbEntity
  8
0
  6
Continuous
 62
     7
370
    15
100
AcDbSpline
210
0.0
220
0.0
230
1.0
 70
     8
 71
     3
 72
    15
 73
    11
 74
     0
 42
0.000000001
 43
0.00000001
 40
0.0
 40
0.0
 40
0.0
 40
0.0
 40
0.0056020451436592
 40
0.1591229960242379
 40
0.3129538758506645
 40
0.4670254275245492
 40
0.6212743691530346
 40
0.7756482405543776
 40
0.9301026339373983
 40
0.9999999999999999
 40
0.9999999999999999
 40
0.9999999999999999
 40
0.9999999999999999
 10
1126.288264495878
 20
1910.05355201268
 30
0.0
 10
1126.281843767327
 20
1910.09520506442
 30
0.0
 10
1126.099466521616
 20
1911.278336977204
 30
0.0
 10
1125.803753691181
 20
1913.750268358902
 30
0.0
 10
1125.410549056392
 20
1917.456054809965
 30
0.0
 10
1125.099762701554
 20
1921.294223996315
 30
0.0
 10
1124.863565602548
 20
1925.21625761209
 30
0.0
 10
1124.707697574205
 20
1929.203038303292
 30
0.0
 10
1124.642547989954
 20
1932.49302704471
 30
0.0
 10
1124.637164531264
 20
1934.445294300266
 30
0.0
 10
1124.635487300901
 20
1935.053528170823
 30
0.0
  0
SPLINE
  5
BE
330
1F
100
AcDbEntity
  8
0
  6
Continuous
 62
     7
370
    15
100
AcDbSpline
210
0.0
220
0.0
230
1.0
 70
     8
 71
     3
 72
    29
 73
    25
 74
     0
 42
0.000000001
 43
0.00000001
 40
0.0
 40
0.0
 40
0.0
 40
0.0
 40
0.0260670222762765
 40
0.0756486261756696
 40
0.1252285851163076
 40
0.1747848413532829
 40
0.2243051440501252
 40
0.2737733129775601
 40
0.3231742912829493
 40
0.3724850538566299
 40
0.4216801034830642
 40
0.4707229207007412
 40
0.5195704755984536
 40
0.5681627569168264
 40
0.6164249805826953
 40
0.6642558207469569
 40
0.7115339361931509
 40
0.7581197486453075
 40
0.8038926604005364
 40
0.8488426152004374
 40
0.893298489830878
 40
0.9380396676227923
 40
0.9854871244203341
 40
1.0
 40
1.0
 40
1.0
 40
1.0
 10
1124.635487300901
 20
1420.053542475937
 30
0.0
 10
1124.637731937312
 20
1420.760270958119
 30
0.0
 10
1124.644246055379
 20
1422.811254694948
 30
0.0
 10
1124.716543356629
 20
1426.199128633175
 30
0.0
 10
1124.878414258565
 20
1430.18436307933
 30
0.0
 10
1125.120237719135
 20
1434.105912430799
 30
0.0
 10
1125.438947443143
 20
1437.93822813134
 30
0.0
 10
1125.832406458582
 20
1441.65664496341
 30
0.0
 10
1126.297584996248
 20
1445.237006343021
 30
0.0
 10
1126.830683430885
 20
1448.655658692518
 30
0.0
 10
1127.427235634338
 20
1451.889761104307
 30
0.0
 10
1128.081845995528
 20
1454.916881969279
 30
0.0
 10
1128.788005685395
 20
1457.715829819323
 30
0.0
 10
1129.537802984361
 20
1460.265736948568
 30
0.0
 10
1130.321561172719
 20
1462.547547208658
 30
0.0
 10
1131.127040985045
 20
1464.54237426372
 30
0.0
 10
1131.938447113346
 20
1466.234477650559
 30
0.0
 10
1132.734976782277
 20
1467.610434979654
 30
0.0
 10
1133.489428501742
 20
1468.663691190894
 30
0.0
 10
1134.166464780694
 20
1469.397468093179
 30
0.0
 10
1134.722183825047
 20
1469.833152980653
 30
0.0
 10
1135.112593164024
 20
1470.021939941706
 30
0.0
 10
1135.267066211186
 20
1470.051066662578
 30
0.0
 10
1135.336618048597
 20
1470.053130574518
 30
0.0
 10
1135.352909070997
 20
1470.053614001511
 30
0.0
  0
SPLINE
  5
BF
330
1F
100
AcDbEntity
  8
0
  6
Continuous
 62
     7
370
    15
100
AcDbSpline
210
0.0
220
0.0
230
1.0
 70
     8
 71
     3
 72
    29
 73
    25
 74
     0
 42
0.000000001
 43
0.00000001
 40
0.0
 40
0.0
 40
0.0
 40
0.0
 40
0.0260659331977834
 40
0.075648286524989
 40
0.1252279025883466
 40
0.1747841777592928
 40
0.2243044993763692
 40
0.2737733638642746
 40
0.3231740348222493
 40
0.372485128297765
 40
0.4216796048869919
 40
0.4707227186902123
 40
0.5195700343158821
 40
0.5681630429137261
 40
0.6164246465217949
 40
0.6642558804657689
 40
0.711533852896253
 40
0.7581198160377923
 40
0.8038924349375798
 40
0.8488425537828139
 40
0.8932984899904286
 40
0.938039643949593
 40
0.9854871188753962
 40
1.0
 40
1.0
 40
1.0
 40
1.0
 10
1124.635487300901
 20
670.0535722782597
 30
0.0
 10
1124.637732151572
 20
670.760270912595
 30
0.0
 10
1124.644247134385
 20
672.8112445098711
 30
0.0
 10
1124.716541423447
 20
676.1990997675471
 30
0.0
 10
1124.878415507078
 20
680.184342245514
 30
0.0
 10
1125.120236907492
 20
684.1058838885288
 30
0.0
 10
1125.438951479013
 20
687.9382113272717
 30
0.0
 10
1125.832399843516
 20
691.6566571974053
 30
0.0
 10
1126.29759089085
 20
695.2370126452436
 30
0.0
 10
1126.830675135275
 20
698.6556817046436
 30
0.0
 10
1127.427244519236
 20
701.8897330111165
 30
0.0
 10
1128.081838560485
 20
704.916891017362
 30
0.0
 10
1128.788017660348
 20
707.7157838332685
 30
0.0
 10
1129.537786837029
 20
710.2658224402828
 30
0.0
 10
1130.321574409733
 20
712.5474852973233
 30
0.0
 10
1131.127032967844
 20
714.5424343350551
 30
0.0
 10
1131.938452124453
 20
716.2344468294393
 30
0.0
 10
1132.734970891979
 20
717.6105093004393
 30
0.0
 10
1133.489433792831
 20
718.6635848801437
 30
0.0
 10
1134.16646321299
 20
719.3974802209426
 30
0.0
 10
1134.722183576574
 20
719.8332071885474
 30
0.0
 10
1135.112593336405
 20
720.0218853412164
 30
0.0
 10
1135.267066203876
 20
720.0510384633969
 30
0.0
 10
1135.33661804721
 20
720.0531010764349
 30
0.0
 10
1135.352909070997
 20
720.0535841991887
 30
0.0
  0
SPLINE
  5
C0
330
1F
100
AcDbEntity
  8
0
  6
Continuous
 62
     7
370
    15
100
AcDbSpline
210
0.0
220
0.0
230
1.0
 70
     8
 71
     3
 72
    29
 73
    25
 74
     0
 42
0.000000001
 43
0.00000001
 40
0.0
 40
0.0
 40
0.0
 40
0.0
 40
0.0260660241192753
 40
0.0756481935604856
 40
0.1252279892690995
 40
0.1747842631757568
 40
0.2243043222814442
 40
0.2737734392552552
 40
0.3231741905083705
 40
0.3724852047103692
 40
0.4216794581080828
 40
0.4707227095844102
 40
0.5195700562057065
 40
0.5681630045037993
 40
0.6164245536732461
 40
0.6642558802744752
 40
0.7115338514987949
 40
0.7581197968403968
 40
0.803892466294721
 40
0.8488425197355792
 40
0.8932984938293843
 40
0.9380396466471042
 40
0.9854871196832918
 40
1.0
 40
1.0
 40
1.0
 40
1.0
 10
1124.635487300901
 20
295.0535722782597
 30
0.0
 10
1124.637732118159
 20
295.7602734042804
 30
0.0
 10
1124.64424697327
 20
297.8112445583776
 30
0.0
 10
1124.716542007148
 20
301.1991020077809
 30
0.0
 10
1124.878415227896
 20
305.1843447388798
 30
0.0
 10
1125.12023569308
 20
309.1058855560679
 30
0.0
 10
1125.438953973464
 20
312.9382076754434
 30
0.0
 10
1125.83239871098
 20
316.6566613424877
 30
0.0
 10
1126.297590308988
 20
320.2370237926636
 30
0.0
 10
1126.830673770151
 20
323.6556884827237
 30
0.0
 10
1127.427247573843
 20
326.8897210483396
 30
0.0
 10
1128.08183737637
 20
329.916891010931
 30
0.0
 10
1128.788017068468
 20
332.7157866079173
 30
0.0
 10
1129.537786711541
 20
335.2658200928924
 30
0.0
 10
1130.321576018223
 20
337.5474711264629
 30
0.0
 10
1131.127031863998
 20
339.5424402400724
 30
0.0
 10
1131.938451973844
 20
341.2344527827901
 30
0.0
 10
1132.734971756272
 20
342.6105005866985
 30
0.0
 10
1133.489432466126
 20
343.663616215775
 30
0.0
 10
1134.166464284017
 20
344.3974492575616
 30
0.0
 10
1134.722183155307
 20
344.8332355630763
 30
0.0
 10
1135.112593425538
 20
345.0218915364696
 30
0.0
 10
1135.267066196994
 20
345.0510679111072
 30
0.0
 10
1135.336618046064
 20
345.0531006283155
 30
0.0
 10
1135.352909070997
 20
345.0535767486081
 30
0.0
  0
LINE
  5
C1
330
1F
100
AcDbEntity
  8
0
  6
Continuous
 62
     7
370
    15
100
AcDbLine
 10
1124.6354873009
 20
1185.0535877755
 30
0.0
 11
1124.6354873009
 21
1420.0535424759
 31
0.0
  0
LINE
  5
C2
330
1F
100
AcDbEntity
  8
0
  6
Continuous
 62
     7
370
    15
100
AcDbLine
 10
1124.6354873009
 20
810.0535877755
 30
0.0
 11
1124.6354873009
 21
1045.0536020806
 31
0.0
  0
SPLINE
  5
C3
330
1F
100
AcDbEntity
  8
0
  6
Continuous
 62
     7
370
    15
100
AcDbSpline
210
0.0
220
0.0
230
1.0
 70
     8
 71
     3
 72
    15
 73
    11
 74
     0
 42
0.000000001
 43
0.00000001
 40
0.0
 40
0.0
 40
0.0
 40
0.0
 40
0.079381047182552
 40
0.2358941660585607
 40
0.4190303746076118
 40
0.5522468789962444
 40
0.6658870487987544
 40
0.7900908219906547
 40
0.9199477780798307
 40
1.0
 40
1.0
 40
1.0
 40
1.0
 10
1124.635487300901
 20
2110.053599696396
 30
0.0
 10
1124.632455310782
 20
2110.243333250828
 30
0.0
 10
1124.623445240921
 20
2110.807158498597
 30
0.0
 10
1124.513103974487
 20
2111.775420807433
 30
0.0
 10
1124.26202187512
 20
2112.752698127177
 30
0.0
 10
1123.828559410242
 20
2113.600210077013
 30
0.0
 10
1123.270405496713
 20
2114.253549313673
 30
0.0
 10
1122.558341837227
 20
2114.749439430047
 30
0.0
 10
1121.802286324054
 20
2115.016625616531
 30
0.0
 10
1121.30681536043
 20
2115.043388481482
 30
0.0
 10
1121.117859584837
 20
2115.053594928025
 30
0.0
  0
LINE
  5
C4
330
1F
100
AcDbEntity
  8
0
  6
Continuous
 62
     7
370
    15
100
AcDbLine
 10
1124.6354873009
 20
1935.0535281708
 30
0.0
 11
1124.6354873009
 21
2110.0535996964
 31
0.0
  0
LINE
  5
C5
330
1F
100
AcDbEntity
  8
0
  6
Continuous
 62
     7
370
    15
100
AcDbLine
 10
1124.6354873009
 20
1560.0535281708
 30
0.0
 11
1124.6354873009
 21
1795.0535424759
 31
0.0
  0
LINE
  5
C6
330
1F
100
AcDbEntity
  8
0
  6
Continuous
 62
     7
370
    15
100
AcDbLine
 10
1124.6354873009
 20
435.0535765996
 30
0.0
 11
1124.6354873009
 21
670.0535722783
 31
0.0
  0
LINE
  5
C7
330
1F
100
AcDbEntity
  8
0
  6
Continuous
 62
     7
370
    15
100
AcDbLine
 10
1124.6354873009
 20
120.0535901597
 30
0.0
 11
1124.6354873009
 21
295.0535722783
 31
0.0
  0
SPLINE
  5
C8
330
1F
100
AcDbEntity
  8
0
  6
Continuous
 62
     7
370
    15
100
AcDbSpline
210
0.0
220
0.0
230
1.0
 70
     8
 71
     3
 72
    15
 73
    11
 74
     0
 42
0.000000001
 43
0.00000001
 40
0.0
 40
0.0
 40
0.0
 40
0.0
 40
0.1344491028372014
 40
0.2560148314343976
 40
0.3660377056715601
 40
0.471165745070191
 40
0.5791171821515013
 40
0.7041288718237702
 40
0.8718905374381815
 40
0.9999999999999999
 40
0.9999999999999999
 40
0.9999999999999999
 40
0.9999999999999999
 10
1121.117859584837
 20
115.0535651257023
 30
0.0
 10
1121.436152193881
 20
115.0816501226126
 30
0.0
 10
1122.042237522319
 20
115.135128915688
 30
0.0
 10
1122.829163107985
 20
115.5213406808536
 30
0.0
 10
1123.435977658488
 20
116.0241846070733
 30
0.0
 10
1123.885597117122
 20
116.6133450088104
 30
0.0
 10
1124.215034921825
 20
117.2803878399473
 30
0.0
 10
1124.461742191753
 20
118.0993309051287
 30
0.0
 10
1124.609721409486
 20
119.0385619947874
 30
0.0
 10
1124.627701910311
 20
119.7468904768688
 30
0.0
 10
1124.635487300901
 20
120.0535901596531
 30
0.0
  0
SPLINE
  5
C9
330
1F
100
AcDbEntity
  8
0
  6
Continuous
 62
     7
370
    15
100
AcDbSpline
210
0.0
220
0.0
230
1.0
 70
     8
 71
     3
 72
    15
 73
    11
 74
     0
 42
0.000000001
 43
0.00000001
 40
0.0
 40
0.0
 40
0.0
 40
0.0
 40
0.0793806113142564
 40
0.2359008515880457
 40
0.4190350531241152
 40
0.5522542168750417
 40
0.6658927590819738
 40
0.7900893454381172
 40
0.9199482176334367
 40
1.0
 40
1.0
 40
1.0
 40
1.0
 10
1091.483056051283
 20
120.0535901596531
 30
0.0
 10
1091.486088186892
 20
119.8638568177814
 30
0.0
 10
1091.495098993945
 20
119.3000131262157
 30
0.0
 10
1091.605439210839
 20
118.3317269347465
 30
0.0
 10
1091.856497636961
 20
117.354428210064
 30
0.0
 10
1092.289936528045
 20
116.5068933602955
 30
0.0
 10
1092.848129010207
 20
115.8535747734384
 30
0.0
 10
1093.560237853696
 20
115.3578123292194
 30
0.0
 10
1094.31624599497
 20
115.090521511772
 30
0.0
 10
1094.811726659047
 20
115.0637679112978
 30
0.0
 10
1095.000683767347
 20
115.0535651257023
 30
0.0
  0
SPLINE
  5
CA
330
1F
100
AcDbEntity
  8
0
  6
Continuous
 62
     7
370
    15
100
AcDbSpline
210
0.0
220
0.0
230
1.0
 70
     8
 71
     3
 72
    15
 73
    11
 74
     0
 42
0.000000001
 43
0.00000001
 40
0.0
 40
0.0
 40
0.0
 40
0.0
 40
0.1344498201777908
 40
0.2560172424533997
 40
0.366035271083284
 40
0.4711636075352812
 40
0.5791170731675395
 40
0.7041324769418429
 40
0.8719029772204676
 40
1.0
 40
1.0
 40
1.0
 40
1.0
 10
1095.000683767347
 20
2115.053594928025
 30
0.0
 10
1094.682389085604
 20
2115.025514814278
 30
0.0
 10
1094.076297336284
 20
2114.97204510134
 30
0.0
 10
1093.289408100416
 20
2114.585774051237
 30
0.0
 10
1092.682544479882
 20
2114.083012199059
 30
0.0
 10
1092.232958513912
 20
2113.493833407139
 30
0.0
 10
1091.903452907092
 20
2112.826807023075
 30
0.0
 10
1091.656829276367
 20
2112.007812866242
 30
0.0
 10
1091.508776816121
 20
2111.068588423801
 30
0.0
 10
1091.490827345915
 20
2110.36026928802
 30
0.0
 10
1091.483056051283
 20
2110.053599696396
 30
0.0
  0
LINE
  5
CB
330
1F
100
AcDbEntity
  8
0
  6
Continuous
 62
     7
370
    15
100
AcDbLine
 10
1091.4830560513
 20
2110.0535996964
 30
0.0
 11
1091.4830560513
 21
1910.0535520127
 31
0.0
  0
LINE
  5
CC
330
1F
100
AcDbEntity
  8
0
  6
Continuous
 62
     7
370
    15
100
AcDbLine
 10
1091.4830560513
 20
1885.0535758545
 30
0.0
 11
1091.4830560513
 21
1535.0535520127
 31
0.0
  0
LINE
  5
CD
330
1F
100
AcDbEntity
  8
0
  6
Continuous
 62
     7
370
    15
100
AcDbLine
 10
1091.4830560513
 20
1510.0535758545
 30
0.0
 11
1091.4830560513
 21
1160.0535520127
 31
0.0
  0
LINE
  5
CE
330
1F
100
AcDbEntity
  8
0
  6
Continuous
 62
     7
370
    15
100
AcDbLine
 10
1091.4830560513
 20
1135.0535758545
 30
0.0
 11
1091.4830560513
 21
785.053581815
 31
0.0
  0
LINE
  5
CF
330
1F
100
AcDbEntity
  8
0
  6
Continuous
 62
     7
370
    15
100
AcDbLine
 10
1091.4830560513
 20
760.0535758545
 30
0.0
 11
1091.4830560513
 21
410.0535762271
 31
0.0
  0
LINE
  5
D0
330
1F
100
AcDbEntity
  8
0
  6
Continuous
 62
     7
370
    15
100
AcDbLine
 10
1091.4830560513
 20
385.0535758545
 30
0.0
 11
1091.4830560513
 21
120.0535901597
 31
0.0
  0
LINE
  5
D1
330
1F
100
AcDbEntity
  8
0
  6
Continuous
 62
     7
370
    15
100
AcDbLine
 10
251.179843647
 20
115.0535651257
 30
0.0
 11
232.8272456951
 21
115.0535651257
 31
0.0
  0
LINE
  5
D2
330
1F
100
AcDbEntity
  8
0
  6
Continuous
 62
     7
370
    15
100
AcDbLine
 10
251.179843647
 20
2115.053594928
 30
0.0
 11
232.8272456951
 21
2115.053594928
 31
0.0
  0
LINE
  5
D3
330
1F
100
AcDbEntity
  8
0
  6
Continuous
 62
     7
370
    15
100
AcDbLine
 10
258.9444215126
 20
115.0535651257
 30
0.0
 11
251.179843647
 21
115.0535651257
 31
0.0
  0
LINE
  5
D4
330
1F
100
AcDbEntity
  8
0
  6
Continuous
 62
     7
370
    15
100
AcDbLine
 10
251.179843647
 20
2115.053594928
 30
0.0
 11
258.9444215126
 21
2115.053594928
 31
0.0
  0
LINE
  5
D5
330
1F
100
AcDbEntity
  8
0
  6
Continuous
 62
     7
370
    15
100
AcDbLine
 10
273.1794411965
 20
1885.0535758545
 30
0.0
 11
273.9433641262
 21
1885.0535758545
 31
0.0
  0
LINE
  5
D6
330
1F
100
AcDbEntity
  8
0
  6
Continuous
 62
     7
370
    15
100
AcDbLine
 10
330.1196391411
 20
345.0535767486
 30
0.0
 11
273.1794411965
 21
345.0535767486
 31
0.0
  0
LINE
  5
D7
330
1F
100
AcDbEntity
  8
0
  6
Continuous
 62
     7
370
    15
100
AcDbLine
 10
273.1794411965
 20
385.0535758545
 30
0.0
 11
273.9433641262
 21
385.0535758545
 31
0.0
  0
LINE
  5
D8
330
1F
100
AcDbEntity
  8
0
  6
Continuous
 62
     7
370
    15
100
AcDbLine
 10
330.1196391411
 20
720.0535841992
 30
0.0
 11
273.1794411965
 21
720.0535841992
 31
0.0
  0
LINE
  5
D9
330
1F
100
AcDbEntity
  8
0
  6
Continuous
 62
     7
370
    15
100
AcDbLine
 10
273.1794411965
 20
1135.0535758545
 30
0.0
 11
273.9433641262
 21
1135.0535758545
 31
0.0
  0
LINE
  5
DA
330
1F
100
AcDbEntity
  8
0
  6
Continuous
 62
     7
370
    15
100
AcDbLine
 10
330.1196391411
 20
1095.0535543969
 30
0.0
 11
273.1794411965
 21
1095.0535543969
 31
0.0
  0
LINE
  5
DB
330
1F
100
AcDbEntity
  8
0
  6
Continuous
 62
     7
370
    15
100
AcDbLine
 10
273.1794411965
 20
760.0535758545
 30
0.0
 11
273.9433641262
 21
760.0535758545
 31
0.0
  0
LINE
  5
DC
330
1F
100
AcDbEntity
  8
0
  6
Continuous
 62
     7
370
    15
100
AcDbLine
 10
330.1196391411
 20
1470.0536140015
 30
0.0
 11
273.1794411965
 21
1470.0536140015
 31
0.0
  0
LINE
  5
DD
330
1F
100
AcDbEntity
  8
0
  6
Continuous
 62
     7
370
    15
100
AcDbLine
 10
273.1794411965
 20
1510.0535758545
 30
0.0
 11
273.9433641262
 21
1510.0535758545
 31
0.0
  0
LINE
  5
DE
330
1F
100
AcDbEntity
  8
0
  6
Continuous
 62
     7
370
    15
100
AcDbLine
 10
330.1196391411
 20
1845.0536140015
 30
0.0
 11
273.1794411965
 21
1845.0536140015
 31
0.0
  0
LINE
  5
DF
330
1F
100
AcDbEntity
  8
0
  6
Continuous
 62
     7
370
    15
100
AcDbLine
 10
344.3546886273
 20
2115.053594928
 30
0.0
 11
326.0020906754
 21
2115.053594928
 31
0.0
  0
LINE
  5
E0
330
1F
100
AcDbEntity
  8
0
  6
Continuous
 62
     7
370
    15
100
AcDbLine
 10
344.3546886273
 20
115.0535651257
 30
0.0
 11
326.0020906754
 21
115.0535651257
 31
0.0
  0
LINE
  5
E1
330
1F
100
AcDbEntity
  8
0
  6
Continuous
 62
     7
370
    15
100
AcDbLine
 10
344.3546886273
 20
2115.053594928
 30
0.0
 11
352.1192664929
 21
2115.053594928
 31
0.0
  0
LINE
  5
E2
330
1F
100
AcDbEntity
  8
0
  6
Continuous
 62
     7
370
    15
100
AcDbLine
 10
352.1192664929
 20
115.0535651257
 30
0.0
 11
344.3546886273
 21
115.0535651257
 31
0.0
  0
LINE
  5
E3
330
1F
100
AcDbEntity
  8
0
  6
Continuous
 62
     7
370
    15
100
AcDbLine
 10
1214.2927045651
 20
115.0535651257
 30
0.0
 11
1195.9401066132
 21
115.0535651257
 31
0.0
  0
LINE
  5
E4
330
1F
100
AcDbEntity
  8
0
  6
Continuous
 62
     7
370
    15
100
AcDbLine
 10
1214.2927045651
 20
2115.053594928
 30
0.0
 11
1195.9401066132
 21
2115.053594928
 31
0.0
  0
LINE
  5
E5
330
1F
100
AcDbEntity
  8
0
  6
Continuous
 62
     7
370
    15
100
AcDbLine
 10
1195.9401066132
 20
115.0535651257
 30
0.0
 11
1188.1755287476
 21
115.0535651257
 31
0.0
  0
LINE
  5
E6
330
1F
100
AcDbEntity
  8
0
  6
Continuous
 62
     7
370
    15
100
AcDbLine
 10
1188.1755287476
 20
2115.053594928
 30
0.0
 11
1195.9401066132
 21
2115.053594928
 31
0.0
  0
LINE
  5
E7
330
1F
100
AcDbEntity
  8
0
  6
Continuous
 62
     7
370
    15
100
AcDbLine
 10
1173.176586134
 20
1885.0535758545
 30
0.0
 11
1173.9405090637
 21
1885.0535758545
 31
0.0
  0
LINE
  5
E8
330
1F
100
AcDbEntity
  8
0
  6
Continuous
 62
     7
370
    15
100
AcDbLine
 10
1173.9405090637
 20
345.0535767486
 30
0.0
 11
1117.0003111191
 21
345.0535767486
 31
0.0
  0
LINE
  5
E9
330
1F
100
AcDbEntity
  8
0
  6
Continuous
 62
     7
370
    15
100
AcDbLine
 10
1173.176586134
 20
385.0535758545
 30
0.0
 11
1173.9405090637
 21
385.0535758545
 31
0.0
  0
LINE
  5
EA
330
1F
100
AcDbEntity
  8
0
  6
Continuous
 62
     7
370
    15
100
AcDbLine
 10
1173.9405090637
 20
720.0535841992
 30
0.0
 11
1117.0003111191
 21
720.0535841992
 31
0.0
  0
LINE
  5
EB
330
1F
100
AcDbEntity
  8
0
  6
Continuous
 62
     7
370
    15
100
AcDbLine
 10
1173.176586134
 20
1135.0535758545
 30
0.0
 11
1173.9405090637
 21
1135.0535758545
 31
0.0
  0
LINE
  5
EC
330
1F
100
AcDbEntity
  8
0
  6
Continuous
 62
     7
370
    15
100
AcDbLine
 10
1173.9405090637
 20
1095.0535543969
 30
0.0
 11
1117.0003111191
 21
1095.0535543969
 31
0.0
  0
LINE
  5
ED
330
1F
100
AcDbEntity
  8
0
  6
Continuous
 62
     7
370
    15
100
AcDbLine
 10
1173.176586134
 20
760.0535758545
 30
0.0
 11
1173.9405090637
 21
760.0535758545
 31
0.0
  0
LINE
  5
EE
330
1F
100
AcDbEntity
  8
0
  6
Continuous
 62
     7
370
    15
100
AcDbLine
 10
1173.9405090637
 20
1470.0536140015
 30
0.0
 11
1117.0003111191
 21
1470.0536140015
 31
0.0
  0
LINE
  5
EF
330
1F
100
AcDbEntity
  8
0
  6
Continuous
 62
     7
370
    15
100
AcDbLine
 10
1173.176586134
 20
1510.0535758545
 30
0.0
 11
1173.9405090637
 21
1510.0535758545
 31
0.0
  0
LINE
  5
F0
330
1F
100
AcDbEntity
  8
0
  6
Continuous
 62
     7
370
    15
100
AcDbLine
 10
1173.9405090637
 20
1845.0536140015
 30
0.0
 11
1117.0003111191
 21
1845.0536140015
 31
0.0
  0
LINE
  5
F1
330
1F
100
AcDbEntity
  8
0
  6
Continuous
 62
     7
370
    15
100
AcDbLine
 10
1121.1178595848
 20
2115.053594928
 30
0.0
 11
1102.7652616329
 21
2115.053594928
 31
0.0
  0
LINE
  5
F2
330
1F
100
AcDbEntity
  8
0
  6
Continuous
 62
     7
370
    15
100
AcDbLine
 10
1121.1178595848
 20
115.0535651257
 30
0.0
 11
1102.7652616329
 21
115.0535651257
 31
0.0
  0
LINE
  5
F3
330
1F
100
AcDbEntity
  8
0
  6
Continuous
 62
     7
370
    15
100
AcDbLine
 10
1095.0006837673
 20
2115.053594928
 30
0.0
 11
1102.7652616329
 21
2115.053594928
 31
0.0
  0
LINE
  5
F4
330
1F
100
AcDbEntity
  8
0
  6
Continuous
 62
     7
370
    15
100
AcDbLine
 10
1102.7652616329
 20
115.0535651257
 30
0.0
 11
1095.0006837673
 21
115.0535651257
 31
0.0
  0
LINE
  5
F5
330
1F
100
AcDbEntity
  8
0
  6
Continuous
 62
     7
370
    15
100
AcDbLine
 10
148.559987051
 20
385.0535758545
 30
0.0
 11
145.5599660702
 21
385.0535758545
 31
0.0
  0
ARC
  5
F6
330
1F
100
AcDbEntity
  8
0
  6
Continuous
 62
     7
370
    15
100
AcDbCircle
 10
145.5599751301
 20
397.0535758545
 30
0.0
 40
12.0
100
AcDbArc
 50
180.0
 51
270.0
  0
LINE
  5
F7
330
1F
100
AcDbEntity
  8
0
  6
Continuous
 62
     7
370
    15
100
AcDbLine
 10
1298.5599632092
 20
410.0535762271
 30
0.0
 11
1313.5599489041
 21
410.0535762271
 31
0.0
  0
LINE
  5
F8
330
1F
100
AcDbEntity
  8
0
  6
Continuous
 62
     7
370
    15
100
AcDbLine
 10
1313.5599489041
 20
410.0535762271
 30
0.0
 11
1313.5599489041
 21
397.0535759588
 31
0.0
  0
LINE
  5
F9
330
1F
100
AcDbEntity
  8
0
  6
Continuous
 62
     7
370
    15
100
AcDbLine
 10
133.5600013562
 20
410.0535762271
 30
0.0
 11
148.559987051
 21
410.0535762271
 31
0.0
  0
LINE
  5
FA
330
1F
100
AcDbEntity
  8
0
  6
Continuous
 62
     7
370
    15
100
AcDbLine
 10
133.5600013562
 20
410.0535762271
 30
0.0
 11
133.5600013562
 21
397.0535759588
 31
0.0
  0
LINE
  5
FB
330
1F
100
AcDbEntity
  8
0
  6
Continuous
 62
     7
370
    15
100
AcDbLine
 10
1298.5599632092
 20
385.0535758545
 30
0.0
 11
1217.8103322811
 21
385.0535758545
 31
0.0
  0
LINE
  5
FC
330
1F
100
AcDbEntity
  8
0
  6
Continuous
 62
     7
370
    15
100
AcDbLine
 10
1173.176586134
 20
385.0535758545
 30
0.0
 11
273.9433641262
 21
385.0535758545
 31
0.0
  0
LINE
  5
FD
330
1F
100
AcDbEntity
  8
0
  6
Continuous
 62
     7
370
    15
100
AcDbLine
 10
229.3096179791
 20
385.0535758545
 30
0.0
 11
148.559987051
 21
385.0535758545
 31
0.0
  0
LINE
  5
FE
330
1F
100
AcDbEntity
  8
0
  6
Continuous
 62
     7
370
    15
100
AcDbLine
 10
148.559987051
 20
410.0535762271
 30
0.0
 11
229.3096179791
 21
410.0535762271
 31
0.0
  0
LINE
  5
FF
330
1F
100
AcDbEntity
  8
0
  6
Continuous
 62
     7
370
    15
100
AcDbLine
 10
264.1147966214
 20
410.0535762271
 30
0.0
 11
1183.004796011
 21
410.0535762271
 31
0.0
  0
LINE
  5
100
330
1F
100
AcDbEntity
  8
0
  6
Continuous
 62
     7
370
    15
100
AcDbLine
 10
1217.8103322811
 20
410.0535762271
 30
0.0
 11
1298.5599632092
 21
410.0535762271
 31
0.0
  0
LINE
  5
101
330
1F
100
AcDbEntity
  8
0
  6
Continuous
 62
     7
370
    15
100
AcDbLine
 10
1301.55998419
 20
385.0535758545
 30
0.0
 11
1298.5599632092
 21
385.0535758545
 31
0.0
  0
ARC
  5
102
330
1F
100
AcDbEntity
  8
0
  6
Continuous
 62
     7
370
    15
100
AcDbCircle
 10
1301.5599751301
 20
397.0535758545
 30
0.0
 40
12.0
100
AcDbArc
 50
270.0
 51
0.0
  0
LINE
  5
103
330
1F
100
AcDbEntity
  8
0
  6
Continuous
 62
     7
370
    15
100
AcDbLine
 10
1301.55998419
 20
1510.0535758545
 30
0.0
 11
1298.5599632092
 21
1510.0535758545
 31
0.0
  0
ARC
  5
104
330
1F
100
AcDbEntity
  8
0
  6
Continuous
 62
     7
370
    15
100
AcDbCircle
 10
1301.5599751301
 20
1522.0535758545
 30
0.0
 40
12.0
100
AcDbArc
 50
270.0
 51
0.0
  0
LINE
  5
105
330
1F
100
AcDbEntity
  8
0
  6
Continuous
 62
     7
370
    15
100
AcDbLine
 10
1298.5599632092
 20
1510.0535758545
 30
0.0
 11
1217.8103322811
 21
1510.0535758545
 31
0.0
  0
LINE
  5
106
330
1F
100
AcDbEntity
  8
0
  6
Continuous
 62
     7
370
    15
100
AcDbLine
 10
1173.176586134
 20
1510.0535758545
 30
0.0
 11
273.9433641262
 21
1510.0535758545
 31
0.0
  0
LINE
  5
107
330
1F
100
AcDbEntity
  8
0
  6
Continuous
 62
     7
370
    15
100
AcDbLine
 10
229.3096179791
 20
1510.0535758545
 30
0.0
 11
148.559987051
 21
1510.0535758545
 31
0.0
  0
LINE
  5
108
330
1F
100
AcDbEntity
  8
0
  6
Continuous
 62
     7
370
    15
100
AcDbLine
 10
148.559987051
 20
1510.0535758545
 30
0.0
 11
145.5599660702
 21
1510.0535758545
 31
0.0
  0
ARC
  5
109
330
1F
100
AcDbEntity
  8
0
  6
Continuous
 62
     7
370
    15
100
AcDbCircle
 10
145.5599751301
 20
1522.0535758545
 30
0.0
 40
12.0
100
AcDbArc
 50
180.0
 51
270.0
  0
LINE
  5
10A
330
1F
100
AcDbEntity
  8
0
  6
Continuous
 62
     7
370
    15
100
AcDbLine
 10
133.5600013562
 20
1535.0535520127
 30
0.0
 11
133.5600013562
 21
1522.0535405686
 31
0.0
  0
LINE
  5
10B
330
1F
100
AcDbEntity
  8
0
  6
Continuous
 62
     7
370
    15
100
AcDbLine
 10
133.5600013562
 20
1535.0535520127
 30
0.0
 11
148.559987051
 21
1535.0535520127
 31
0.0
  0
LINE
  5
10C
330
1F
100
AcDbEntity
  8
0
  6
Continuous
 62
     7
370
    15
100
AcDbLine
 10
1313.5599489041
 20
1535.0535520127
 30
0.0
 11
1313.5599489041
 21
1522.0535405686
 31
0.0
  0
LINE
  5
10D
330
1F
100
AcDbEntity
  8
0
  6
Continuous
 62
     7
370
    15
100
AcDbLine
 10
1298.5599632092
 20
1535.0535520127
 30
0.0
 11
1313.5599489041
 21
1535.0535520127
 31
0.0
  0
LINE
  5
10E
330
1F
100
AcDbEntity
  8
0
  6
Continuous
 62
     7
370
    15
100
AcDbLine
 10
148.559987051
 20
1535.0535520127
 30
0.0
 11
229.3096179791
 21
1535.0535520127
 31
0.0
  0
LINE
  5
10F
330
1F
100
AcDbEntity
  8
0
  6
Continuous
 62
     7
370
    15
100
AcDbLine
 10
264.1147966214
 20
1535.0535520127
 30
0.0
 11
1183.004796011
 21
1535.0535520127
 31
0.0
  0
LINE
  5
110
330
1F
100
AcDbEntity
  8
0
  6
Continuous
 62
     7
370
    15
100
AcDbLine
 10
1217.8103322811
 20
1535.0535520127
 30
0.0
 11
1298.5599632092
 21
1535.0535520127
 31
0.0
  0
LINE
  5
111
330
1F
100
AcDbEntity
  8
0
  6
Continuous
 62
     7
370
    15
100
AcDbLine
 10
148.559987051
 20
785.053581815
 30
0.0
 11
229.3096179791
 21
785.053581815
 31
0.0
  0
LINE
  5
112
330
1F
100
AcDbEntity
  8
0
  6
Continuous
 62
     7
370
    15
100
AcDbLine
 10
264.1147966214
 20
785.053581815
 30
0.0
 11
1183.004796011
 21
785.053581815
 31
0.0
  0
LINE
  5
113
330
1F
100
AcDbEntity
  8
0
  6
Continuous
 62
     7
370
    15
100
AcDbLine
 10
1217.8103322811
 20
785.053581815
 30
0.0
 11
1298.5599632092
 21
785.053581815
 31
0.0
  0
LINE
  5
114
330
1F
100
AcDbEntity
  8
0
  6
Continuous
 62
     7
370
    15
100
AcDbLine
 10
133.5600013562
 20
785.053581815
 30
0.0
 11
148.559987051
 21
785.053581815
 31
0.0
  0
LINE
  5
115
330
1F
100
AcDbEntity
  8
0
  6
Continuous
 62
     7
370
    15
100
AcDbLine
 10
133.5600013562
 20
785.053581815
 30
0.0
 11
133.5600013562
 21
772.0535703709
 31
0.0
  0
LINE
  5
116
330
1F
100
AcDbEntity
  8
0
  6
Continuous
 62
     7
370
    15
100
AcDbLine
 10
148.559987051
 20
760.0535758545
 30
0.0
 11
145.5599660702
 21
760.0535758545
 31
0.0
  0
ARC
  5
117
330
1F
100
AcDbEntity
  8
0
  6
Continuous
 62
     7
370
    15
100
AcDbCircle
 10
145.5599751301
 20
772.0535758545
 30
0.0
 40
12.0
100
AcDbArc
 50
180.0
 51
270.0
  0
LINE
  5
118
330
1F
100
AcDbEntity
  8
0
  6
Continuous
 62
     7
370
    15
100
AcDbLine
 10
1301.55998419
 20
760.0535758545
 30
0.0
 11
1298.5599632092
 21
760.0535758545
 31
0.0
  0
ARC
  5
119
330
1F
100
AcDbEntity
  8
0
  6
Continuous
 62
     7
370
    15
100
AcDbCircle
 10
1301.5599751301
 20
772.0535758545
 30
0.0
 40
12.0
100
AcDbArc
 50
270.0
 51
0.0
  0
LINE
  5
11A
330
1F
100
AcDbEntity
  8
0
  6
Continuous
 62
     7
370
    15
100
AcDbLine
 10
1313.5599489041
 20
785.053581815
 30
0.0
 11
1313.5599489041
 21
772.0535703709
 31
0.0
  0
LINE
  5
11B
330
1F
100
AcDbEntity
  8
0
  6
Continuous
 62
     7
370
    15
100
AcDbLine
 10
1298.5599632092
 20
785.053581815
 30
0.0
 11
1313.5599489041
 21
785.053581815
 31
0.0
  0
LINE
  5
11C
330
1F
100
AcDbEntity
  8
0
  6
Continuous
 62
     7
370
    15
100
AcDbLine
 10
1298.5599632092
 20
760.0535758545
 30
0.0
 11
1217.8103322811
 21
760.0535758545
 31
0.0
  0
LINE
  5
11D
330
1F
100
AcDbEntity
  8
0
  6
Continuous
 62
     7
370
    15
100
AcDbLine
 10
1173.176586134
 20
760.0535758545
 30
0.0
 11
273.9433641262
 21
760.0535758545
 31
0.0
  0
LINE
  5
11E
330
1F
100
AcDbEntity
  8
0
  6
Continuous
 62
     7
370
    15
100
AcDbLine
 10
229.3096179791
 20
760.0535758545
 30
0.0
 11
148.559987051
 21
760.0535758545
 31
0.0
  0
LINE
  5
11F
330
1F
100
AcDbEntity
  8
0
  6
Continuous
 62
     7
370
    15
100
AcDbLine
 10
1301.55998419
 20
1135.0535758545
 30
0.0
 11
1298.5599632092
 21
1135.0535758545
 31
0.0
  0
ARC
  5
120
330
1F
100
AcDbEntity
  8
0
  6
Continuous
 62
     7
370
    15
100
AcDbCircle
 10
1301.5599751301
 20
1147.0535758545
 30
0.0
 40
12.0
100
AcDbArc
 50
270.0
 51
0.0
  0
LINE
  5
121
330
1F
100
AcDbEntity
  8
0
  6
Continuous
 62
     7
370
    15
100
AcDbLine
 10
148.559987051
 20
1135.0535758545
 30
0.0
 11
145.5599660702
 21
1135.0535758545
 31
0.0
  0
ARC
  5
122
330
1F
100
AcDbEntity
  8
0
  6
Continuous
 62
     7
370
    15
100
AcDbCircle
 10
145.5599751301
 20
1147.0535758545
 30
0.0
 40
12.0
100
AcDbArc
 50
180.0
 51
270.0
  0
LINE
  5
123
330
1F
100
AcDbEntity
  8
0
  6
Continuous
 62
     7
370
    15
100
AcDbLine
 10
1298.5599632092
 20
1135.0535758545
 30
0.0
 11
1217.8103322811
 21
1135.0535758545
 31
0.0
  0
LINE
  5
124
330
1F
100
AcDbEntity
  8
0
  6
Continuous
 62
     7
370
    15
100
AcDbLine
 10
1173.176586134
 20
1135.0535758545
 30
0.0
 11
273.9433641262
 21
1135.0535758545
 31
0.0
  0
LINE
  5
125
330
1F
100
AcDbEntity
  8
0
  6
Continuous
 62
     7
370
    15
100
AcDbLine
 10
229.3096179791
 20
1135.0535758545
 30
0.0
 11
148.559987051
 21
1135.0535758545
 31
0.0
  0
LINE
  5
126
330
1F
100
AcDbEntity
  8
0
  6
Continuous
 62
     7
370
    15
100
AcDbLine
 10
133.5600013562
 20
1160.0535520127
 30
0.0
 11
133.5600013562
 21
1147.0536001732
 31
0.0
  0
LINE
  5
127
330
1F
100
AcDbEntity
  8
0
  6
Continuous
 62
     7
370
    15
100
AcDbLine
 10
133.5600013562
 20
1160.0535520127
 30
0.0
 11
148.559987051
 21
1160.0535520127
 31
0.0
  0
LINE
  5
128
330
1F
100
AcDbEntity
  8
0
  6
Continuous
 62
     7
370
    15
100
AcDbLine
 10
148.559987051
 20
1160.0535520127
 30
0.0
 11
229.3096179791
 21
1160.0535520127
 31
0.0
  0
LINE
  5
129
330
1F
100
AcDbEntity
  8
0
  6
Continuous
 62
     7
370
    15
100
AcDbLine
 10
264.1147966214
 20
1160.0535520127
 30
0.0
 11
1183.004796011
 21
1160.0535520127
 31
0.0
  0
LINE
  5
12A
330
1F
100
AcDbEntity
  8
0
  6
Continuous
 62
     7
370
    15
100
AcDbLine
 10
1217.8103322811
 20
1160.0535520127
 30
0.0
 11
1298.5599632092
 21
1160.0535520127
 31
0.0
  0
LINE
  5
12B
330
1F
100
AcDbEntity
  8
0
  6
Continuous
 62
     7
370
    15
100
AcDbLine
 10
1313.5599489041
 20
1160.0535520127
 30
0.0
 11
1313.5599489041
 21
1147.0536001732
 31
0.0
  0
LINE
  5
12C
330
1F
100
AcDbEntity
  8
0
  6
Continuous
 62
     7
370
    15
100
AcDbLine
 10
1298.5599632092
 20
1160.0535520127
 30
0.0
 11
1313.5599489041
 21
1160.0535520127
 31
0.0
  0
LINE
  5
12D
330
1F
100
AcDbEntity
  8
0
  6
Continuous
 62
     7
370
    15
100
AcDbLine
 10
1301.55998419
 20
1885.0535758545
 30
0.0
 11
1298.5599632092
 21
1885.0535758545
 31
0.0
  0
ARC
  5
12E
330
1F
100
AcDbEntity
  8
0
  6
Continuous
 62
     7
370
    15
100
AcDbCircle
 10
1301.5599751301
 20
1897.0535758545
 30
0.0
 40
12.0
100
AcDbArc
 50
270.0
 51
0.0
  0
LINE
  5
12F
330
1F
100
AcDbEntity
  8
0
  6
Continuous
 62
     7
370
    15
100
AcDbLine
 10
1298.5599632092
 20
1885.0535758545
 30
0.0
 11
1217.8103322811
 21
1885.0535758545
 31
0.0
  0
LINE
  5
130
330
1F
100
AcDbEntity
  8
0
  6
Continuous
 62
     7
370
    15
100
AcDbLine
 10
1173.176586134
 20
1885.0535758545
 30
0.0
 11
273.9433641262
 21
1885.0535758545
 31
0.0
  0
LINE
  5
131
330
1F
100
AcDbEntity
  8
0
  6
Continuous
 62
     7
370
    15
100
AcDbLine
 10
229.3096179791
 20
1885.0535758545
 30
0.0
 11
148.559987051
 21
1885.0535758545
 31
0.0
  0
LINE
  5
132
330
1F
100
AcDbEntity
  8
0
  6
Continuous
 62
     7
370
    15
100
AcDbLine
 10
148.559987051
 20
1885.0535758545
 30
0.0
 11
145.5599660702
 21
1885.0535758545
 31
0.0
  0
ARC
  5
133
330
1F
100
AcDbEntity
  8
0
  6
Continuous
 62
     7
370
    15
100
AcDbCircle
 10
145.5599751301
 20
1897.0535758545
 30
0.0
 40
12.0
100
AcDbArc
 50
180.0
 51
270.0
  0
LINE
  5
134
330
1F
100
AcDbEntity
  8
0
  6
Continuous
 62
     7
370
    15
100
AcDbLine
 10
148.559987051
 20
1910.0535520127
 30
0.0
 11
229.3096179791
 21
1910.0535520127
 31
0.0
  0
LINE
  5
135
330
1F
100
AcDbEntity
  8
0
  6
Continuous
 62
     7
370
    15
100
AcDbLine
 10
264.1147966214
 20
1910.0535520127
 30
0.0
 11
1183.004796011
 21
1910.0535520127
 31
0.0
  0
LINE
  5
136
330
1F
100
AcDbEntity
  8
0
  6
Continuous
 62
     7
370
    15
100
AcDbLine
 10
1217.8103322811
 20
1910.0535520127
 30
0.0
 11
1298.5599632092
 21
1910.0535520127
 31
0.0
  0
LINE
  5
137
330
1F
100
AcDbEntity
  8
0
  6
Continuous
 62
     7
370
    15
100
AcDbLine
 10
1313.5599489041
 20
1910.0535520127
 30
0.0
 11
1313.5599489041
 21
1897.0535405686
 31
0.0
  0
LINE
  5
138
330
1F
100
AcDbEntity
  8
0
  6
Continuous
 62
     7
370
    15
100
AcDbLine
 10
1298.5599632092
 20
1910.0535520127
 30
0.0
 11
1313.5599489041
 21
1910.0535520127
 31
0.0
  0
LINE
  5
139
330
1F
100
AcDbEntity
  8
0
  6
Continuous
 62
     7
370
    15
100
AcDbLine
 10
133.5600013562
 20
1910.0535520127
 30
0.0
 11
133.5600013562
 21
1897.0535405686
 31
0.0
  0
LINE
  5
13A
330
1F
100
AcDbEntity
  8
0
  6
Continuous
 62
     7
370
    15
100
AcDbLine
 10
133.5600013562
 20
1910.0535520127
 30
0.0
 11
148.559987051
 21
1910.0535520127
 31
0.0
  0
LWPOLYLINE
  5
13B
330
1F
100
AcDbEntity
  8
0
  6
Continuous
 62
     7
370
    15
100
AcDbPolyline
 90
        9
 70
   128
 43
0.0
 10
330.8688993283
 20
2737.363052569
 10
330.9698695965
 20
2737.7399327379
 10
331.0669953652
 20
2738.1023438793
 10
331.1564917393
 20
2738.4363385063
 10
331.2349314518
 20
2738.729071818
 10
331.2993044682
 20
2738.9693232399
 10
331.3471371956
 20
2739.1478540522
 10
331.3765818901
 20
2739.2577799183
 10
331.3865358658
 20
2739.2948987108
  0
ARC
  5
13C
330
1F
100
AcDbEntity
  8
0
  6
Continuous
 62
     7
370
    15
100
AcDbCircle
 10
334.2843107221
 20
2738.5184469008
 30
0.0
 40
3.000000000000077
100
AcDbArc
 50
75.0
 51
165.0
  0
LWPOLYLINE
  5
13D
330
1F
100
AcDbEntity
  8
0
  6
Continuous
 62
     7
370
    15
100
AcDbPolyline
 90
        9
 70
   128
 43
0.0
 10
322.5866849251
 20
2706.453424893
 10
322.5966389008
 20
2706.4905436855
 10
322.6260835953
 20
2706.6004844528
 10
322.6739163227
 20
2706.7790003639
 10
322.7382893391
 20
2707.0192517859
 10
322.8167290516
 20
2707.3119999987
 10
322.9062254257
 20
2707.6459946257
 10
323.0033511944
 20
2708.0083908659
 10
323.1043214627
 20
2708.3852710348
  0
ARC
  5
13E
330
1F
100
AcDbEntity
  8
0
  6
Continuous
 62
     7
370
    15
100
AcDbCircle
 10
325.4844631887
 20
2705.676968807
 30
0.0
 40
3.000000000000062
100
AcDbArc
 50
165.0
 51
255.0
  0
LINE
  5
13F
330
1F
100
AcDbEntity
  8
0
  6
Continuous
 62
     7
370
    15
100
AcDbLine
 10
323.1043214627
 20
2708.3852710348
 30
0.0
 11
330.8688993283
 21
2737.363052569
 31
0.0
  0
ARC
  5
140
330
1F
100
AcDbEntity
  8
0
  6
Continuous
 62
     7
370
    15
100
AcDbCircle
 10
352.6369014216
 20
2733.6008850439
 30
0.0
 40
3.000000000000062
100
AcDbArc
 50
345.0
 51
75.0
  0
LWPOLYLINE
  5
141
330
1F
100
AcDbEntity
  8
0
  6
Continuous
 62
     7
370
    15
100
AcDbPolyline
 90
        9
 70
   128
 43
0.0
 10
355.5346722431
 20
2732.8244270903
 10
355.5247182675
 20
2732.7873082977
 10
355.495273573
 20
2732.6773675304
 10
355.4474408455
 20
2732.4988516193
 10
355.3830678292
 20
2732.2586001974
 10
355.3046281166
 20
2731.9658519846
 10
355.2151317425
 20
2731.6318573576
 10
355.1180357762
 20
2731.2694611174
 10
355.0170357056
 20
2730.8925809485
  0
LINE
  5
142
330
1F
100
AcDbEntity
  8
0
  6
Continuous
 62
     7
370
    15
100
AcDbLine
 10
355.0170357056
 20
2730.8925809485
 30
0.0
 11
347.25245784
 21
2701.9147994143
 31
0.0
  0
LINE
  5
143
330
1F
100
AcDbEntity
  8
0
  6
Continuous
 62
     7
370
    15
100
AcDbLine
 10
343.0605823822
 20
2697.8616239649
 30
0.0
 11
324.7080142327
 21
2702.7791859728
 31
0.0
  0
LINE
  5
144
330
1F
100
AcDbEntity
  8
0
  6
Continuous
 62
     7
370
    15
100
AcDbLine
 10
353.4133727379
 20
2736.4986660105
 30
0.0
 11
335.060774786
 21
2741.4162280184
 31
0.0
  0
LWPOLYLINE
  5
145
330
1F
100
AcDbEntity
  8
0
  6
Continuous
 62
     7
370
    15
100
AcDbPolyline
 90
        9
 70
   128
 43
0.0
 10
347.25245784
 20
2701.9147994143
 10
347.1514875717
 20
2701.5379192453
 10
347.0543916054
 20
2701.1755081039
 10
346.9648952313
 20
2700.8415283781
 10
346.8864555188
 20
2700.5487801653
 10
346.8220825024
 20
2700.3085287434
 10
346.7742199726
 20
2700.1299979311
 10
346.7447752781
 20
2700.020072065
 10
346.7348213024
 20
2699.9829532724
  0
ARC
  5
146
330
1F
100
AcDbEntity
  8
0
  6
Continuous
 62
     7
370
    15
100
AcDbCircle
 10
343.8370538882
 20
2700.7594069501
 30
0.0
 40
3.000000000000129
100
AcDbArc
 50
255.0
 51
345.0
  0
LINE
  5
147
330
1F
100
AcDbEntity
  8
0
  6
Continuous
 62
     7
370
    15
100
AcDbLine
 10
260.2384979554
 20
2388.7653621059
 30
0.0
 11
241.8859000035
 21
2393.6829241138
 31
0.0
  0
LWPOLYLINE
  5
148
330
1F
100
AcDbEntity
  8
0
  6
Continuous
 62
     7
370
    15
100
AcDbPolyline
 90
        9
 70
   128
 43
0.0
 10
237.6940245457
 20
2389.6297486645
 10
237.7950246163
 20
2390.0066437346
 10
237.8921205826
 20
2390.3690399748
 10
237.9816169567
 20
2390.7030346018
 10
238.0600566693
 20
2390.9957828146
 10
238.1244296856
 20
2391.2360342365
 10
238.1722624131
 20
2391.4145501476
 10
238.2017369099
 20
2391.5244909149
 10
238.2116908856
 20
2391.5616097075
  0
ARC
  5
149
330
1F
100
AcDbEntity
  8
0
  6
Continuous
 62
     7
370
    15
100
AcDbCircle
 10
241.1094544852
 20
2390.7851494368
 30
0.0
 40
3.000000000000084
100
AcDbArc
 50
75.0
 51
165.0
  0
LINE
  5
14A
330
1F
100
AcDbEntity
  8
0
  6
Continuous
 62
     7
370
    15
100
AcDbLine
 10
229.9294764824
 20
2360.6519820314
 30
0.0
 11
237.6940245457
 21
2389.6297486645
 31
0.0
  0
ARC
  5
14B
330
1F
100
AcDbEntity
  8
0
  6
Continuous
 62
     7
370
    15
100
AcDbCircle
 10
259.4620451847
 20
2385.8675875798
 30
0.0
 40
3.000000000000077
100
AcDbArc
 50
345.0
 51
75.0
  0
LWPOLYLINE
  5
14C
330
1F
100
AcDbEntity
  8
0
  6
Continuous
 62
     7
370
    15
100
AcDbPolyline
 90
        9
 70
   128
 43
0.0
 10
262.3598272629
 20
2385.0911231857
 10
262.3498732872
 20
2385.0540043932
 10
262.3204285927
 20
2384.9440785271
 10
262.2725958653
 20
2384.7655477148
 10
262.2082228489
 20
2384.525311194
 10
262.1297831364
 20
2384.2325629812
 10
262.0402867623
 20
2383.8985683542
 10
261.9431609936
 20
2383.5361572128
 10
261.8421907254
 20
2383.1592770439
  0
LINE
  5
14D
330
1F
100
AcDbEntity
  8
0
  6
Continuous
 62
     7
370
    15
100
AcDbLine
 10
261.8421907254
 20
2383.1592770439
 30
0.0
 11
254.0776128598
 21
2354.1815104109
 31
0.0
  0
ARC
  5
14E
330
1F
100
AcDbEntity
  8
0
  6
Continuous
 62
     7
370
    15
100
AcDbCircle
 10
232.3096069518
 20
2357.9436713429
 30
0.0
 40
3.000000000000039
100
AcDbArc
 50
165.0
 51
255.0
  0
LWPOLYLINE
  5
14F
330
1F
100
AcDbEntity
  8
0
  6
Continuous
 62
     7
370
    15
100
AcDbPolyline
 90
        9
 70
   128
 43
0.0
 10
229.4118399449
 20
2358.7201358896
 10
229.4217641182
 20
2358.7572546822
 10
229.4512386151
 20
2358.8671805483
 10
229.4990713425
 20
2359.0457113606
 10
229.5634443589
 20
2359.2859478813
 10
229.6418840714
 20
2359.5786960941
 10
229.7313804455
 20
2359.9126907211
 10
229.8284764118
 20
2360.2751018625
 10
229.9294764824
 20
2360.6519820314
  0
LINE
  5
150
330
1F
100
AcDbEntity
  8
0
  6
Continuous
 62
     7
370
    15
100
AcDbLine
 10
249.885737402
 20
2350.1283349615
 30
0.0
 11
231.5331394501
 21
2355.0458969694
 31
0.0
  0
LWPOLYLINE
  5
151
330
1F
100
AcDbEntity
  8
0
  6
Continuous
 62
     7
370
    15
100
AcDbPolyline
 90
        9
 70
   128
 43
0.0
 10
254.0776128598
 20
2354.1815104109
 10
253.9766127892
 20
2353.8046153408
 10
253.8795168228
 20
2353.4422191006
 10
253.7900204487
 20
2353.1082244736
 10
253.7115807362
 20
2352.8154762608
 10
253.6472077198
 20
2352.5752248388
 10
253.5993749924
 20
2352.3967089277
 10
253.5699302979
 20
2352.2867681604
 10
253.5599763222
 20
2352.2496493679
  0
ARC
  5
152
330
1F
100
AcDbEntity
  8
0
  6
Continuous
 62
     7
370
    15
100
AcDbCircle
 10
250.6621976512
 20
2353.026109486
 30
0.0
 40
2.999999999999948
100
AcDbArc
 50
255.0
 51
345.0
  0
LWPOLYLINE
  5
153
330
1F
100
AcDbEntity
  8
0
  6
Continuous
 62
     7
370
    15
100
AcDbPolyline
 90
       17
 70
   128
 43
0.0
 10
312.2597033806
 20
2667.912621997
 10
313.3233184643
 20
2671.8820454699
 10
314.3794829674
 20
2675.8237751347
 10
315.3980369396
 20
2679.6250464541
 10
316.3719768353
 20
2683.2598569017
 10
317.2946865387
 20
2686.7034109455
 10
318.1598181553
 20
2689.9321498495
 10
318.9615006275
 20
2692.9240645987
 10
319.6942503281
 20
2695.6586660963
 10
320.3530306645
 20
2698.1173129898
 10
320.9333712883
 20
2700.2831967693
 10
321.4313084908
 20
2702.1415205818
 10
321.8434448071
 20
2703.6795886379
 10
322.1669490166
 20
2704.886895619
 10
322.3995859452
 20
2705.7552011829
 10
322.5398356743
 20
2706.2785746676
 10
322.5866849251
 20
2706.453424893
  0
LWPOLYLINE
  5
154
330
1F
100
AcDbEntity
  8
0
  6
Continuous
 62
     7
370
    15
100
AcDbPolyline
 90
       16
 70
   128
 43
0.0
 10
346.7348213024
 20
2699.9829532724
 10
346.6879720516
 20
2699.808103047
 10
346.5477521248
 20
2699.2847295624
 10
346.3150853939
 20
2698.4164239985
 10
345.9915811844
 20
2697.2091170174
 10
345.5794448681
 20
2695.6710489613
 10
345.081537468
 20
2693.8127251488
 10
344.5011670418
 20
2691.6468413693
 10
343.8423867054
 20
2689.1881944758
 10
343.1096370049
 20
2686.4535780769
 10
342.307984335
 20
2683.461678229
 10
341.4428229161
 20
2680.2329244238
 10
340.5201430149
 20
2676.7893852812
 10
339.546173317
 20
2673.1545599323
 10
338.5276491471
 20
2669.3533035141
 10
338.1416196652
 20
2667.912621997
  0
LWPOLYLINE
  5
155
330
1F
100
AcDbEntity
  8
0
  6
Continuous
 62
     7
370
    15
100
AcDbPolyline
 90
       17
 70
   128
 43
0.0
 10
238.2116908856
 20
2391.5616097075
 10
238.2585401364
 20
2391.7364599329
 10
238.3987600632
 20
2392.2598334175
 10
238.6314267941
 20
2393.1281240803
 10
238.9549310036
 20
2394.3354459625
 10
239.3670375176
 20
2395.8735140186
 10
239.86497472
 20
2397.7318378311
 10
240.4453451462
 20
2399.8977216106
 10
241.1041254826
 20
2402.3563685041
 10
241.8368751831
 20
2405.0909700018
 10
242.638527853
 20
2408.0828698498
 10
243.503689272
 20
2411.3116236549
 10
244.4263691731
 20
2414.7551776987
 10
245.4003090687
 20
2418.3899881464
 10
246.418863041
 20
2422.1912594658
 10
247.4750573464
 20
2426.1329891306
 10
247.9518945046
 20
2427.9126273614
  0
LWPOLYLINE
  5
156
330
1F
100
AcDbEntity
  8
0
  6
Continuous
 62
     7
370
    15
100
AcDbPolyline
 90
       19
 70
   128
 43
0.0
 10
273.8338107891
 20
2427.9126273614
 10
273.8194162674
 20
2427.858931027
 10
272.7098162003
 20
2423.7178014737
 10
271.6231937237
 20
2419.66251751
 10
270.5669994183
 20
2415.7207729441
 10
269.5484752484
 20
2411.9195165258
 10
268.5745055504
 20
2408.284691177
 10
267.6518256493
 20
2404.8411520344
 10
266.7866940327
 20
2401.6123982292
 10
265.9850115605
 20
2398.6204983812
 10
265.2522618599
 20
2395.8858819824
 10
264.5934815235
 20
2393.4272350889
 10
264.0131408997
 20
2391.2613662106
 10
263.5152036972
 20
2389.4030423981
 10
263.1030673809
 20
2387.8649594408
 10
262.7795631714
 20
2386.6576524597
 10
262.5468964405
 20
2385.7893468958
 10
262.4066765137
 20
2385.2659883123
 10
262.3598272629
 20
2385.0911231857
  0
LWPOLYLINE
  5
157
330
1F
100
AcDbEntity
  8
0
  6
Continuous
 62
     7
370
    15
100
AcDbPolyline
 90
        9
 70
   128
 43
0.0
 10
1092.1029145546
 20
2730.8925809485
 10
1092.0019144841
 20
2731.2694611174
 10
1091.9048185177
 20
2731.6318573576
 10
1091.8153221436
 20
2731.9658519846
 10
1091.7368824311
 20
2732.2586001974
 10
1091.6725094147
 20
2732.4988516193
 10
1091.6246766873
 20
2732.6773675304
 10
1091.5952319928
 20
2732.7873082977
 10
1091.5852780171
 20
2732.8244270903
  0
ARC
  5
158
330
1F
100
AcDbEntity
  8
0
  6
Continuous
 62
     7
370
    15
100
AcDbCircle
 10
1094.4830488386
 20
2733.6008850439
 30
0.0
 40
3.000000000000121
100
AcDbArc
 50
105.0
 51
195.0
  0
ARC
  5
159
330
1F
100
AcDbEntity
  8
0
  6
Continuous
 62
     7
370
    15
100
AcDbCircle
 10
1112.8356395381
 20
2738.5184469008
 30
0.0
 40
3.000000000000501
100
AcDbArc
 50
15.0
 51
105.0
  0
LWPOLYLINE
  5
15A
330
1F
100
AcDbEntity
  8
0
  6
Continuous
 62
     7
370
    15
100
AcDbPolyline
 90
        9
 70
   128
 43
0.0
 10
1115.7334143944
 20
2739.2948987108
 10
1115.7433683701
 20
2739.2577799183
 10
1115.7728130646
 20
2739.1478540522
 10
1115.820645792
 20
2738.9693232399
 10
1115.8850188084
 20
2738.729071818
 10
1115.9634585209
 20
2738.4363385063
 10
1116.052954895
 20
2738.1023438793
 10
1116.1500806637
 20
2737.7399327379
 10
1116.251050932
 20
2737.363052569
  0
LINE
  5
15B
330
1F
100
AcDbEntity
  8
0
  6
Continuous
 62
     7
370
    15
100
AcDbLine
 10
1122.4119360276
 20
2702.7791859728
 30
0.0
 11
1104.059367878
 21
2697.8616239649
 31
0.0
  0
LINE
  5
15C
330
1F
100
AcDbEntity
  8
0
  6
Continuous
 62
     7
370
    15
100
AcDbLine
 10
1112.0591754742
 20
2741.4162280184
 30
0.0
 11
1093.7065775223
 21
2736.4986660105
 31
0.0
  0
LINE
  5
15D
330
1F
100
AcDbEntity
  8
0
  6
Continuous
 62
     7
370
    15
100
AcDbLine
 10
1116.251050932
 20
2737.363052569
 30
0.0
 11
1124.0156287976
 21
2708.3852710348
 31
0.0
  0
LWPOLYLINE
  5
15E
330
1F
100
AcDbEntity
  8
0
  6
Continuous
 62
     7
370
    15
100
AcDbPolyline
 90
        9
 70
   128
 43
0.0
 10
1124.0156287976
 20
2708.3852710348
 10
1124.1165990658
 20
2708.0083908659
 10
1124.2137248345
 20
2707.6459946257
 10
1124.3032212086
 20
2707.3119999987
 10
1124.3816609211
 20
2707.0192517859
 10
1124.4460339375
 20
2706.7790003639
 10
1124.4938666649
 20
2706.6004844528
 10
1124.5233113594
 20
2706.4905436855
 10
1124.5332653351
 20
2706.453424893
  0
ARC
  5
15F
330
1F
100
AcDbEntity
  8
0
  6
Continuous
 62
     7
370
    15
100
AcDbCircle
 10
1121.6354870716
 20
2705.676968807
 30
0.0
 40
3.000000000000121
100
AcDbArc
 50
285.0
 51
15.0
  0
LINE
  5
160
330
1F
100
AcDbEntity
  8
0
  6
Continuous
 62
     7
370
    15
100
AcDbLine
 10
1099.8674924202
 20
2701.9147994143
 30
0.0
 11
1092.1029145546
 21
2730.8925809485
 31
0.0
  0
LWPOLYLINE
  5
161
330
1F
100
AcDbEntity
  8
0
  6
Continuous
 62
     7
370
    15
100
AcDbPolyline
 90
        9
 70
   128
 43
0.0
 10
1100.3851289578
 20
2699.9829532724
 10
1100.3751749821
 20
2700.020072065
 10
1100.3457302876
 20
2700.1299979311
 10
1100.2978677578
 20
2700.3085287434
 10
1100.2334947415
 20
2700.5487801653
 10
1100.1550550289
 20
2700.8415283781
 10
1100.0655586548
 20
2701.1755081039
 10
1099.9684626885
 20
2701.5379192453
 10
1099.8674924202
 20
2701.9147994143
  0
ARC
  5
162
330
1F
100
AcDbEntity
  8
0
  6
Continuous
 62
     7
370
    15
100
AcDbCircle
 10
1103.2828963721
 20
2700.7594069501
 30
0.0
 40
3.000000000000238
100
AcDbArc
 50
195.0
 51
285.0
  0
LINE
  5
163
330
1F
100
AcDbEntity
  8
0
  6
Continuous
 62
     7
370
    15
100
AcDbLine
 10
1209.4259257145
 20
2389.6297486645
 30
0.0
 11
1217.1904737778
 21
2360.6519820314
 31
0.0
  0
ARC
  5
164
330
1F
100
AcDbEntity
  8
0
  6
Continuous
 62
     7
370
    15
100
AcDbCircle
 10
1206.010495775
 20
2390.7851494368
 30
0.0
 40
3.000000000000062
100
AcDbArc
 50
15.0
 51
105.0
  0
LWPOLYLINE
  5
165
330
1F
100
AcDbEntity
  8
0
  6
Continuous
 62
     7
370
    15
100
AcDbPolyline
 90
        9
 70
   128
 43
0.0
 10
1208.9082593746
 20
2391.5616097075
 10
1208.9182133503
 20
2391.5244909149
 10
1208.9476878472
 20
2391.4145501476
 10
1208.9955205746
 20
2391.2360342365
 10
1209.059893591
 20
2390.9957828146
 10
1209.1383333035
 20
2390.7030346018
 10
1209.2278296776
 20
2390.3690399748
 10
1209.3249256439
 20
2390.0066437346
 10
1209.4259257145
 20
2389.6297486645
  0
LINE
  5
166
330
1F
100
AcDbEntity
  8
0
  6
Continuous
 62
     7
370
    15
100
AcDbLine
 10
1205.2340502568
 20
2393.6829241138
 30
0.0
 11
1186.8814523049
 21
2388.7653621059
 31
0.0
  0
LINE
  5
167
330
1F
100
AcDbEntity
  8
0
  6
Continuous
 62
     7
370
    15
100
AcDbLine
 10
1215.5868108101
 20
2355.0458969694
 30
0.0
 11
1197.2342128582
 21
2350.1283349615
 31
0.0
  0
ARC
  5
168
330
1F
100
AcDbEntity
  8
0
  6
Continuous
 62
     7
370
    15
100
AcDbCircle
 10
1196.457752609
 20
2353.026109486
 30
0.0
 40
3.000000000000003
100
AcDbArc
 50
195.0
 51
285.0
  0
LWPOLYLINE
  5
169
330
1F
100
AcDbEntity
  8
0
  6
Continuous
 62
     7
370
    15
100
AcDbPolyline
 90
        9
 70
   128
 43
0.0
 10
1193.559973938
 20
2352.2496493679
 10
1193.5500199623
 20
2352.2867681604
 10
1193.5205752678
 20
2352.3967089277
 10
1193.4727425404
 20
2352.5752248388
 10
1193.408369524
 20
2352.8154762608
 10
1193.3299298115
 20
2353.1082244736
 10
1193.2404334374
 20
2353.4422191006
 10
1193.143337471
 20
2353.8046153408
 10
1193.0423374005
 20
2354.1815104109
  0
LWPOLYLINE
  5
16A
330
1F
100
AcDbEntity
  8
0
  6
Continuous
 62
     7
370
    15
100
AcDbPolyline
 90
        9
 70
   128
 43
0.0
 10
1185.2777595349
 20
2383.1592770439
 10
1185.1767892666
 20
2383.5361572128
 10
1185.079663498
 20
2383.8985683542
 10
1184.9901671238
 20
2384.2325629812
 10
1184.9117274113
 20
2384.525311194
 10
1184.8473543949
 20
2384.7655477148
 10
1184.7995216675
 20
2384.9440785271
 10
1184.770076973
 20
2385.0540043932
 10
1184.7601229973
 20
2385.0911231857
  0
ARC
  5
16B
330
1F
100
AcDbEntity
  8
0
  6
Continuous
 62
     7
370
    15
100
AcDbCircle
 10
1187.6579050755
 20
2385.8675875798
 30
0.0
 40
3.000000000000341
100
AcDbArc
 50
105.0
 51
195.0
  0
LINE
  5
16C
330
1F
100
AcDbEntity
  8
0
  6
Continuous
 62
     7
370
    15
100
AcDbLine
 10
1193.0423374005
 20
2354.1815104109
 30
0.0
 11
1185.2777595349
 21
2383.1592770439
 31
0.0
  0
LWPOLYLINE
  5
16D
330
1F
100
AcDbEntity
  8
0
  6
Continuous
 62
     7
370
    15
100
AcDbPolyline
 90
        9
 70
   128
 43
0.0
 10
1217.1904737778
 20
2360.6519820314
 10
1217.2914738484
 20
2360.2751018625
 10
1217.3885698147
 20
2359.9126907211
 10
1217.4780661888
 20
2359.5786960941
 10
1217.5565059014
 20
2359.2859478813
 10
1217.6208789177
 20
2359.0457113606
 10
1217.6687116452
 20
2358.8671805483
 10
1217.698186142
 20
2358.7572546822
 10
1217.7081103154
 20
2358.7201358896
  0
ARC
  5
16E
330
1F
100
AcDbEntity
  8
0
  6
Continuous
 62
     7
370
    15
100
AcDbCircle
 10
1214.8103433085
 20
2357.9436713429
 30
0.0
 40
2.999999999999901
100
AcDbArc
 50
285.0
 51
15.0
  0
LWPOLYLINE
  5
16F
330
1F
100
AcDbEntity
  8
0
  6
Continuous
 62
     7
370
    15
100
AcDbPolyline
 90
       17
 70
   128
 43
0.0
 10
1124.5332653351
 20
2706.453424893
 10
1124.5801145859
 20
2706.2785746676
 10
1124.7203643151
 20
2705.7552011829
 10
1124.9530012436
 20
2704.886895619
 10
1125.2765054531
 20
2703.6795886379
 10
1125.6886417694
 20
2702.1415205818
 10
1126.1865789719
 20
2700.2831967693
 10
1126.7669195957
 20
2698.1173129898
 10
1127.4256999321
 20
2695.6586660963
 10
1128.1584496327
 20
2692.9240645987
 10
1128.9601321049
 20
2689.9321498495
 10
1129.8252637215
 20
2686.7034109455
 10
1130.7479734249
 20
2683.2598569017
 10
1131.7219133206
 20
2679.6250464541
 10
1132.7404672928
 20
2675.8237751347
 10
1133.7966317959
 20
2671.8820454699
 10
1134.8602468796
 20
2667.912621997
  0
LWPOLYLINE
  5
170
330
1F
100
AcDbEntity
  8
0
  6
Continuous
 62
     7
370
    15
100
AcDbPolyline
 90
       16
 70
   128
 43
0.0
 10
1108.978330595
 20
2667.912621997
 10
1108.5923011132
 20
2669.3533035141
 10
1107.5737769432
 20
2673.1545599323
 10
1106.5998072453
 20
2676.7893852812
 10
1105.6771273442
 20
2680.2329244238
 10
1104.8119659252
 20
2683.461678229
 10
1104.0103132553
 20
2686.4535780769
 10
1103.2775635548
 20
2689.1881944758
 10
1102.6187832184
 20
2691.6468413693
 10
1102.0384127922
 20
2693.8127251488
 10
1101.5405053921
 20
2695.6710489613
 10
1101.1283690758
 20
2697.2091170174
 10
1100.8048648663
 20
2698.4164239985
 10
1100.5721981354
 20
2699.2847295624
 10
1100.4319782086
 20
2699.808103047
 10
1100.3851289578
 20
2699.9829532724
  0
LWPOLYLINE
  5
171
330
1F
100
AcDbEntity
  8
0
  6
Continuous
 62
     7
370
    15
100
AcDbPolyline
 90
       17
 70
   128
 43
0.0
 10
1199.1680557556
 20
2427.9126273614
 10
1199.6448929138
 20
2426.1329891306
 10
1200.7010872193
 20
2422.1912594658
 10
1201.7196411915
 20
2418.3899881464
 10
1202.6935810871
 20
2414.7551776987
 10
1203.6162609883
 20
2411.3116236549
 10
1204.4814224072
 20
2408.0828698498
 10
1205.2830750771
 20
2405.0909700018
 10
1206.0158247776
 20
2402.3563685041
 10
1206.674605114
 20
2399.8977216106
 10
1207.2549755402
 20
2397.7318378311
 10
1207.7529127426
 20
2395.8735140186
 10
1208.1650192566
 20
2394.3354459625
 10
1208.4885234661
 20
2393.1281240803
 10
1208.721190197
 20
2392.2598334175
 10
1208.8614101239
 20
2391.7364599329
 10
1208.9082593746
 20
2391.5616097075
  0
LWPOLYLINE
  5
172
330
1F
100
AcDbEntity
  8
0
  6
Continuous
 62
     7
370
    15
100
AcDbPolyline
 90
       19
 70
   128
 43
0.0
 10
1184.7601229973
 20
2385.0911231857
 10
1184.7132737465
 20
2385.2659883123
 10
1184.5730538197
 20
2385.7893468958
 10
1184.3403870888
 20
2386.6576524597
 10
1184.0168828793
 20
2387.8649594408
 10
1183.604746563
 20
2389.4030423981
 10
1183.1068093605
 20
2391.2613662106
 10
1182.5264687367
 20
2393.4272350889
 10
1181.8676884003
 20
2395.8858819824
 10
1181.1349386998
 20
2398.6204983812
 10
1180.3332562275
 20
2401.6123982292
 10
1179.4681246109
 20
2404.8411520344
 10
1178.5454447098
 20
2408.284691177
 10
1177.5714750119
 20
2411.9195165258
 10
1176.5529508419
 20
2415.7207729441
 10
1175.4967565365
 20
2419.66251751
 10
1174.4101340599
 20
2423.7178014737
 10
1173.3005339928
 20
2427.858931027
 10
1173.2861394711
 20
2427.9126273614
  0
ARC
  5
173
330
1F
100
AcDbEntity
  8
0
  6
Continuous
 62
     7
370
    15
100
AcDbCircle
 10
1298.5599751301
 20
2442.9126246792
 30
0.0
 40
15.00000000000023
100
AcDbArc
 50
270.0
 51
0.0
  0
LINE
  5
174
330
1F
100
AcDbEntity
  8
0
  6
Continuous
 62
     7
370
    15
100
AcDbLine
 10
148.559987051
 20
2427.9126273614
 30
0.0
 11
1298.5599632092
 21
2427.9126273614
 31
0.0
  0
ARC
  5
175
330
1F
100
AcDbEntity
  8
0
  6
Continuous
 62
     7
370
    15
100
AcDbCircle
 10
148.5599751301
 20
2442.9126246792
 30
0.0
 40
15.0
100
AcDbArc
 50
180.0
 51
270.0
  0
LINE
  5
176
330
1F
100
AcDbEntity
  8
0
  6
Continuous
 62
     7
370
    15
100
AcDbLine
 10
1298.5599632092
 20
2667.912621997
 30
0.0
 11
148.559987051
 21
2667.912621997
 31
0.0
  0
ARC
  5
177
330
1F
100
AcDbEntity
  8
0
  6
Continuous
 62
     7
370
    15
100
AcDbCircle
 10
148.5599751301
 20
2652.9126246792
 30
0.0
 40
15.0
100
AcDbArc
 50
90.0
 51
180.0
  0
LINE
  5
178
330
1F
100
AcDbEntity
  8
0
  6
Continuous
 62
     7
370
    15
100
AcDbLine
 10
133.5600013562
 20
2652.9126214009
 30
0.0
 11
133.5600013562
 21
2442.9126279574
 31
0.0
  0
LINE
  5
179
330
1F
100
AcDbEntity
  8
0
  6
Continuous
 62
     7
370
    15
100
AcDbLine
 10
1313.5599489041
 20
2442.9126279574
 30
0.0
 11
1313.5599489041
 21
2652.9126214009
 31
0.0
  0
ARC
  5
17A
330
1F
100
AcDbEntity
  8
0
  6
Continuous
 62
     7
370
    15
100
AcDbCircle
 10
1298.5599751301
 20
2652.9126246792
 30
0.0
 40
15.0
100
AcDbArc
 50
360.0
 51
90.0
  0
SPLINE
  5
17B
330
1F
100
AcDbEntity
  8
0
  6
Continuous
 62
     7
370
    15
100
AcDbSpline
210
0.0
220
0.0
230
1.0
 70
     8
 71
     3
 72
     9
 73
     5
 74
     0
 42
0.000000001
 43
0.00000001
 40
0.0
 40
0.0
 40
0.0
 40
0.0
 40
0.2139894810823497
 40
1.0
 40
1.0
 40
1.0
 40
1.0
 10
1956.215572489852
 20
1514.466107707261
 30
0.0
 10
1956.148497675943
 20
1514.431049004809
 30
0.0
 10
1955.835048558863
 20
1514.267215239361
 30
0.0
 10
1955.50465962874
 20
1514.143162948515
 30
0.0
 10
1955.24497045433
 20
1514.045656543015
 30
0.0
  0
SPLINE
  5
17C
330
1F
100
AcDbEntity
  8
0
  6
Continuous
 62
     7
370
    15
100
AcDbSpline
210
0.0
220
0.0
230
1.0
 70
     8
 71
     3
 72
     9
 73
     5
 74
     0
 42
0.000000001
 43
0.00000001
 40
0.0
 40
0.0
 40
0.0
 40
0.0
 40
0.2139894810823497
 40
1.0
 40
1.0
 40
1.0
 40
1.0
 10
1956.215572489852
 20
1889.466107707261
 30
0.0
 10
1956.148497675943
 20
1889.431049004809
 30
0.0
 10
1955.835048558863
 20
1889.267215239361
 30
0.0
 10
1955.50465962874
 20
1889.143162948515
 30
0.0
 10
1955.24497045433
 20
1889.045656543015
 30
0.0
  0
SPLINE
  5
17D
330
1F
100
AcDbEntity
  8
0
  6
Continuous
 62
     7
370
    15
100
AcDbSpline
210
0.0
220
0.0
230
1.0
 70
     8
 71
     3
 72
     9
 73
     5
 74
     0
 42
0.000000001
 43
0.00000001
 40
0.0
 40
0.0
 40
0.0
 40
0.0
 40
0.2139708164394545
 40
1.0
 40
1.0
 40
1.0
 40
1.0
 10
1956.215572489852
 20
389.4661058446154
 30
0.0
 10
1956.148496825338
 20
389.4310683589698
 30
0.0
 10
1955.83501639081
 20
389.2673194598041
 30
0.0
 10
1955.504648924303
 20
389.1432400954909
 30
0.0
 10
1955.24497045433
 20
389.045710094063
 30
0.0
  0
SPLINE
  5
17E
330
1F
100
AcDbEntity
  8
0
  6
Continuous
 62
     7
370
    15
100
AcDbSpline
210
0.0
220
0.0
230
1.0
 70
     8
 71
     3
 72
     9
 73
     5
 74
     0
 42
0.000000001
 43
0.00000001
 40
0.0
 40
0.0
 40
0.0
 40
0.0
 40
0.2139705749749108
 40
1.0
 40
1.0
 40
1.0
 40
1.0
 10
1956.215572489852
 20
1139.466107707261
 30
0.0
 10
1956.148496814335
 20
1139.431070706236
 30
0.0
 10
1955.835015974623
 20
1139.267323887175
 30
0.0
 10
1955.504648785804
 20
1139.143245450162
 30
0.0
 10
1955.24497045433
 20
1139.04571614766
 30
0.0
  0
SPLINE
  5
17F
330
1F
100
AcDbEntity
  8
0
  6
Continuous
 62
     7
370
    15
100
AcDbSpline
210
0.0
220
0.0
230
1.0
 70
     8
 71
     3
 72
     9
 73
     5
 74
     0
 42
0.000000001
 43
0.00000001
 40
0.0
 40
0.0
 40
0.0
 40
0.0
 40
0.2139705749749108
 40
1.0
 40
1.0
 40
1.0
 40
1.0
 10
1956.215572489852
 20
764.4661077072606
 30
0.0
 10
1956.148496814335
 20
764.4310707062358
 30
0.0
 10
1955.835015974623
 20
764.2673238871748
 30
0.0
 10
1955.504648785804
 20
764.1432454501625
 30
0.0
 10
1955.24497045433
 20
764.0457161476597
 30
0.0
  0
LINE
  5
180
330
1F
100
AcDbEntity
  8
0
  6
Continuous
 62
     7
370
    15
100
AcDbLine
 10
1709.8321886197
 20
1514.1549714615
 30
0.0
 11
1709.1281013027
 21
1514.4624122193
 31
0.0
  0
LINE
  5
181
330
1F
100
AcDbEntity
  8
0
  6
Continuous
 62
     7
370
    15
100
AcDbLine
 10
1709.8321886197
 20
1139.1549714615
 30
0.0
 11
1709.1281013027
 21
1139.4623526146
 31
0.0
  0
LINE
  5
182
330
1F
100
AcDbEntity
  8
0
  6
Continuous
 62
     7
370
    15
100
AcDbLine
 10
1709.8321886197
 20
764.1549714615
 30
0.0
 11
1709.1281013027
 21
764.4623526146
 31
0.0
  0
LINE
  5
183
330
1F
100
AcDbEntity
  8
0
  6
Continuous
 62
     7
370
    15
100
AcDbLine
 10
1709.8321886197
 20
1889.1549714615
 30
0.0
 11
1709.1281013027
 21
1889.4624122193
 31
0.0
  0
LINE
  5
184
330
1F
100
AcDbEntity
  8
0
  6
Continuous
 62
     7
370
    15
100
AcDbLine
 10
1709.8321886197
 20
389.154985897
 30
0.0
 11
1709.1281013027
 21
389.4623544773
 31
0.0
  0
SPLINE
  5
185
330
1F
100
AcDbEntity
  8
0
  6
Continuous
 62
     7
370
    15
100
AcDbSpline
210
0.0
220
0.0
230
1.0
 70
     8
 71
     3
 72
    14
 73
    10
 74
     0
 42
0.000000001
 43
0.00000001
 40
0.0
 40
0.0
 40
0.0
 40
0.0
 40
0.1324321634528353
 40
0.2915094107420072
 40
0.450361238800475
 40
0.6093428415365536
 40
0.7688696110193323
 40
0.9292232259821015
 40
1.0
 40
1.0
 40
1.0
 40
1.0
 10
1675.729115440006
 20
115.0535651257023
 30
0.0
 10
1676.072344096296
 20
115.0748663886815
 30
0.0
 10
1676.827858321362
 20
115.1217546857328
 30
0.0
 10
1677.939741789648
 20
115.5285461196292
 30
0.0
 10
1678.976374849325
 20
116.2201067900599
 30
0.0
 10
1679.811057020281
 20
117.1545240254154
 30
0.0
 10
1680.389260663007
 20
118.2683629639144
 30
0.0
 10
1680.63493340612
 20
119.268180284534
 30
0.0
 10
1680.654864392559
 20
119.8694647593459
 30
0.0
 10
1680.660967661495
 20
120.0535901596531
 30
0.0
  0
SPLINE
  5
186
330
1F
100
AcDbEntity
  8
0
  6
Continuous
 62
     7
370
    15
100
AcDbSpline
210
0.0
220
0.0
230
1.0
 70
     8
 71
     3
 72
    14
 73
    10
 74
     0
 42
0.000000001
 43
0.00000001
 40
0.0
 40
0.0
 40
0.0
 40
0.0
 40
0.1282348158999156
 40
0.2902532801302414
 40
0.4527555111005935
 40
0.6151372997839555
 40
0.7769644586363189
 40
0.9379438836668668
 40
1.0
 40
1.0
 40
1.0
 40
1.0
 10
1680.660967661495
 20
2110.053599696396
 30
0.0
 10
1680.641562709598
 20
2110.387598662453
 30
0.0
 10
1680.597640543069
 20
2111.143589106841
 30
0.0
 10
1680.20530997
 20
2112.271997737264
 30
0.0
 10
1679.514617534143
 20
2113.34403668621
 30
0.0
 10
1678.572191681529
 20
2114.206210927286
 30
0.0
 10
1677.44891846135
 20
2114.795537449176
 30
0.0
 10
1676.466768527121
 20
2115.031197340057
 30
0.0
 10
1675.889680944298
 20
2115.048719628144
 30
0.0
 10
1675.729115440006
 20
2115.053594928025
 30
0.0
  0
LINE
  5
187
330
1F
100
AcDbEntity
  8
0
  6
Continuous
 62
     7
370
    15
100
AcDbLine
 10
1680.6609676615
 20
1185.0535877755
 30
0.0
 11
1680.6609676615
 21
1420.0535424759
 31
0.0
  0
LINE
  5
188
330
1F
100
AcDbEntity
  8
0
  6
Continuous
 62
     7
370
    15
100
AcDbLine
 10
1680.6609676615
 20
120.0535901597
 30
0.0
 11
1680.6609676615
 21
295.0535722783
 31
0.0
  0
LINE
  5
189
330
1F
100
AcDbEntity
  8
0
  6
Continuous
 62
     7
370
    15
100
AcDbLine
 10
1680.6609676615
 20
435.0535765996
 30
0.0
 11
1680.6609676615
 21
670.0535722783
 31
0.0
  0
SPLINE
  5
18A
330
1F
100
AcDbEntity
  8
0
  6
Continuous
 62
     7
370
    15
100
AcDbSpline
210
0.0
220
0.0
230
1.0
 70
     8
 71
     3
 72
    23
 73
    19
 74
     0
 42
0.000000001
 43
0.00000001
 40
0.0
 40
0.0
 40
0.0
 40
0.0
 40
0.0077778534930855
 40
0.0774914678978798
 40
0.1471897324419965
 40
0.2168704034909026
 40
0.2865332353643574
 40
0.3561782257801081
 40
0.4258045303432849
 40
0.4954135402032595
 40
0.5650064127340536
 40
0.6345843932426324
 40
0.70414851356622
 40
0.7737015887457562
 40
0.8432440806629239
 40
0.9127781662542206
 40
0.9823077562304018
 40
1.0
 40
1.0
 40
1.0
 40
1.0
 10
1708.807338906879
 20
1139.602363925217
 30
0.0
 10
1708.675847352515
 20
1139.659201012652
 30
0.0
 10
1707.365784933253
 20
1140.225474129043
 30
0.0
 10
1704.994698791435
 20
1141.574108289922
 30
0.0
 10
1701.730768041871
 20
1143.654833407448
 30
0.0
 10
1698.650582117446
 20
1146.026375901841
 30
0.0
 10
1695.758063829956
 20
1148.636320770812
 30
0.0
 10
1693.075661288193
 20
1151.478174956723
 30
0.0
 10
1690.619086869378
 20
1154.531175316228
 30
0.0
 10
1688.404130138806
 20
1157.776771584624
 30
0.0
 10
1686.444645483838
 20
1161.194230972336
 30
0.0
 10
1684.7529434734
 20
1164.762003111273
 30
0.0
 10
1683.339602024686
 20
1168.457562747188
 30
0.0
 10
1682.213689732853
 20
1172.257545680552
 30
0.0
 10
1681.381436017963
 20
1176.138048445439
 30
0.0
 10
1680.851103947923
 20
1180.074362198895
 30
0.0
 10
1680.673215115025
 20
1183.056501036828
 30
0.0
 10
1680.663033017627
 20
1184.716807943382
 30
0.0
 10
1680.660967661495
 20
1185.053587775467
 30
0.0
  0
SPLINE
  5
18B
330
1F
100
AcDbEntity
  8
0
  6
Continuous
 62
     7
370
    15
100
AcDbSpline
210
0.0
220
0.0
230
1.0
 70
     8
 71
     3
 72
    23
 73
    19
 74
     0
 42
0.000000001
 43
0.00000001
 40
0.0
 40
0.0
 40
0.0
 40
0.0
 40
0.0347586950875756
 40
0.1025950900548915
 40
0.1704442528855059
 40
0.2382944447571057
 40
0.3061480844285953
 40
0.3740072705396411
 40
0.4418742447845876
 40
0.5097506996098635
 40
0.5776395396942625
 40
0.6455414797266746
 40
0.7134594402719389
 40
0.7813939156819463
 40
0.8493462566617281
 40
0.9173170228811951
 40
0.9853062235653721
 40
1.0
 40
1.0
 40
1.0
 40
1.0
 10
1680.660967661495
 20
670.0535722782597
 30
0.0
 10
1680.669003911978
 20
670.7315695765883
 30
0.0
 10
1680.692724015394
 20
672.7327722599382
 30
0.0
 10
1680.960335503296
 20
676.050336767177
 30
0.0
 10
1681.566705713826
 20
679.9736037329691
 30
0.0
 10
1682.475257670173
 20
683.8345525171297
 30
0.0
 10
1683.675086219172
 20
687.6084638084054
 30
0.0
 10
1685.160002632399
 20
691.271634412333
 30
0.0
 10
1686.920212290778
 20
694.80102351927
 30
0.0
 10
1688.94481912657
 20
698.1744016624309
 30
0.0
 10
1691.220933960931
 20
701.3706451278516
 30
0.0
 10
1693.73446681261
 20
704.369408819989
 30
0.0
 10
1696.469261037942
 20
707.1524934873037
 30
0.0
 10
1699.409126265451
 20
709.7000264865356
 30
0.0
 10
1702.532275676791
 20
712.0044425398711
 30
0.0
 10
1705.831421129021
 20
714.0195672322778
 30
0.0
 10
1708.348919037276
 20
715.3719019344884
 30
0.0
 10
1709.79435634766
 20
715.9573946827882
 30
0.0
 10
1710.051228238696
 20
716.0614439060673
 30
0.0
  0
SPLINE
  5
18C
330
1F
100
AcDbEntity
  8
0
  6
Continuous
 62
     7
370
    15
100
AcDbSpline
210
0.0
220
0.0
230
1.0
 70
     8
 71
     3
 72
    23
 73
    19
 74
     0
 42
0.000000001
 43
0.00000001
 40
0.0
 40
0.0
 40
0.0
 40
0.0
 40
0.0347586975428481
 40
0.1025952242157257
 40
0.1704441404429972
 40
0.238294337107375
 40
0.3061478606778961
 40
0.3740071689192014
 40
0.4418741479581115
 40
0.5097508776465278
 40
0.5776394155201089
 40
0.6455416483443913
 40
0.7134593465133364
 40
0.781393867500815
 40
0.8493461765078633
 40
0.9173170451362771
 40
0.9853062225274384
 40
1.0
 40
1.0
 40
1.0
 40
1.0
 10
1680.660967661495
 20
295.0535722782597
 30
0.0
 10
1680.669003972795
 20
295.7315695687166
 30
0.0
 10
1680.692724285062
 20
297.7327747043905
 30
0.0
 10
1680.960333517303
 20
301.0503370831046
 30
0.0
 10
1681.566707913544
 20
304.9736008066355
 30
0.0
 10
1682.475255739592
 20
308.8345432675785
 30
0.0
 10
1683.675089885778
 20
312.6084523440498
 30
0.0
 10
1685.159999324185
 20
316.2716262214972
 30
0.0
 10
1686.920219383745
 20
319.801017502758
 30
0.0
 10
1688.944804877508
 20
323.1744096687179
 30
0.0
 10
1691.220950547819
 20
326.3706348270833
 30
0.0
 10
1693.734450382728
 20
329.3694210726284
 30
0.0
 10
1696.469271589312
 20
332.1524796526372
 30
0.0
 10
1699.409121939316
 20
334.7000221549445
 30
0.0
 10
1702.532280856035
 20
337.0044279051151
 30
0.0
 10
1705.831416330373
 20
339.01957089616
 30
0.0
 10
1708.348919701906
 20
340.3718980807361
 30
0.0
 10
1709.794356373836
 20
340.9573909080927
 30
0.0
 10
1710.051228238696
 20
341.061440180777
 30
0.0
  0
SPLINE
  5
18D
330
1F
100
AcDbEntity
  8
0
  6
Continuous
 62
     7
370
    15
100
AcDbSpline
210
0.0
220
0.0
230
1.0
 70
     8
 71
     3
 72
    23
 73
    19
 74
     0
 42
0.000000001
 43
0.00000001
 40
0.0
 40
0.0
 40
0.0
 40
0.0
 40
0.0077776913897712
 40
0.0774913316065852
 40
0.1471893905641709
 40
0.2168701961361912
 40
0.2865331853565546
 40
0.3561779031093611
 40
0.4258045011823574
 40
0.4954136889542724
 40
0.5650065797794722
 40
0.6345844908099784
 40
0.7041488112791624
 40
0.7737014059965733
 40
0.8432440435400042
 40
0.9127787287987813
 40
0.9823074254284409
 40
1.0
 40
1.0
 40
1.0
 40
1.0
 10
1708.807338906879
 20
389.6023853456363
 30
0.0
 10
1708.675847193752
 20
389.659213974035
 30
0.0
 10
1707.365758192429
 20
390.2254136170022
 30
0.0
 10
1704.994717178071
 20
391.5741371126001
 30
0.0
 10
1701.730755257005
 20
393.654795976673
 30
0.0
 10
1698.650582030644
 20
396.0263636617937
 30
0.0
 10
1695.758075609479
 20
398.6363181341886
 30
0.0
 10
1693.075646829609
 20
401.4781497048199
 30
0.0
 10
1690.619091060006
 20
404.5311708792566
 30
0.0
 10
1688.404131909916
 20
407.7767746427618
 30
0.0
 10
1686.444647425885
 20
411.1942356439262
 30
0.0
 10
1684.75293862126
 20
414.7620066120969
 30
0.0
 10
1683.339610771405
 20
418.457563360563
 30
0.0
 10
1682.213683380726
 20
422.2575373941111
 30
0.0
 10
1681.381433978059
 20
426.1380459358226
 30
0.0
 10
1680.851109376388
 20
430.0743564856812
 30
0.0
 10
1680.673214196773
 20
433.0564947678436
 30
0.0
 10
1680.663032905954
 20
434.7167905541176
 30
0.0
 10
1680.660967661495
 20
435.0535765995965
 30
0.0
  0
SPLINE
  5
18E
330
1F
100
AcDbEntity
  8
0
  6
Continuous
 62
     7
370
    15
100
AcDbSpline
210
0.0
220
0.0
230
1.0
 70
     8
 71
     3
 72
    23
 73
    19
 74
     0
 42
0.000000001
 43
0.00000001
 40
0.0
 40
0.0
 40
0.0
 40
0.0
 40
0.0077774554406144
 40
0.0774916024469238
 40
0.1471893693218848
 40
0.2168700938447994
 40
0.2865329791785727
 40
0.3561787679325515
 40
0.4258043253308471
 40
0.4954150911619792
 40
0.5650071205348736
 40
0.6345851544386546
 40
0.7041502980614932
 40
0.7737014316338714
 40
0.8432439769190067
 40
0.9127801830325112
 40
0.9823077426531043
 40
1.0
 40
1.0
 40
1.0
 40
1.0
 10
1708.807338906879
 20
1889.602363925217
 30
0.0
 10
1708.675846903289
 20
1889.659180073256
 30
0.0
 10
1707.365710683936
 20
1890.225274522789
 30
0.0
 10
1704.994760866315
 20
1891.574198502472
 30
0.0
 10
1701.730739657437
 20
1893.654740557551
 30
0.0
 10
1698.65059114875
 20
1896.026330336489
 30
0.0
 10
1695.758037656628
 20
1898.636253800895
 30
0.0
 10
1693.075707218627
 20
1901.478177757434
 30
0.0
 10
1690.619023387228
 20
1904.531125166994
 30
0.0
 10
1688.404187911717
 20
1907.776812979744
 30
0.0
 10
1686.444624754334
 20
1911.194236442868
 30
0.0
 10
1684.752930289486
 20
1914.762018881374
 30
0.0
 10
1683.339637786534
 20
1918.45757514838
 30
0.0
 10
1682.213668810776
 20
1922.257518701412
 30
0.0
 10
1681.381426177673
 20
1926.13802782368
 30
0.0
 10
1680.851119565432
 20
1930.074343911823
 30
0.0
 10
1680.673213867272
 20
1933.056481026145
 30
0.0
 10
1680.663032848229
 20
1934.716748326859
 30
0.0
 10
1680.660967661495
 20
1935.053528170823
 30
0.0
  0
SPLINE
  5
18F
330
1F
100
AcDbEntity
  8
0
  6
Continuous
 62
     7
370
    15
100
AcDbSpline
210
0.0
220
0.0
230
1.0
 70
     8
 71
     3
 72
    23
 73
    19
 74
     0
 42
0.000000001
 43
0.00000001
 40
0.0
 40
0.0
 40
0.0
 40
0.0
 40
0.0347582152509644
 40
0.1025946675263854
 40
0.1704433848834297
 40
0.2382941288237879
 40
0.3061473422417575
 40
0.3740070550281264
 40
0.4418736344517973
 40
0.509751010840385
 40
0.577639089594716
 40
0.6455414709850248
 40
0.7134594889073007
 40
0.7813936954793687
 40
0.8493460938652067
 40
0.9173171777944494
 40
0.9853062111520874
 40
1.0
 40
1.0
 40
1.0
 40
1.0
 10
1680.660967661495
 20
1045.053602080582
 30
0.0
 10
1680.669004160324
 20
1045.731589421585
 30
0.0
 10
1680.69272522654
 20
1047.732782098914
 30
0.0
 10
1680.960331690583
 20
1051.050327621753
 30
0.0
 10
1681.566714854775
 20
1054.97359157978
 30
0.0
 10
1682.475245039933
 20
1058.834536735666
 30
0.0
 10
1683.675102203478
 20
1062.608447245399
 30
0.0
 10
1685.159982821466
 20
1066.271624760464
 30
0.0
 10
1686.920242475422
 20
1069.801004709967
 30
0.0
 10
1688.944779132973
 20
1073.174420081226
 30
0.0
 10
1691.220965892221
 20
1076.370619740866
 30
0.0
 10
1693.734454523711
 20
1079.369409092442
 30
0.0
 10
1696.469254089739
 20
1082.15249290112
 30
0.0
 10
1699.409134112287
 20
1084.69999751378
 30
0.0
 10
1702.53228449086
 20
1087.004406234922
 30
0.0
 10
1705.831403862152
 20
1089.019580823808
 30
0.0
 10
1708.348923827212
 20
1090.371871969635
 30
0.0
 10
1709.794356477535
 20
1090.957364615775
 30
0.0
 10
1710.051228238696
 20
1091.061414103745
 30
0.0
  0
SPLINE
  5
190
330
1F
100
AcDbEntity
  8
0
  6
Continuous
 62
     7
370
    15
100
AcDbSpline
210
0.0
220
0.0
230
1.0
 70
     8
 71
     3
 72
    23
 73
    19
 74
     0
 42
0.000000001
 43
0.00000001
 40
0.0
 40
0.0
 40
0.0
 40
0.0
 40
0.0077776524978867
 40
0.0774912761365919
 40
0.1471892743330195
 40
0.2168702644938986
 40
0.2865331055945379
 40
0.3561777327924238
 40
0.4258044468786918
 40
0.4954134659587219
 40
0.5650063477074341
 40
0.6345843374319584
 40
0.7041484669696556
 40
0.7737010526158344
 40
0.8432440631246559
 40
0.912778674715815
 40
0.9823072320453381
 40
1.0
 40
1.0
 40
1.0
 40
1.0
 10
1708.807338906879
 20
764.6023937275395
 30
0.0
 10
1708.67584715656
 20
764.6592204038443
 30
0.0
 10
1707.365752171425
 20
765.2254030234277
 30
0.0
 10
1704.994722009949
 20
766.5741470237218
 30
0.0
 10
1701.730746445832
 20
768.6547868669588
 30
0.0
 10
1698.650591975186
 20
771.0263819079188
 30
0.0
 10
1695.758073503673
 20
773.6363194107554
 30
0.0
 10
1693.075641892628
 20
776.4781470346926
 30
0.0
 10
1690.619097736008
 20
779.5311749517633
 30
0.0
 10
1688.404128308888
 20
782.7767699983143
 30
0.0
 10
1686.444646184842
 20
786.1942314625206
 30
0.0
 10
1684.752942499001
 20
789.7620027364392
 30
0.0
 10
1683.339608598231
 20
793.457554924443
 30
0.0
 10
1682.213680216833
 20
797.257533005379
 30
0.0
 10
1681.38143705669
 20
801.1380490970705
 30
0.0
 10
1680.851109077535
 20
805.0743625786572
 30
0.0
 10
1680.673213917435
 20
808.0565009740004
 30
0.0
 10
1680.663032876548
 20
809.7167980051622
 30
0.0
 10
1680.660967661495
 20
810.0535877754673
 30
0.0
  0
LINE
  5
191
330
1F
100
AcDbEntity
  8
0
  6
Continuous
 62
     7
370
    15
100
AcDbLine
 10
1680.6609676615
 20
1935.0535281708
 30
0.0
 11
1680.6609676615
 21
2110.0535996964
 31
0.0
  0
LINE
  5
192
330
1F
100
AcDbEntity
  8
0
  6
Continuous
 62
     7
370
    15
100
AcDbLine
 10
1680.6609676615
 20
810.0535877755
 30
0.0
 11
1680.6609676615
 21
1045.0536020806
 31
0.0
  0
SPLINE
  5
193
330
1F
100
AcDbEntity
  8
0
  6
Continuous
 62
     7
370
    15
100
AcDbSpline
210
0.0
220
0.0
230
1.0
 70
     8
 71
     3
 72
    23
 73
    19
 74
     0
 42
0.000000001
 43
0.00000001
 40
0.0
 40
0.0
 40
0.0
 40
0.0
 40
0.0077774554406144
 40
0.0774916024469238
 40
0.1471893693218848
 40
0.2168700938447994
 40
0.2865329791785727
 40
0.3561787679325515
 40
0.4258043253308471
 40
0.4954150911619792
 40
0.5650071205348736
 40
0.6345851544386546
 40
0.7041502980614932
 40
0.7737014316338714
 40
0.8432439769190067
 40
0.9127801830325112
 40
0.9823077426531043
 40
1.0
 40
1.0
 40
1.0
 40
1.0
 10
1708.807338906879
 20
1514.602363925217
 30
0.0
 10
1708.675846903289
 20
1514.659180073256
 30
0.0
 10
1707.365710683936
 20
1515.22527452279
 30
0.0
 10
1704.994760866315
 20
1516.574198502472
 30
0.0
 10
1701.730739657437
 20
1518.654740557552
 30
0.0
 10
1698.65059114875
 20
1521.026330336488
 30
0.0
 10
1695.758037656628
 20
1523.636253800895
 30
0.0
 10
1693.075707218627
 20
1526.478177757434
 30
0.0
 10
1690.619023387228
 20
1529.531125166993
 30
0.0
 10
1688.404187911717
 20
1532.776812979745
 30
0.0
 10
1686.444624754334
 20
1536.194236442868
 30
0.0
 10
1684.752930289486
 20
1539.762018881374
 30
0.0
 10
1683.339637786534
 20
1543.457575148379
 30
0.0
 10
1682.213668810776
 20
1547.257518701412
 30
0.0
 10
1681.381426177673
 20
1551.13802782368
 30
0.0
 10
1680.851119565432
 20
1555.074343911824
 30
0.0
 10
1680.673213867272
 20
1558.056481026144
 30
0.0
 10
1680.663032848229
 20
1559.716748326859
 30
0.0
 10
1680.660967661495
 20
1560.053528170823
 30
0.0
  0
LINE
  5
194
330
1F
100
AcDbEntity
  8
0
  6
Continuous
 62
     7
370
    15
100
AcDbLine
 10
1680.6609676615
 20
1560.0535281708
 30
0.0
 11
1680.6609676615
 21
1795.0535424759
 31
0.0
  0
SPLINE
  5
195
330
1F
100
AcDbEntity
  8
0
  6
Continuous
 62
     7
370
    15
100
AcDbSpline
210
0.0
220
0.0
230
1.0
 70
     8
 71
     3
 72
    23
 73
    19
 74
     0
 42
0.000000001
 43
0.00000001
 40
0.0
 40
0.0
 40
0.0
 40
0.0
 40
0.0347581789320948
 40
0.1025955756350205
 40
0.1704452276808888
 40
0.2382949112272381
 40
0.3061480537453644
 40
0.3740067569307278
 40
0.4418750740644137
 40
0.509751515307449
 40
0.5776395231255059
 40
0.6455418335645958
 40
0.7134590680582543
 40
0.7813938561052246
 40
0.8493467718564636
 40
0.9173172641897555
 40
0.9853062265056319
 40
1.0
 40
1.0
 40
1.0
 40
1.0
 10
1680.660967661495
 20
1420.053542475937
 30
0.0
 10
1680.669004245241
 20
1420.731529831002
 30
0.0
 10
1680.692725796857
 20
1422.732742354308
 30
0.0
 10
1680.960334421239
 20
1426.050326600419
 30
0.0
 10
1681.566698655826
 20
1429.973615279052
 30
0.0
 10
1682.475259521672
 20
1433.834552123892
 30
0.0
 10
1683.675081908441
 20
1437.608436644444
 30
0.0
 10
1685.160032068675
 20
1441.271599525201
 30
0.0
 10
1686.920189084278
 20
1444.801035111252
 30
0.0
 10
1688.944801902378
 20
1448.174426141097
 30
0.0
 10
1691.220965521516
 20
1451.370618390898
 30
0.0
 10
1693.73443409715
 20
1454.36941151311
 30
0.0
 10
1696.469290265693
 20
1457.152432426231
 30
0.0
 10
1699.409132382588
 20
1459.699993795285
 30
0.0
 10
1702.532251226054
 20
1462.004480817661
 30
0.0
 10
1705.831423837398
 20
1464.01956601941
 30
0.0
 10
1708.348923348803
 20
1465.371872795984
 30
0.0
 10
1709.794356405345
 20
1465.957364740468
 30
0.0
 10
1710.051228238696
 20
1466.061414103745
 30
0.0
  0
SPLINE
  5
196
330
1F
100
AcDbEntity
  8
0
  6
Continuous
 62
     7
370
    15
100
AcDbSpline
210
0.0
220
0.0
230
1.0
 70
     8
 71
     3
 72
    23
 73
    19
 74
     0
 42
0.000000001
 43
0.00000001
 40
0.0
 40
0.0
 40
0.0
 40
0.0
 40
0.0347581789320948
 40
0.1025955756350205
 40
0.1704452276808888
 40
0.2382949112272381
 40
0.3061480537453644
 40
0.3740067569307278
 40
0.4418750740644137
 40
0.509751515307449
 40
0.5776395231255059
 40
0.6455418335645958
 40
0.7134590680582543
 40
0.7813938561052246
 40
0.8493467718564636
 40
0.9173172641897555
 40
0.9853062265056319
 40
1.0
 40
1.0
 40
1.0
 40
1.0
 10
1680.660967661495
 20
1795.053542475937
 30
0.0
 10
1680.669004245241
 20
1795.731529831002
 30
0.0
 10
1680.692725796857
 20
1797.732742354308
 30
0.0
 10
1680.960334421239
 20
1801.050326600419
 30
0.0
 10
1681.566698655826
 20
1804.973615279051
 30
0.0
 10
1682.475259521672
 20
1808.834552123892
 30
0.0
 10
1683.675081908441
 20
1812.608436644444
 30
0.0
 10
1685.160032068675
 20
1816.271599525201
 30
0.0
 10
1686.920189084278
 20
1819.801035111252
 30
0.0
 10
1688.944801902378
 20
1823.174426141097
 30
0.0
 10
1691.220965521516
 20
1826.370618390898
 30
0.0
 10
1693.73443409715
 20
1829.369411513111
 30
0.0
 10
1696.469290265693
 20
1832.152432426231
 30
0.0
 10
1699.409132382588
 20
1834.699993795285
 30
0.0
 10
1702.532251226054
 20
1837.004480817661
 30
0.0
 10
1705.831423837398
 20
1839.01956601941
 30
0.0
 10
1708.348923348803
 20
1840.371872795984
 30
0.0
 10
1709.794356405345
 20
1840.957364740468
 30
0.0
 10
1710.051228238696
 20
1841.061414103745
 30
0.0
  0
SPLINE
  5
197
330
1F
100
AcDbEntity
  8
0
  6
Continuous
 62
     7
370
    15
100
AcDbSpline
210
0.0
220
0.0
230
1.0
 70
     8
 71
     3
 72
    14
 73
    10
 74
     0
 42
0.000000001
 43
0.00000001
 40
0.0
 40
0.0
 40
0.0
 40
0.0
 40
0.1282339921418705
 40
0.2902514155938988
 40
0.4527590010699891
 40
0.6151420198493572
 40
0.7769663672383724
 40
0.9379442823045121
 40
0.9999999999999999
 40
0.9999999999999999
 40
0.9999999999999999
 40
0.9999999999999999
 10
1636.901934577579
 20
120.0535901596531
 30
0.0
 10
1636.921338985449
 20
119.7195909083497
 30
0.0
 10
1636.965259920599
 20
118.9635998183208
 30
0.0
 10
1637.357607160328
 20
117.8351810726154
 30
0.0
 10
1638.048272965917
 20
116.7631026290326
 30
0.0
 10
1638.990695455321
 20
115.9008850133326
 30
0.0
 10
1640.113990683186
 20
115.3115901161532
 30
0.0
 10
1641.096134945911
 20
115.0759651863051
 30
0.0
 10
1641.673221295363
 20
115.0584409719411
 30
0.0
 10
1641.833786799068
 20
115.0535651257023
 30
0.0
  0
LINE
  5
198
330
1F
100
AcDbEntity
  8
0
  6
Continuous
 62
     7
370
    15
100
AcDbLine
 10
1636.9019345776
 20
2110.0535996964
 30
0.0
 11
1636.9019345776
 21
120.0535901597
 31
0.0
  0
SPLINE
  5
199
330
1F
100
AcDbEntity
  8
0
  6
Continuous
 62
     7
370
    15
100
AcDbSpline
210
0.0
220
0.0
230
1.0
 70
     8
 71
     3
 72
    14
 73
    10
 74
     0
 42
0.000000001
 43
0.00000001
 40
0.0
 40
0.0
 40
0.0
 40
0.0
 40
0.1324328419438625
 40
0.2915082696291721
 40
0.450362218795744
 40
0.6093384744022006
 40
0.7688691500206828
 40
0.9292231006144026
 40
1.0
 40
1.0
 40
1.0
 40
1.0
 10
1641.833786799068
 20
2115.053594928025
 30
0.0
 10
1641.490560160855
 20
2115.032276201883
 30
0.0
 10
1640.735057206094
 20
2114.985349889067
 30
0.0
 10
1639.623138058576
 20
2114.578672365652
 30
0.0
 10
1638.586560065404
 20
2113.887041153526
 30
0.0
 10
1637.751814577854
 20
2112.952691382756
 30
0.0
 10
1637.173653040482
 20
2111.838829776853
 30
0.0
 10
1636.927967960826
 20
2110.839010346378
 30
0.0
 10
1636.908037641017
 20
2110.23772524689
 30
0.0
 10
1636.901934577579
 20
2110.053599696396
 30
0.0
  0
SPLINE
  5
19A
330
1F
100
AcDbEntity
  8
0
  6
Continuous
 62
     7
370
    15
100
AcDbSpline
210
0.0
220
0.0
230
1.0
 70
     8
 71
     3
 72
    22
 73
    18
 74
     0
 42
0.000000001
 43
0.00000001
 40
0.0
 40
0.0
 40
0.0
 40
0.0
 40
0.035644927067996
 40
0.1052111749529945
 40
0.1747901143513494
 40
0.2443703857656656
 40
0.3139541966741746
 40
0.3835436580656683
 40
0.4531411435602787
 40
0.5227486560268819
 40
0.5923682500742016
 40
0.6620020286813884
 40
0.7316515494001467
 40
0.8013182990619904
 40
0.8710031831302072
 40
0.9407072005814415
 40
1.0
 40
1.0
 40
1.0
 40
1.0
 10
1984.635223580951
 20
435.0535765995965
 30
0.0
 10
1984.627186691878
 20
434.3755805480526
 30
0.0
 10
1984.603464647486
 20
432.3743768126559
 30
0.0
 10
1984.335877070515
 20
429.0568164018645
 30
0.0
 10
1983.729501918585
 20
425.1335497968586
 30
0.0
 10
1982.820930208365
 20
421.2726118808586
 30
0.0
 10
1981.621100964215
 20
417.4987028177628
 30
0.0
 10
1980.13620960839
 20
413.8355212945974
 30
0.0
 10
1978.375984089777
 20
410.3061383480526
 30
0.0
 10
1976.351406339886
 20
406.9327296055
 30
0.0
 10
1974.075238164635
 20
403.7365571323528
 30
0.0
 10
1971.561810877059
 20
400.7375637473817
 30
0.0
 10
1968.826650968824
 20
397.9553146167658
 30
0.0
 10
1965.888079596556
 20
395.4047244526603
 30
0.0
 10
1962.760146203689
 20
393.1117070379894
 30
0.0
 10
1959.642567348769
 20
391.1566710169875
 30
0.0
 10
1957.508231004243
 20
390.1076392215599
 30
0.0
 10
1956.527193023319
 20
389.625456534116
 30
0.0
  0
SPLINE
  5
19B
330
1F
100
AcDbEntity
  8
0
  6
Continuous
 62
     7
370
    15
100
AcDbSpline
210
0.0
220
0.0
230
1.0
 70
     8
 71
     3
 72
    22
 73
    18
 74
     0
 42
0.000000001
 43
0.00000001
 40
0.0
 40
0.0
 40
0.0
 40
0.0
 40
0.0356449860198019
 40
0.1052110914181917
 40
0.1747902762838597
 40
0.2443705987793572
 40
0.3139543973480055
 40
0.3835437862341872
 40
0.4531412593865118
 40
0.522748897986634
 40
0.5923683747430964
 40
0.6620022640593661
 40
0.7316516582659164
 40
0.8013183537546621
 40
0.8710032820307057
 40
0.9407071786828637
 40
1.0
 40
1.0
 40
1.0
 40
1.0
 10
1984.635223580951
 20
810.0535877754673
 30
0.0
 10
1984.627186767958
 20
809.3755904752744
 30
0.0
 10
1984.603465006191
 20
807.3743879529269
 30
0.0
 10
1984.335875252012
 20
804.0568241140895
 30
0.0
 10
1983.729503309616
 20
800.1335533280762
 30
0.0
 10
1982.820930549827
 20
796.2726092965333
 30
0.0
 10
1981.62110164121
 20
792.4987000736259
 30
0.0
 10
1980.1362092034
 20
788.8355200963471
 30
0.0
 10
1978.37598101967
 20
785.3061373461007
 30
0.0
 10
1976.351412094863
 20
781.9327217034977
 30
0.0
 10
1974.075231931826
 20
778.7365549383059
 30
0.0
 10
1971.561817262882
 20
775.7375527113966
 30
0.0
 10
1968.826648826334
 20
772.9553126372623
 30
0.0
 10
1965.888076624183
 20
770.4047277320499
 30
0.0
 10
1962.760151695652
 20
768.1117000206252
 30
0.0
 10
1959.642562909677
 20
766.156682071871
 30
0.0
 10
1957.508230369889
 20
765.1076459492551
 30
0.0
 10
1956.527193023319
 20
764.6254607250676
 30
0.0
  0
SPLINE
  5
19C
330
1F
100
AcDbEntity
  8
0
  6
Continuous
 62
     7
370
    15
100
AcDbSpline
210
0.0
220
0.0
230
1.0
 70
     8
 71
     3
 72
    23
 73
    19
 74
     0
 42
0.000000001
 43
0.00000001
 40
0.0
 40
0.0
 40
0.0
 40
0.0
 40
0.0274603681045415
 40
0.0957910921101172
 40
0.1641061727963469
 40
0.2324050233207362
 40
0.3006859721545196
 40
0.3689490683922514
 40
0.4371946749992431
 40
0.5054229503333779
 40
0.5736353275893457
 40
0.6418329994577519
 40
0.7100177610841869
 40
0.7781905691562168
 40
0.8463536186926898
 40
0.9145088816882635
 40
0.9826582021480701
 40
0.9999999999999999
 40
0.9999999999999999
 40
0.9999999999999999
 40
0.9999999999999999
 10
1955.464010073299
 20
715.9521587898716
 30
0.0
 10
1955.938989844879
 20
715.7505515416881
 30
0.0
 10
1957.595880636605
 20
715.047276974964
 30
0.0
 10
1960.304546098279
 20
713.5401661698063
 30
0.0
 10
1963.564631986308
 20
711.4504491687552
 30
0.0
 10
1966.645815454924
 20
709.0812945340604
 30
0.0
 10
1969.538060636295
 20
706.4707029146826
 30
0.0
 10
1972.220560955279
 20
703.6290482218761
 30
0.0
 10
1974.677110297648
 20
700.5759749126843
 30
0.0
 10
1976.892074529976
 20
697.3303945160451
 30
0.0
 10
1978.851564610898
 20
693.9129317612616
 30
0.0
 10
1980.543246359914
 20
690.3451427564145
 30
0.0
 10
1981.956603172431
 20
686.6495897589095
 30
0.0
 10
1983.082495565497
 20
682.8496009349121
 30
0.0
 10
1983.914781283828
 20
678.9691044485571
 30
0.0
 10
1984.445087490053
 20
675.0327972225482
 30
0.0
 10
1984.623010255179
 20
672.0506590085378
 30
0.0
 10
1984.633163919176
 20
670.390362050069
 30
0.0
 10
1984.635223580951
 20
670.0535722782597
 30
0.0
  0
SPLINE
  5
19D
330
1F
100
AcDbEntity
  8
0
  6
Continuous
 62
     7
370
    15
100
AcDbSpline
210
0.0
220
0.0
230
1.0
 70
     8
 71
     3
 72
    23
 73
    19
 74
     0
 42
0.000000001
 43
0.00000001
 40
0.0
 40
0.0
 40
0.0
 40
0.0
 40
0.0274604424901042
 40
0.0957911961753129
 40
0.1641063109557041
 40
0.2324049719754889
 40
0.3006860469324461
 40
0.3689492347634326
 40
0.4371947436100634
 40
0.5054231757206731
 40
0.5736355533061784
 40
0.6418331108005412
 40
0.7100176350882574
 40
0.7781904434896337
 40
0.8463536181742666
 40
0.9145088814991019
 40
0.9826583299367843
 40
1.0
 40
1.0
 40
1.0
 40
1.0
 10
1955.464010073299
 20
340.9521662404522
 30
0.0
 10
1955.938989660534
 20
340.7505548199879
 30
0.0
 10
1957.595877120978
 20
340.047266839984
 30
0.0
 10
1960.304548163668
 20
338.5401623597254
 30
0.0
 10
1963.56462427008
 20
336.4504341246384
 30
0.0
 10
1966.645824850004
 20
334.0813047949717
 30
0.0
 10
1969.538059129688
 20
331.4706977882698
 30
0.0
 10
1972.220556279631
 20
328.6290379443219
 30
0.0
 10
1974.677116474088
 20
325.5759698550668
 30
0.0
 10
1976.89207086499
 20
322.3303805656684
 30
0.0
 10
1978.851563585053
 20
318.9129189219111
 30
0.0
 10
1980.54324444855
 20
315.3451371185301
 30
0.0
 10
1981.956606002706
 20
311.6495934319873
 30
0.0
 10
1983.082496318467
 20
307.8496060019455
 30
0.0
 10
1983.914780425764
 20
303.9691067567062
 30
0.0
 10
1984.445088097599
 20
300.0327947973886
 30
0.0
 10
1984.623010018573
 20
297.0506565150346
 30
0.0
 10
1984.633163891897
 20
295.390359565721
 30
0.0
 10
1984.635223580951
 20
295.0535722782597
 30
0.0
  0
SPLINE
  5
19E
330
1F
100
AcDbEntity
  8
0
  6
Continuous
 62
     7
370
    15
100
AcDbSpline
210
0.0
220
0.0
230
1.0
 70
     8
 71
     3
 72
    22
 73
    18
 74
     0
 42
0.000000001
 43
0.00000001
 40
0.0
 40
0.0
 40
0.0
 40
0.0
 40
0.0356455001637121
 40
0.1052115898708357
 40
0.1747902434298086
 40
0.244370042867729
 40
0.3139543216475856
 40
0.3835441761529926
 40
0.4531411699230258
 40
0.5227483496947258
 40
0.5923682305269119
 40
0.6620021041366261
 40
0.7316511173202966
 40
0.8013181316442541
 40
0.8710030442022298
 40
0.9407071920568975
 40
1.0
 40
1.0
 40
1.0
 40
1.0
 10
1984.635223580951
 20
1185.053587775467
 30
0.0
 10
1984.627186899477
 20
1184.375580539171
 30
0.0
 10
1984.603465755679
 20
1182.374368073445
 30
0.0
 10
1984.335877055939
 20
1179.056804005664
 30
0.0
 10
1983.72950433118
 20
1175.133552736541
 30
0.0
 10
1982.820921580397
 20
1171.272621829524
 30
0.0
 10
1981.6211010794
 20
1167.498701029154
 30
0.0
 10
1980.136222035241
 20
1163.835504003093
 30
0.0
 10
1978.375981592644
 20
1160.306135801889
 30
0.0
 10
1976.351395259506
 20
1156.932743634566
 30
0.0
 10
1974.075240882542
 20
1153.736558656546
 30
0.0
 10
1971.561826983194
 20
1150.737551515756
 30
0.0
 10
1968.826628994174
 20
1147.95534579976
 30
0.0
 10
1965.888089214945
 20
1145.404721526326
 30
0.0
 10
1962.760141320438
 20
1143.111707337907
 30
0.0
 10
1959.642571181584
 20
1141.156647896059
 30
0.0
 10
1957.508231583983
 20
1140.107614086153
 30
0.0
 10
1956.527193023319
 20
1139.625430922745
 30
0.0
  0
SPLINE
  5
19F
330
1F
100
AcDbEntity
  8
0
  6
Continuous
 62
     7
370
    15
100
AcDbSpline
210
0.0
220
0.0
230
1.0
 70
     8
 71
     3
 72
    23
 73
    19
 74
     0
 42
0.000000001
 43
0.00000001
 40
0.0
 40
0.0
 40
0.0
 40
0.0
 40
0.0274605838753984
 40
0.095791352075043
 40
0.1641062068335825
 40
0.2324047977964001
 40
0.3006864616936651
 40
0.3689492370287797
 40
0.437195280136263
 40
0.505423599598206
 40
0.5736360209716999
 40
0.6418337369481212
 40
0.710018067337801
 40
0.7781904306488141
 40
0.8463535242709096
 40
0.9145093378857152
 40
0.9826587024222648
 40
0.9999999999999999
 40
0.9999999999999999
 40
0.9999999999999999
 40
0.9999999999999999
 10
1955.464010073299
 20
1090.952158789872
 30
0.0
 10
1955.938989378364
 20
1090.750540424683
 30
0.0
 10
1957.595870020315
 20
1090.047230695646
 30
0.0
 10
1960.304541816082
 20
1088.540140516487
 30
0.0
 10
1963.56462715396
 20
1086.450444690506
 30
0.0
 10
1966.645845769416
 20
1084.081332124736
 30
0.0
 10
1969.538028550956
 20
1081.470666530213
 30
0.0
 10
1972.220583983123
 20
1078.6290509559
 30
0.0
 10
1974.677098521316
 20
1075.575944264529
 30
0.0
 10
1976.89207636781
 20
1072.330366528806
 30
0.0
 10
1978.851564787262
 20
1068.912901763372
 30
0.0
 10
1980.543239887741
 20
1065.345120211266
 30
0.0
 10
1981.956603537441
 20
1061.649590434488
 30
0.0
 10
1983.082499391349
 20
1057.8496220139
 30
0.0
 10
1983.914783983597
 20
1053.969124651072
 30
0.0
 10
1984.4450853559
 20
1050.032806849061
 30
0.0
 10
1984.623009654207
 20
1047.050668945791
 30
0.0
 10
1984.63316385809
 20
1045.390381919223
 30
0.0
 10
1984.635223580951
 20
1045.053602080582
 30
0.0
  0
SPLINE
  5
1A0
330
1F
100
AcDbEntity
  8
0
  6
Continuous
 62
     7
370
    15
100
AcDbSpline
210
0.0
220
0.0
230
1.0
 70
     8
 71
     3
 72
    22
 73
    18
 74
     0
 42
0.000000001
 43
0.00000001
 40
0.0
 40
0.0
 40
0.0
 40
0.0
 40
0.0356445127921761
 40
0.1052096725369535
 40
0.1747894685806491
 40
0.2443693792784186
 40
0.3139527775111564
 40
0.3835437059272895
 40
0.453140810984666
 40
0.5227481020599971
 40
0.5923672546581118
 40
0.6620012396141413
 40
0.7316518254339831
 40
0.8013189511572486
 40
0.8710033717805273
 40
0.9407070972462063
 40
1.0
 40
1.0
 40
1.0
 40
1.0
 10
1984.635223580951
 20
1935.053528170823
 30
0.0
 10
1984.627186913395
 20
1934.375540782117
 30
0.0
 10
1984.603465585887
 20
1932.374367934959
 30
0.0
 10
1984.335867961585
 20
1929.05682496526
 30
0.0
 10
1983.729509648683
 20
1925.133572186512
 30
0.0
 10
1982.820933897634
 20
1921.272637059741
 30
0.0
 10
1981.62107480609
 20
1917.498731362556
 30
0.0
 10
1980.136239390364
 20
1913.835516193732
 30
0.0
 10
1978.375976915957
 20
1910.306138480525
 30
0.0
 10
1976.351412866703
 20
1906.93275056297
 30
0.0
 10
1974.075226484951
 20
1903.736607857695
 30
0.0
 10
1971.561791140772
 20
1900.737610143944
 30
0.0
 10
1968.826667334532
 20
1897.955285566362
 30
0.0
 10
1965.888099935348
 20
1895.404664595638
 30
0.0
 10
1962.760140874975
 20
1893.111703692247
 30
0.0
 10
1959.642557065135
 20
1891.156712744723
 30
0.0
 10
1957.508229920162
 20
1890.107676709264
 30
0.0
 10
1956.527193023319
 20
1889.62549052739
 30
0.0
  0
SPLINE
  5
1A1
330
1F
100
AcDbEntity
  8
0
  6
Continuous
 62
     7
370
    15
100
AcDbSpline
210
0.0
220
0.0
230
1.0
 70
     8
 71
     3
 72
    23
 73
    19
 74
     0
 42
0.000000001
 43
0.00000001
 40
0.0
 40
0.0
 40
0.0
 40
0.0
 40
0.0274609416472621
 40
0.0957911450265877
 40
0.164106985034221
 40
0.2324054808071677
 40
0.3006863786374828
 40
0.3689490588326437
 40
0.4371950068234937
 40
0.5054232311935054
 40
0.5736346787189378
 40
0.6418322996460808
 40
0.7100174856771775
 40
0.7781907316791185
 40
0.8463537303001899
 40
0.914508435848313
 40
0.9826587265913708
 40
1.0
 40
1.0
 40
1.0
 40
1.0
 10
1955.464010073299
 20
1840.952218394516
 30
0.0
 10
1955.938987377573
 20
1840.750575764331
 30
0.0
 10
1957.59583587252
 20
1840.047192075609
 30
0.0
 10
1960.304600363661
 20
1838.540248932438
 30
0.0
 10
1963.564590438415
 20
1836.450360035094
 30
0.0
 10
1966.645831661344
 20
1834.081278994283
 30
0.0
 10
1969.538046435678
 20
1831.470667068056
 30
0.0
 10
1972.220580980045
 20
1828.629047963323
 30
0.0
 10
1974.677101439391
 20
1825.575946390651
 30
0.0
 10
1976.892058191229
 20
1822.330374952068
 30
0.0
 10
1978.851580245342
 20
1818.912951396694
 30
0.0
 10
1980.543250548469
 20
1815.345163972593
 30
0.0
 10
1981.956603399352
 20
1811.649589438414
 30
0.0
 10
1983.08249165491
 20
1807.849579764235
 30
0.0
 10
1983.914778331377
 20
1803.969084257877
 30
0.0
 10
1984.445093367971
 20
1800.032767980925
 30
0.0
 10
1984.623009020258
 20
1797.050629134167
 30
0.0
 10
1984.633163771637
 20
1795.390322307971
 30
0.0
 10
1984.635223580951
 20
1795.053542475937
 30
0.0
  0
SPLINE
  5
1A2
330
1F
100
AcDbEntity
  8
0
  6
Continuous
 62
     7
370
    15
100
AcDbSpline
210
0.0
220
0.0
230
1.0
 70
     8
 71
     3
 72
    23
 73
    19
 74
     0
 42
0.000000001
 43
0.00000001
 40
0.0
 40
0.0
 40
0.0
 40
0.0
 40
0.0274609416472621
 40
0.0957911450265877
 40
0.164106985034221
 40
0.2324054808071677
 40
0.3006863786374828
 40
0.3689490588326437
 40
0.4371950068234937
 40
0.5054232311935054
 40
0.5736346787189378
 40
0.6418322996460808
 40
0.7100174856771775
 40
0.7781907316791185
 40
0.8463537303001899
 40
0.914508435848313
 40
0.9826587265913708
 40
1.0
 40
1.0
 40
1.0
 40
1.0
 10
1955.464010073299
 20
1465.952218394516
 30
0.0
 10
1955.938987377573
 20
1465.750575764331
 30
0.0
 10
1957.59583587252
 20
1465.047192075609
 30
0.0
 10
1960.304600363661
 20
1463.540248932438
 30
0.0
 10
1963.564590438415
 20
1461.450360035094
 30
0.0
 10
1966.645831661344
 20
1459.081278994284
 30
0.0
 10
1969.538046435678
 20
1456.470667068056
 30
0.0
 10
1972.220580980045
 20
1453.629047963324
 30
0.0
 10
1974.677101439391
 20
1450.575946390651
 30
0.0
 10
1976.892058191229
 20
1447.330374952068
 30
0.0
 10
1978.851580245342
 20
1443.912951396694
 30
0.0
 10
1980.543250548469
 20
1440.345163972593
 30
0.0
 10
1981.956603399352
 20
1436.649589438414
 30
0.0
 10
1983.08249165491
 20
1432.849579764234
 30
0.0
 10
1983.914778331377
 20
1428.969084257877
 30
0.0
 10
1984.445093367971
 20
1425.032767980924
 30
0.0
 10
1984.623009020258
 20
1422.050629134168
 30
0.0
 10
1984.633163771637
 20
1420.390322307971
 30
0.0
 10
1984.635223580951
 20
1420.053542475937
 30
0.0
  0
SPLINE
  5
1A3
330
1F
100
AcDbEntity
  8
0
  6
Continuous
 62
     7
370
    15
100
AcDbSpline
210
0.0
220
0.0
230
1.0
 70
     8
 71
     3
 72
    22
 73
    18
 74
     0
 42
0.000000001
 43
0.00000001
 40
0.0
 40
0.0
 40
0.0
 40
0.0
 40
0.0356445127921761
 40
0.1052096725369535
 40
0.1747894685806491
 40
0.2443693792784186
 40
0.3139527775111564
 40
0.3835437059272895
 40
0.453140810984666
 40
0.5227481020599971
 40
0.5923672546581118
 40
0.6620012396141413
 40
0.7316518254339831
 40
0.8013189511572486
 40
0.8710033717805273
 40
0.9407070972462063
 40
1.0
 40
1.0
 40
1.0
 40
1.0
 10
1984.635223580951
 20
1560.053528170823
 30
0.0
 10
1984.627186913395
 20
1559.375540782117
 30
0.0
 10
1984.603465585887
 20
1557.374367934959
 30
0.0
 10
1984.335867961585
 20
1554.05682496526
 30
0.0
 10
1983.729509648683
 20
1550.133572186512
 30
0.0
 10
1982.820933897634
 20
1546.272637059741
 30
0.0
 10
1981.62107480609
 20
1542.498731362556
 30
0.0
 10
1980.136239390364
 20
1538.835516193732
 30
0.0
 10
1978.375976915957
 20
1535.306138480526
 30
0.0
 10
1976.351412866703
 20
1531.93275056297
 30
0.0
 10
1974.075226484951
 20
1528.736607857695
 30
0.0
 10
1971.561791140772
 20
1525.737610143943
 30
0.0
 10
1968.826667334532
 20
1522.955285566362
 30
0.0
 10
1965.888099935348
 20
1520.404664595638
 30
0.0
 10
1962.760140874975
 20
1518.111703692247
 30
0.0
 10
1959.642557065135
 20
1516.156712744723
 30
0.0
 10
1957.508229920162
 20
1515.107676709264
 30
0.0
 10
1956.527193023319
 20
1514.62549052739
 30
0.0
  0
SPLINE
  5
1A4
330
1F
100
AcDbEntity
  8
0
  6
Continuous
 62
     7
370
    15
100
AcDbSpline
210
0.0
220
0.0
230
1.0
 70
     8
 71
     3
 72
    14
 73
    10
 74
     0
 42
0.000000001
 43
0.00000001
 40
0.0
 40
0.0
 40
0.0
 40
0.0
 40
0.1324322443169024
 40
0.2915095887398284
 40
0.4503615137944076
 40
0.609343213605839
 40
0.768869388664614
 40
0.9292231015404969
 40
0.9999999999999999
 40
0.9999999999999999
 40
0.9999999999999999
 40
0.9999999999999999
 10
2023.462419344539
 20
115.0535651257023
 30
0.0
 10
2023.805647983829
 20
115.0748663967804
 30
0.0
 10
2024.561162171474
 20
115.1217547116591
 30
0.0
 10
2025.673045963718
 20
115.5285459912214
 30
0.0
 10
2026.709677750493
 20
116.2201072680651
 30
0.0
 10
2027.544363468385
 20
117.1545208831146
 30
0.0
 10
2028.122548994096
 20
118.2683663302027
 30
0.0
 10
2028.368213039646
 20
119.2681807449232
 30
0.0
 10
2028.388162603462
 20
119.8694647550441
 30
0.0
 10
2028.394271566028
 20
120.0535901596531
 30
0.0
  0
SPLINE
  5
1A5
330
1F
100
AcDbEntity
  8
0
  6
Continuous
 62
     7
370
    15
100
AcDbSpline
210
0.0
220
0.0
230
1.0
 70
     8
 71
     3
 72
    14
 73
    10
 74
     0
 42
0.000000001
 43
0.00000001
 40
0.0
 40
0.0
 40
0.0
 40
0.0
 40
0.1282348561604939
 40
0.2902533712581059
 40
0.4527566905730705
 40
0.6151368284100063
 40
0.7769643886121228
 40
0.9379438641837403
 40
1.0
 40
1.0
 40
1.0
 40
1.0
 10
2028.394271566028
 20
2110.053599696396
 30
0.0
 10
2028.374866379372
 20
2110.387598475143
 30
0.0
 10
2028.330943681476
 20
2111.143588495563
 30
0.0
 10
2027.938617008927
 20
2112.272003540684
 30
0.0
 10
2027.247905570791
 20
2113.344025346126
 30
0.0
 10
2026.30549320721
 20
2114.20621827344
 30
0.0
 10
2025.182223265973
 20
2114.795535533013
 30
0.0
 10
2024.200072431202
 20
2115.031197479461
 30
0.0
 10
2023.622984848732
 20
2115.048719658489
 30
0.0
 10
2023.462419344539
 20
2115.053594928025
 30
0.0
  0
LINE
  5
1A6
330
1F
100
AcDbEntity
  8
0
  6
Continuous
 62
     7
370
    15
100
AcDbLine
 10
2028.394271566
 20
120.0535901597
 30
0.0
 11
2028.394271566
 21
2110.0535996964
 31
0.0
  0
LINE
  5
1A7
330
1F
100
AcDbEntity
  8
0
  6
Continuous
 62
     7
370
    15
100
AcDbLine
 10
1984.635223581
 20
1420.0535424759
 30
0.0
 11
1984.635223581
 21
1185.0535877755
 31
0.0
  0
LINE
  5
1A8
330
1F
100
AcDbEntity
  8
0
  6
Continuous
 62
     7
370
    15
100
AcDbLine
 10
1984.635223581
 20
1045.0536020806
 30
0.0
 11
1984.635223581
 21
810.0535877755
 31
0.0
  0
LINE
  5
1A9
330
1F
100
AcDbEntity
  8
0
  6
Continuous
 62
     7
370
    15
100
AcDbLine
 10
1984.635223581
 20
1795.0535424759
 30
0.0
 11
1984.635223581
 21
1560.0535281708
 31
0.0
  0
LINE
  5
1AA
330
1F
100
AcDbEntity
  8
0
  6
Continuous
 62
     7
370
    15
100
AcDbLine
 10
1984.635223581
 20
295.0535722783
 30
0.0
 11
1984.635223581
 21
120.0535901597
 31
0.0
  0
LINE
  5
1AB
330
1F
100
AcDbEntity
  8
0
  6
Continuous
 62
     7
370
    15
100
AcDbLine
 10
1984.635223581
 20
670.0535722783
 30
0.0
 11
1984.635223581
 21
435.0535765996
 31
0.0
  0
LINE
  5
1AC
330
1F
100
AcDbEntity
  8
0
  6
Continuous
 62
     7
370
    15
100
AcDbLine
 10
1984.635223581
 20
2110.0535996964
 30
0.0
 11
1984.635223581
 21
1935.0535281708
 31
0.0
  0
SPLINE
  5
1AD
330
1F
100
AcDbEntity
  8
0
  6
Continuous
 62
     7
370
    15
100
AcDbSpline
210
0.0
220
0.0
230
1.0
 70
     8
 71
     3
 72
    14
 73
    10
 74
     0
 42
0.000000001
 43
0.00000001
 40
0.0
 40
0.0
 40
0.0
 40
0.0
 40
0.1282342921510599
 40
0.2902512505437256
 40
0.4527600146580187
 40
0.6151420668250149
 40
0.7769665549793937
 40
0.9379442283244048
 40
1.0
 40
1.0
 40
1.0
 40
1.0
 10
1984.635223580951
 20
120.0535901596531
 30
0.0
 10
1984.654635396737
 20
119.7195915404121
 30
0.0
 10
1984.698572971568
 20
118.9636040795825
 30
0.0
 10
1985.090886866066
 20
117.8351723778937
 30
0.0
 10
1985.781581961106
 20
116.7631120091195
 30
0.0
 10
1986.723982531081
 20
115.9008804680354
 30
0.0
 10
1987.847278921452
 20
115.311591641004
 30
0.0
 10
1988.829425158551
 20
115.0759649809718
 30
0.0
 10
1989.406510346952
 20
115.0584409337749
 30
0.0
 10
1989.56707580244
 20
115.0535651257023
 30
0.0
  0
SPLINE
  5
1AE
330
1F
100
AcDbEntity
  8
0
  6
Continuous
 62
     7
370
    15
100
AcDbSpline
210
0.0
220
0.0
230
1.0
 70
     8
 71
     3
 72
    14
 73
    10
 74
     0
 42
0.000000001
 43
0.00000001
 40
0.0
 40
0.0
 40
0.0
 40
0.0
 40
0.1324329627908786
 40
0.2915081645917867
 40
0.4503625896891923
 40
0.6093389903639405
 40
0.7688687391002461
 40
0.9292229320315227
 40
1.0
 40
1.0
 40
1.0
 40
1.0
 10
1989.56707580244
 20
2115.053594928025
 30
0.0
 10
1989.223849456293
 20
2115.03227632908
 30
0.0
 10
1988.468348106053
 20
2114.985350355976
 30
0.0
 10
1987.35642342154
 20
2114.57867087026
 30
0.0
 10
1986.319851630761
 20
2113.887041583016
 30
0.0
 10
1985.485101858068
 20
2112.952696195229
 30
0.0
 10
1984.906956704818
 20
2111.838824042182
 30
0.0
 10
1984.661281307736
 20
2110.839010144944
 30
0.0
 10
1984.641332354123
 20
2110.23772528481
 30
0.0
 10
1984.635223580951
 20
2110.053599696396
 30
0.0
  0
ARC
  5
1AF
330
1F
100
AcDbEntity
  8
0
  6
Continuous
 62
     7
370
    15
100
AcDbCircle
 10
1936.4187716601
 20
1798.1650449812
 30
0.0
 40
46.88857436424583
100
AcDbArc
 50
66.3741767449
 51
89.9726450076
  0
ARC
  5
1B0
330
1F
100
AcDbEntity
  8
0
  6
Continuous
 62
     7
370
    15
100
AcDbCircle
 10
1936.4187716601
 20
1423.1650449812
 30
0.0
 40
46.88857436424583
100
AcDbArc
 50
66.3741767449
 51
89.9726450076
  0
LWPOLYLINE
  5
1B1
330
1F
100
AcDbEntity
  8
0
  6
Continuous
 62
     7
370
    15
100
AcDbPolyline
 90
        3
 70
   128
 43
0.0
 10
1948.9609049097
 20
1511.7627986481
 10
1952.9594676033
 20
1513.0689748337
 10
1955.3291024104
 20
1514.0358813813
  0
ARC
  5
1B2
330
1F
100
AcDbEntity
  8
0
  6
Continuous
 62
     7
370
    15
100
AcDbCircle
 10
1936.4185719901
 20
298.1634433524
 30
0.0
 40
46.8901388357498
100
AcDbArc
 50
66.3747466495
 51
89.9724019405
  0
LWPOLYLINE
  5
1B3
330
1F
100
AcDbEntity
  8
0
  6
Continuous
 62
     7
370
    15
100
AcDbPolyline
 90
        3
 70
   128
 43
0.0
 10
1948.9609049097
 20
1886.7627986481
 10
1952.9594676033
 20
1888.0689748337
 10
1955.3291024104
 20
1889.0358813813
  0
ARC
  5
1B4
330
1F
100
AcDbEntity
  8
0
  6
Continuous
 62
     7
370
    15
100
AcDbCircle
 10
1936.418384265
 20
673.1625135566
 30
0.0
 40
46.89107617285032
100
AcDbArc
 50
66.3749972666
 51
89.9721731126
  0
ARC
  5
1B5
330
1F
100
AcDbEntity
  8
0
  6
Continuous
 62
     7
370
    15
100
AcDbCircle
 10
1936.4188271163
 20
1048.1645986922
 30
0.0
 40
46.88896102215072
100
AcDbArc
 50
66.3744573815
 51
89.9727129977
  0
LWPOLYLINE
  5
1B6
330
1F
100
AcDbEntity
  8
0
  6
Continuous
 62
     7
370
    15
100
AcDbPolyline
 90
        3
 70
   128
 43
0.0
 10
1948.9609049097
 20
386.7627664011
 10
1952.9594676033
 20
388.0689447986
 10
1955.3291024104
 20
389.0358418001
  0
LWPOLYLINE
  5
1B7
330
1F
100
AcDbEntity
  8
0
  6
Continuous
 62
     7
370
    15
100
AcDbPolyline
 90
        3
 70
   128
 43
0.0
 10
1948.9609049097
 20
1136.7627390435
 10
1952.9594676033
 20
1138.0689152291
 10
1955.3291024104
 20
1139.0358217766
  0
LWPOLYLINE
  5
1B8
330
1F
100
AcDbEntity
  8
0
  6
Continuous
 62
     7
370
    15
100
AcDbPolyline
 90
        3
 70
   128
 43
0.0
 10
1948.9609049097
 20
761.7627688458
 10
1952.9594676033
 20
763.0689450314
 10
1955.3291024104
 20
764.0358515789
  0
LINE
  5
1B9
330
1F
100
AcDbEntity
  8
0
  6
Continuous
 62
     7
370
    15
100
AcDbLine
 10
1675.72911544
 20
115.0535651257
 30
0.0
 11
1646.751348807
 21
115.0535651257
 31
0.0
  0
LINE
  5
1BA
330
1F
100
AcDbEntity
  8
0
  6
Continuous
 62
     7
370
    15
100
AcDbLine
 10
1646.751348807
 20
2115.053594928
 30
0.0
 11
1675.72911544
 21
2115.053594928
 31
0.0
  0
LINE
  5
1BB
330
1F
100
AcDbEntity
  8
0
  6
Continuous
 62
     7
370
    15
100
AcDbLine
 10
1646.751348807
 20
115.0535651257
 30
0.0
 11
1641.8337867991
 21
115.0535651257
 31
0.0
  0
LINE
  5
1BC
330
1F
100
AcDbEntity
  8
0
  6
Continuous
 62
     7
370
    15
100
AcDbLine
 10
1646.751348807
 20
2115.053594928
 30
0.0
 11
1641.8337867991
 21
2115.053594928
 31
0.0
  0
ARC
  5
1BD
330
1F
100
AcDbEntity
  8
0
  6
Continuous
 62
     7
370
    15
100
AcDbCircle
 10
1728.8725421053
 20
1181.9272297673
 30
0.0
 40
46.874327561897
100
AcDbArc
 50
244.5426203347
 51
264.8616936711
  0
ARC
  5
1BE
330
1F
100
AcDbEntity
  8
0
  6
Continuous
 62
     7
370
    15
100
AcDbCircle
 10
1728.8820268108
 20
673.1416656827
 30
0.0
 40
46.91192627833917
100
AcDbArc
 50
90.0329593051
 51
113.7784348204
  0
ARC
  5
1BF
330
1F
100
AcDbEntity
  8
0
  6
Continuous
 62
     7
370
    15
100
AcDbCircle
 10
1728.8819701051
 20
298.141846869
 30
0.0
 40
46.91173760885294
100
AcDbArc
 50
90.03289018
 51
113.7784606672
  0
ARC
  5
1C0
330
1F
100
AcDbEntity
  8
0
  6
Continuous
 62
     7
370
    15
100
AcDbCircle
 10
1728.8969482833
 20
432.0160997546
 30
0.0
 40
46.96505175209521
100
AcDbArc
 50
244.5623329976
 51
264.8417510681
  0
ARC
  5
1C1
330
1F
100
AcDbEntity
  8
0
  6
Continuous
 62
     7
370
    15
100
AcDbCircle
 10
1728.9216865182
 20
1932.1062578015
 30
0.0
 40
47.0571084110551
100
AcDbArc
 50
244.582289796
 51
264.821625803
  0
ARC
  5
1C2
330
1F
100
AcDbEntity
  8
0
  6
Continuous
 62
     7
370
    15
100
AcDbCircle
 10
1728.8817813893
 20
1048.1424786469
 30
0.0
 40
46.9110833714201
100
AcDbArc
 50
90.0326601469
 51
113.7785608656
  0
ARC
  5
1C3
330
1F
100
AcDbEntity
  8
0
  6
Continuous
 62
     7
370
    15
100
AcDbCircle
 10
1728.8969782298
 20
807.016246894
 30
0.0
 40
46.9652080025516
100
AcDbArc
 50
244.5623832085
 51
264.8417315937
  0
ARC
  5
1C4
330
1F
100
AcDbEntity
  8
0
  6
Continuous
 62
     7
370
    15
100
AcDbCircle
 10
1728.9216865182
 20
1557.1062578015
 30
0.0
 40
47.0571084110551
100
AcDbArc
 50
244.582289796
 51
264.821625803
  0
ARC
  5
1C5
330
1F
100
AcDbEntity
  8
0
  6
Continuous
 62
     7
370
    15
100
AcDbCircle
 10
1728.8819920784
 20
1423.1421814913
 30
0.0
 40
46.91144025213945
100
AcDbArc
 50
90.0329172258
 51
113.7786500125
  0
ARC
  5
1C6
330
1F
100
AcDbEntity
  8
0
  6
Continuous
 62
     7
370
    15
100
AcDbCircle
 10
1728.8819920784
 20
1798.1421814913
 30
0.0
 40
46.91144025213945
100
AcDbArc
 50
90.0329172258
 51
113.7786500125
  0
LINE
  5
1C7
330
1F
100
AcDbEntity
  8
0
  6
Continuous
 62
     7
370
    15
100
AcDbLine
 10
1941.3587198988
 20
345.0535767486
 30
0.0
 11
1728.8550408021
 21
345.0535767486
 31
0.0
  0
LINE
  5
1C8
330
1F
100
AcDbEntity
  8
0
  6
Continuous
 62
     7
370
    15
100
AcDbLine
 10
1941.3587198988
 20
720.0535841992
 30
0.0
 11
1728.8550408021
 21
720.0535841992
 31
0.0
  0
LINE
  5
1C9
330
1F
100
AcDbEntity
  8
0
  6
Continuous
 62
     7
370
    15
100
AcDbLine
 10
1941.3587198988
 20
1095.0535543969
 30
0.0
 11
1728.8550408021
 21
1095.0535543969
 31
0.0
  0
LINE
  5
1CA
330
1F
100
AcDbEntity
  8
0
  6
Continuous
 62
     7
370
    15
100
AcDbLine
 10
1941.3587198988
 20
1470.0536140015
 30
0.0
 11
1728.8550408021
 21
1470.0536140015
 31
0.0
  0
LINE
  5
1CB
330
1F
100
AcDbEntity
  8
0
  6
Continuous
 62
     7
370
    15
100
AcDbLine
 10
1941.3587198988
 20
1845.0536140015
 30
0.0
 11
1728.8550408021
 21
1845.0536140015
 31
0.0
  0
ARC
  5
1CC
330
1F
100
AcDbEntity
  8
0
  6
Continuous
 62
     7
370
    15
100
AcDbCircle
 10
1941.3205434636
 20
431.9974288766
 30
0.0
 40
46.94566792057776
100
AcDbArc
 50
273.5844528227
 51
293.7752050977
  0
ARC
  5
1CD
330
1F
100
AcDbEntity
  8
0
  6
Continuous
 62
     7
370
    15
100
AcDbCircle
 10
1941.3334834499
 20
1048.1387431899
 30
0.0
 40
46.91481799458548
100
AcDbArc
 50
64.5556881988
 51
89.9691794162
  0
ARC
  5
1CE
330
1F
100
AcDbEntity
  8
0
  6
Continuous
 62
     7
370
    15
100
AcDbCircle
 10
1941.3209572922
 20
806.9957327685
 30
0.0
 40
46.9439399713043
100
AcDbArc
 50
273.5840788606
 51
293.7755822594
  0
ARC
  5
1CF
330
1F
100
AcDbEntity
  8
0
  6
Continuous
 62
     7
370
    15
100
AcDbCircle
 10
1941.3204426786
 20
1181.9978172302
 30
0.0
 40
46.94608227184667
100
AcDbArc
 50
273.5845443897
 51
293.7751167302
  0
ARC
  5
1D0
330
1F
100
AcDbEntity
  8
0
  6
Continuous
 62
     7
370
    15
100
AcDbCircle
 10
1941.3332242798
 20
673.1379039236
 30
0.0
 40
46.91568720318234
100
AcDbArc
 50
64.5558427425
 51
89.9688634756
  0
ARC
  5
1D1
330
1F
100
AcDbEntity
  8
0
  6
Continuous
 62
     7
370
    15
100
AcDbCircle
 10
1941.3332084194
 20
1423.1375861079
 30
0.0
 40
46.91603482983179
100
AcDbArc
 50
64.556023278
 51
89.968844337
  0
ARC
  5
1D2
330
1F
100
AcDbEntity
  8
0
  6
Continuous
 62
     7
370
    15
100
AcDbCircle
 10
1941.3332084194
 20
1798.1375861079
 30
0.0
 40
46.91603482983179
100
AcDbArc
 50
64.556023278
 51
89.968844337
  0
ARC
  5
1D3
330
1F
100
AcDbEntity
  8
0
  6
Continuous
 62
     7
370
    15
100
AcDbCircle
 10
1941.3201391659
 20
1931.998406281
 30
0.0
 40
46.9466891469806
100
AcDbArc
 50
273.5848691383
 51
293.7751952168
  0
ARC
  5
1D4
330
1F
100
AcDbEntity
  8
0
  6
Continuous
 62
     7
370
    15
100
AcDbCircle
 10
1941.333317521
 20
298.1381355463
 30
0.0
 40
46.91544807937784
100
AcDbArc
 50
64.5558299028
 51
89.9689771884
  0
ARC
  5
1D5
330
1F
100
AcDbEntity
  8
0
  6
Continuous
 62
     7
370
    15
100
AcDbCircle
 10
1941.3201391659
 20
1556.998406281
 30
0.0
 40
46.9466891469806
100
AcDbArc
 50
273.5848691383
 51
293.7751952168
  0
LWPOLYLINE
  5
1D6
330
1F
100
AcDbEntity
  8
0
  6
Continuous
 62
     7
370
    15
100
AcDbPolyline
 90
        3
 70
   128
 43
0.0
 10
1956.6125319735
 20
1139.6234043648
 10
1952.9594676033
 20
1138.0689152291
 10
1948.9609049097
 20
1136.7627390435
  0
ARC
  5
1D7
330
1F
100
AcDbEntity
  8
0
  6
Continuous
 62
     7
370
    15
100
AcDbCircle
 10
1936.4137684599
 20
1048.137498061
 30
0.0
 40
46.91606433077868
100
AcDbArc
 50
65.9233476027
 51
89.9665509264
  0
LWPOLYLINE
  5
1D8
330
1F
100
AcDbEntity
  8
0
  6
Continuous
 62
     7
370
    15
100
AcDbPolyline
 90
        3
 70
   128
 43
0.0
 10
1956.6125319735
 20
764.6233745625
 10
1952.9594676033
 20
763.0689450314
 10
1948.9609049097
 20
761.7627688458
  0
LWPOLYLINE
  5
1D9
330
1F
100
AcDbEntity
  8
0
  6
Continuous
 62
     7
370
    15
100
AcDbPolyline
 90
        3
 70
   128
 43
0.0
 10
1956.6125319735
 20
389.6233801504
 10
1952.9594676033
 20
388.0689447986
 10
1948.9609049097
 20
386.7627664011
  0
ARC
  5
1DA
330
1F
100
AcDbEntity
  8
0
  6
Continuous
 62
     7
370
    15
100
AcDbCircle
 10
1936.4137168929
 20
298.1377480809
 30
0.0
 40
46.9158366927827
100
AcDbArc
 50
65.9231544052
 51
89.9664877881
  0
ARC
  5
1DB
330
1F
100
AcDbEntity
  8
0
  6
Continuous
 62
     7
370
    15
100
AcDbCircle
 10
1936.4137004549
 20
673.137834936
 30
0.0
 40
46.91575729788876
100
AcDbArc
 50
65.9230890917
 51
89.9664676565
  0
ARC
  5
1DC
330
1F
100
AcDbEntity
  8
0
  6
Continuous
 62
     7
370
    15
100
AcDbCircle
 10
1936.4135585863
 20
1798.137200448
 30
0.0
 40
46.91642167137007
100
AcDbArc
 50
65.9232618711
 51
89.966294877
  0
LWPOLYLINE
  5
1DD
330
1F
100
AcDbEntity
  8
0
  6
Continuous
 62
     7
370
    15
100
AcDbPolyline
 90
        3
 70
   128
 43
0.0
 10
1956.6125319735
 20
1514.6233447602
 10
1952.9594676033
 20
1513.0689748337
 10
1948.9609049097
 20
1511.7627986481
  0
LWPOLYLINE
  5
1DE
330
1F
100
AcDbEntity
  8
0
  6
Continuous
 62
     7
370
    15
100
AcDbPolyline
 90
        3
 70
   128
 43
0.0
 10
1956.6125319735
 20
1889.6233447602
 10
1952.9594676033
 20
1888.0689748337
 10
1948.9609049097
 20
1886.7627986481
  0
ARC
  5
1DF
330
1F
100
AcDbEntity
  8
0
  6
Continuous
 62
     7
370
    15
100
AcDbCircle
 10
1936.4135585863
 20
1423.137200448
 30
0.0
 40
46.91642167137007
100
AcDbArc
 50
65.9232618711
 51
89.966294877
  0
LINE
  5
1E0
330
1F
100
AcDbEntity
  8
0
  6
Continuous
 62
     7
370
    15
100
AcDbLine
 10
2023.4624193445
 20
115.0535651257
 30
0.0
 11
1994.4846378103
 21
115.0535651257
 31
0.0
  0
LINE
  5
1E1
330
1F
100
AcDbEntity
  8
0
  6
Continuous
 62
     7
370
    15
100
AcDbLine
 10
1994.4846378103
 20
2115.053594928
 30
0.0
 11
2023.4624193445
 21
2115.053594928
 31
0.0
  0
LINE
  5
1E2
330
1F
100
AcDbEntity
  8
0
  6
Continuous
 62
     7
370
    15
100
AcDbLine
 10
1994.4846378103
 20
115.0535651257
 30
0.0
 11
1989.5670758024
 21
115.0535651257
 31
0.0
  0
LINE
  5
1E3
330
1F
100
AcDbEntity
  8
0
  6
Continuous
 62
     7
370
    15
100
AcDbLine
 10
1994.4846378103
 20
2115.053594928
 30
0.0
 11
1989.5670758024
 21
2115.053594928
 31
0.0
  0
LINE
  5
1E4
330
1F
100
AcDbEntity
  8
0
  6
Continuous
 62
     7
370
    15
100
AcDbLine
 10
1939.7884429828
 20
385.0535758545
 30
0.0
 11
1729.7884495393
 21
385.0535758545
 31
0.0
  0
LINE
  5
1E5
330
1F
100
AcDbEntity
  8
0
  6
Continuous
 62
     7
370
    15
100
AcDbLine
 10
1729.7884495393
 20
410.0535762271
 30
0.0
 11
1939.7884429828
 21
410.0535762271
 31
0.0
  0
ARC
  5
1E6
330
1F
100
AcDbEntity
  8
0
  6
Continuous
 62
     7
370
    15
100
AcDbCircle
 10
1942.788446261
 20
397.0535758545
 30
0.0
 40
12.0
100
AcDbArc
 50
270.0
 51
0.0
  0
LINE
  5
1E7
330
1F
100
AcDbEntity
  8
0
  6
Continuous
 62
     7
370
    15
100
AcDbLine
 10
1942.7884490625
 20
385.0535758545
 30
0.0
 11
1939.7884429828
 21
385.0535758545
 31
0.0
  0
LINE
  5
1E8
330
1F
100
AcDbEntity
  8
0
  6
Continuous
 62
     7
370
    15
100
AcDbLine
 10
1954.7884435788
 20
410.0535762271
 30
0.0
 11
1954.7884435788
 21
397.0535759588
 31
0.0
  0
LINE
  5
1E9
330
1F
100
AcDbEntity
  8
0
  6
Continuous
 62
     7
370
    15
100
AcDbLine
 10
1939.7884429828
 20
410.0535762271
 30
0.0
 11
1954.7884435788
 21
410.0535762271
 31
0.0
  0
LINE
  5
1EA
330
1F
100
AcDbEntity
  8
0
  6
Continuous
 62
     7
370
    15
100
AcDbLine
 10
1714.7884489433
 20
410.0535762271
 30
0.0
 11
1714.7884489433
 21
397.0535759588
 31
0.0
  0
LINE
  5
1EB
330
1F
100
AcDbEntity
  8
0
  6
Continuous
 62
     7
370
    15
100
AcDbLine
 10
1714.7884489433
 20
410.0535762271
 30
0.0
 11
1729.7884495393
 21
410.0535762271
 31
0.0
  0
LINE
  5
1EC
330
1F
100
AcDbEntity
  8
0
  6
Continuous
 62
     7
370
    15
100
AcDbLine
 10
1729.7884495393
 20
385.0535758545
 30
0.0
 11
1726.7884434596
 21
385.0535758545
 31
0.0
  0
ARC
  5
1ED
330
1F
100
AcDbEntity
  8
0
  6
Continuous
 62
     7
370
    15
100
AcDbCircle
 10
1726.788446261
 20
397.0535758545
 30
0.0
 40
12.0
100
AcDbArc
 50
180.0
 51
270.0
  0
LINE
  5
1EE
330
1F
100
AcDbEntity
  8
0
  6
Continuous
 62
     7
370
    15
100
AcDbLine
 10
1729.7884495393
 20
1535.0535520127
 30
0.0
 11
1939.7884429828
 21
1535.0535520127
 31
0.0
  0
LINE
  5
1EF
330
1F
100
AcDbEntity
  8
0
  6
Continuous
 62
     7
370
    15
100
AcDbLine
 10
1939.7884429828
 20
1510.0535758545
 30
0.0
 11
1729.7884495393
 21
1510.0535758545
 31
0.0
  0
ARC
  5
1F0
330
1F
100
AcDbEntity
  8
0
  6
Continuous
 62
     7
370
    15
100
AcDbCircle
 10
1942.788446261
 20
1522.0535758545
 30
0.0
 40
12.0
100
AcDbArc
 50
270.0
 51
0.0
  0
LINE
  5
1F1
330
1F
100
AcDbEntity
  8
0
  6
Continuous
 62
     7
370
    15
100
AcDbLine
 10
1942.7884490625
 20
1510.0535758545
 30
0.0
 11
1939.7884429828
 21
1510.0535758545
 31
0.0
  0
LINE
  5
1F2
330
1F
100
AcDbEntity
  8
0
  6
Continuous
 62
     7
370
    15
100
AcDbLine
 10
1954.7884435788
 20
1535.0535520127
 30
0.0
 11
1954.7884435788
 21
1522.0535405686
 31
0.0
  0
LINE
  5
1F3
330
1F
100
AcDbEntity
  8
0
  6
Continuous
 62
     7
370
    15
100
AcDbLine
 10
1939.7884429828
 20
1535.0535520127
 30
0.0
 11
1954.7884435788
 21
1535.0535520127
 31
0.0
  0
LINE
  5
1F4
330
1F
100
AcDbEntity
  8
0
  6
Continuous
 62
     7
370
    15
100
AcDbLine
 10
1714.7884489433
 20
1535.0535520127
 30
0.0
 11
1714.7884489433
 21
1522.0535405686
 31
0.0
  0
LINE
  5
1F5
330
1F
100
AcDbEntity
  8
0
  6
Continuous
 62
     7
370
    15
100
AcDbLine
 10
1714.7884489433
 20
1535.0535520127
 30
0.0
 11
1729.7884495393
 21
1535.0535520127
 31
0.0
  0
LINE
  5
1F6
330
1F
100
AcDbEntity
  8
0
  6
Continuous
 62
     7
370
    15
100
AcDbLine
 10
1729.7884495393
 20
1510.0535758545
 30
0.0
 11
1726.7884434596
 21
1510.0535758545
 31
0.0
  0
ARC
  5
1F7
330
1F
100
AcDbEntity
  8
0
  6
Continuous
 62
     7
370
    15
100
AcDbCircle
 10
1726.788446261
 20
1522.0535758545
 30
0.0
 40
12.0
100
AcDbArc
 50
180.0
 51
270.0
  0
LINE
  5
1F8
330
1F
100
AcDbEntity
  8
0
  6
Continuous
 62
     7
370
    15
100
AcDbLine
 10
1729.7884495393
 20
785.053581815
 30
0.0
 11
1939.7884429828
 21
785.053581815
 31
0.0
  0
LINE
  5
1F9
330
1F
100
AcDbEntity
  8
0
  6
Continuous
 62
     7
370
    15
100
AcDbLine
 10
1939.7884429828
 20
760.0535758545
 30
0.0
 11
1729.7884495393
 21
760.0535758545
 31
0.0
  0
ARC
  5
1FA
330
1F
100
AcDbEntity
  8
0
  6
Continuous
 62
     7
370
    15
100
AcDbCircle
 10
1942.788446261
 20
772.0535758545
 30
0.0
 40
12.0
100
AcDbArc
 50
270.0
 51
0.0
  0
LINE
  5
1FB
330
1F
100
AcDbEntity
  8
0
  6
Continuous
 62
     7
370
    15
100
AcDbLine
 10
1942.7884490625
 20
760.0535758545
 30
0.0
 11
1939.7884429828
 21
760.0535758545
 31
0.0
  0
LINE
  5
1FC
330
1F
100
AcDbEntity
  8
0
  6
Continuous
 62
     7
370
    15
100
AcDbLine
 10
1954.7884435788
 20
785.053581815
 30
0.0
 11
1954.7884435788
 21
772.0535703709
 31
0.0
  0
LINE
  5
1FD
330
1F
100
AcDbEntity
  8
0
  6
Continuous
 62
     7
370
    15
100
AcDbLine
 10
1939.7884429828
 20
785.053581815
 30
0.0
 11
1954.7884435788
 21
785.053581815
 31
0.0
  0
LINE
  5
1FE
330
1F
100
AcDbEntity
  8
0
  6
Continuous
 62
     7
370
    15
100
AcDbLine
 10
1714.7884489433
 20
785.053581815
 30
0.0
 11
1714.7884489433
 21
772.0535703709
 31
0.0
  0
LINE
  5
1FF
330
1F
100
AcDbEntity
  8
0
  6
Continuous
 62
     7
370
    15
100
AcDbLine
 10
1714.7884489433
 20
785.053581815
 30
0.0
 11
1729.7884495393
 21
785.053581815
 31
0.0
  0
LINE
  5
200
330
1F
100
AcDbEntity
  8
0
  6
Continuous
 62
     7
370
    15
100
AcDbLine
 10
1729.7884495393
 20
760.0535758545
 30
0.0
 11
1726.7884434596
 21
760.0535758545
 31
0.0
  0
ARC
  5
201
330
1F
100
AcDbEntity
  8
0
  6
Continuous
 62
     7
370
    15
100
AcDbCircle
 10
1726.788446261
 20
772.0535758545
 30
0.0
 40
12.0
100
AcDbArc
 50
180.0
 51
270.0
  0
LINE
  5
202
330
1F
100
AcDbEntity
  8
0
  6
Continuous
 62
     7
370
    15
100
AcDbLine
 10
1729.7884495393
 20
1160.0535520127
 30
0.0
 11
1939.7884429828
 21
1160.0535520127
 31
0.0
  0
LINE
  5
203
330
1F
100
AcDbEntity
  8
0
  6
Continuous
 62
     7
370
    15
100
AcDbLine
 10
1939.7884429828
 20
1135.0535758545
 30
0.0
 11
1729.7884495393
 21
1135.0535758545
 31
0.0
  0
ARC
  5
204
330
1F
100
AcDbEntity
  8
0
  6
Continuous
 62
     7
370
    15
100
AcDbCircle
 10
1942.788446261
 20
1147.0535758545
 30
0.0
 40
12.0
100
AcDbArc
 50
270.0
 51
0.0
  0
LINE
  5
205
330
1F
100
AcDbEntity
  8
0
  6
Continuous
 62
     7
370
    15
100
AcDbLine
 10
1942.7884490625
 20
1135.0535758545
 30
0.0
 11
1939.7884429828
 21
1135.0535758545
 31
0.0
  0
LINE
  5
206
330
1F
100
AcDbEntity
  8
0
  6
Continuous
 62
     7
370
    15
100
AcDbLine
 10
1954.7884435788
 20
1160.0535520127
 30
0.0
 11
1954.7884435788
 21
1147.0536001732
 31
0.0
  0
LINE
  5
207
330
1F
100
AcDbEntity
  8
0
  6
Continuous
 62
     7
370
    15
100
AcDbLine
 10
1939.7884429828
 20
1160.0535520127
 30
0.0
 11
1954.7884435788
 21
1160.0535520127
 31
0.0
  0
LINE
  5
208
330
1F
100
AcDbEntity
  8
0
  6
Continuous
 62
     7
370
    15
100
AcDbLine
 10
1714.7884489433
 20
1160.0535520127
 30
0.0
 11
1714.7884489433
 21
1147.0536001732
 31
0.0
  0
LINE
  5
209
330
1F
100
AcDbEntity
  8
0
  6
Continuous
 62
     7
370
    15
100
AcDbLine
 10
1714.7884489433
 20
1160.0535520127
 30
0.0
 11
1729.7884495393
 21
1160.0535520127
 31
0.0
  0
LINE
  5
20A
330
1F
100
AcDbEntity
  8
0
  6
Continuous
 62
     7
370
    15
100
AcDbLine
 10
1729.7884495393
 20
1135.0535758545
 30
0.0
 11
1726.7884434596
 21
1135.0535758545
 31
0.0
  0
ARC
  5
20B
330
1F
100
AcDbEntity
  8
0
  6
Continuous
 62
     7
370
    15
100
AcDbCircle
 10
1726.788446261
 20
1147.0535758545
 30
0.0
 40
12.0
100
AcDbArc
 50
180.0
 51
270.0
  0
LINE
  5
20C
330
1F
100
AcDbEntity
  8
0
  6
Continuous
 62
     7
370
    15
100
AcDbLine
 10
1939.7884429828
 20
1885.0535758545
 30
0.0
 11
1729.7884495393
 21
1885.0535758545
 31
0.0
  0
LINE
  5
20D
330
1F
100
AcDbEntity
  8
0
  6
Continuous
 62
     7
370
    15
100
AcDbLine
 10
1729.7884495393
 20
1910.0535520127
 30
0.0
 11
1939.7884429828
 21
1910.0535520127
 31
0.0
  0
ARC
  5
20E
330
1F
100
AcDbEntity
  8
0
  6
Continuous
 62
     7
370
    15
100
AcDbCircle
 10
1942.788446261
 20
1897.0535758545
 30
0.0
 40
12.0
100
AcDbArc
 50
270.0
 51
0.0
  0
LINE
  5
20F
330
1F
100
AcDbEntity
  8
0
  6
Continuous
 62
     7
370
    15
100
AcDbLine
 10
1942.7884490625
 20
1885.0535758545
 30
0.0
 11
1939.7884429828
 21
1885.0535758545
 31
0.0
  0
LINE
  5
210
330
1F
100
AcDbEntity
  8
0
  6
Continuous
 62
     7
370
    15
100
AcDbLine
 10
1954.7884435788
 20
1910.0535520127
 30
0.0
 11
1954.7884435788
 21
1897.0535405686
 31
0.0
  0
LINE
  5
211
330
1F
100
AcDbEntity
  8
0
  6
Continuous
 62
     7
370
    15
100
AcDbLine
 10
1939.7884429828
 20
1910.0535520127
 30
0.0
 11
1954.7884435788
 21
1910.0535520127
 31
0.0
  0
LINE
  5
212
330
1F
100
AcDbEntity
  8
0
  6
Continuous
 62
     7
370
    15
100
AcDbLine
 10
1729.7884495393
 20
1885.0535758545
 30
0.0
 11
1726.7884434596
 21
1885.0535758545
 31
0.0
  0
ARC
  5
213
330
1F
100
AcDbEntity
  8
0
  6
Continuous
 62
     7
370
    15
100
AcDbCircle
 10
1726.788446261
 20
1897.0535758545
 30
0.0
 40
12.0
100
AcDbArc
 50
180.0
 51
270.0
  0
LINE
  5
214
330
1F
100
AcDbEntity
  8
0
  6
Continuous
 62
     7
370
    15
100
AcDbLine
 10
1714.7884489433
 20
1910.0535520127
 30
0.0
 11
1714.7884489433
 21
1897.0535405686
 31
0.0
  0
LINE
  5
215
330
1F
100
AcDbEntity
  8
0
  6
Continuous
 62
     7
370
    15
100
AcDbLine
 10
1714.7884489433
 20
1910.0535520127
 30
0.0
 11
1729.7884495393
 21
1910.0535520127
 31
0.0
  0
ENDSEC
  0
SECTION
  2
OBJECTS
  0
DICTIONARY
  5
C
330
0
100
AcDbDictionary
281
     1
  3
ACAD_GROUP
350
D
  3
ACAD_LAYOUT
350
1A
  3
ACAD_MLINESTYLE
350
17
  3
ACAD_PLOTSETTINGS
350
19
  3
ACAD_PLOTSTYLENAME
350
E
  3
ACAD_SCALELIST
350
47
  0
DICTIONARY
  5
D
102
{ACAD_REACTORS
330
C
102
}
330
C
100
AcDbDictionary
281
     1
  0
DICTIONARY
  5
1A
102
{ACAD_REACTORS
330
C
102
}
330
C
100
AcDbDictionary
281
     1
  3
Layout1
350
1E
  3
Layout2
350
26
  3
Model
350
22
  0
DICTIONARY
  5
17
102
{ACAD_REACTORS
330
C
102
}
330
C
100
AcDbDictionary
281
     1
  3
Standard
350
18
  0
DICTIONARY
  5
19
102
{ACAD_REACTORS
330
C
102
}
330
C
100
AcDbDictionary
281
     1
  0
ACDBDICTIONARYWDFLT
  5
E
102
{ACAD_REACTORS
330
C
102
}
330
C
100
AcDbDictionary
281
     1
  3
Normal
350
F
100
AcDbDictionaryWithDefault
340
F
  0
DICTIONARY
  5
47
102
{ACAD_REACTORS
330
C
102
}
330
C
100
AcDbDictionary
281
     1
  3
A0
350
48
  3
A1
350
49
  3
A2
350
4A
  3
A3
350
4B
  3
A4
350
4C
  3
A5
350
4D
  3
A6
350
4E
  3
A7
350
4F
  3
A8
350
50
  3
A9
350
51
  3
B0
350
52
  3
B1
350
53
  3
B2
350
54
  3
B3
350
55
  3
B4
350
56
  3
B5
350
57
  3
B6
350
58
  3
B7
350
59
  3
B8
350
5A
  3
B9
350
5B
  3
C0
350
5C
  3
C1
350
5D
  3
C2
350
5E
  3
C3
350
5F
  3
C4
350
60
  3
C5
350
61
  3
C6
350
62
  3
C7
350
63
  3
C8
350
64
  3
C9
350
65
  3
D0
350
66
  3
D1
350
67
  3
D2
350
68
  0
LAYOUT
  5
1E
102
{ACAD_REACTORS
330
1A
102
}
330
1A
100
AcDbPlotSettings
  1

  2
none_device
  4

  6

 40
0.0
 41
0.0
 42
0.0
 43
0.0
 44
0.0
 45
0.0
 46
0.0
 47
0.0
 48
0.0
 49
0.0
140
0.0
141
0.0
142
1.0
143
1.0
 70
   688
 72
     1
 73
     0
 74
     5
  7

 75
    16
147
1.0
148
0.0
149
0.0
100
AcDbLayout
  1
Layout1
 70
     1
 71
     1
 10
0.0
 20
0.0
 11
420.0
 21
297.0
 12
0.0
 22
0.0
 32
0.0
 14
1.0000000000E+20
 24
1.0000000000E+20
 34
1.0000000000E+20
 15
-1.0000000000E+20
 25
-1.0000000000E+20
 35
-1.0000000000E+20
146
0.0
 13
0.0
 23
0.0
 33
0.0
 16
1.0
 26
0.0
 36
0.0
 17
0.0
 27
1.0
 37
0.0
 76
     0
330
1B
  0
LAYOUT
  5
26
102
{ACAD_REACTORS
330
1A
102
}
330
1A
100
AcDbPlotSettings
  1

  2
none_device
  4

  6

 40
0.0
 41
0.0
 42
0.0
 43
0.0
 44
0.0
 45
0.0
 46
0.0
 47
0.0
 48
0.0
 49
0.0
140
0.0
141
0.0
142
1.0
143
1.0
 70
   688
 72
     1
 73
     0
 74
     5
  7

 75
    16
147
1.0
148
0.0
149
0.0
100
AcDbLayout
  1
Layout2
 70
     1
 71
     2
 10
0.0
 20
0.0
 11
0.0
 21
0.0
 12
0.0
 22
0.0
 32
0.0
 14
0.0
 24
0.0
 34
0.0
 15
0.0
 25
0.0
 35
0.0
146
0.0
 13
0.0
 23
0.0
 33
0.0
 16
1.0
 26
0.0
 36
0.0
 17
0.0
 27
1.0
 37
0.0
 76
     0
330
23
  0
LAYOUT
  5
22
102
{ACAD_REACTORS
330
1A
102
}
330
1A
100
AcDbPlotSettings
  1

  2
none_device
  4
Letter_(8.50_x_11.00_Inches)
  6

 40
6.35
 41
6.35
 42
6.35000508
 43
6.35000508
 44
215.9
 45
279.4
 46
0.0
 47
0.0
 48
0.0
 49
0.0
140
0.0
141
0.0
142
1.0
143
1.0
 70
  1712
 72
     1
 73
     0
 74
     0
  7

 75
     0
147
1.0
148
0.0
149
0.0
100
AcDbLayout
  1
Model
 70
     1
 71
     0
 10
0.0
 20
0.0
 11
4000.0
 21
4000.0
 12
0.0
 22
0.0
 32
0.0
 14
0.0
 24
0.0
 34
0.0
 15
4000.0
 25
4000.0
 35
0.0
146
0.0
 13
0.0
 23
0.0
 33
0.0
 16
1.0
 26
0.0
 36
0.0
 17
0.0
 27
1.0
 37
0.0
 76
     0
330
1F
331
29
  0
MLINESTYLE
  5
18
102
{ACAD_REACTORS
330
17
102
}
330
17
100
AcDbMlineStyle
  2
Standard
 70
     0
  3

 62
   256
 51
90.0
 52
90.0
 71
     2
 49
0.5
 62
   256
  6
BYLAYER
 49
-0.5
 62
   256
  6
BYLAYER
  0
ACDBPLACEHOLDER
  5
F
102
{ACAD_REACTORS
330
E
102
}
330
E
  0
SCALE
  5
48
102
{ACAD_REACTORS
330
47
102
}
330
47
100
AcDbScale
 70
     0
300
1:1
140
1.0
141
1.0
290
     1
  0
SCALE
  5
49
102
{ACAD_REACTORS
330
47
102
}
330
47
100
AcDbScale
 70
     0
300
1:2
140
1.0
141
2.0
290
     0
  0
SCALE
  5
4A
102
{ACAD_REACTORS
330
47
102
}
330
47
100
AcDbScale
 70
     0
300
1:4
140
1.0
141
4.0
290
     0
  0
SCALE
  5
4B
102
{ACAD_REACTORS
330
47
102
}
330
47
100
AcDbScale
 70
     0
300
1:5
140
1.0
141
5.0
290
     0
  0
SCALE
  5
4C
102
{ACAD_REACTORS
330
47
102
}
330
47
100
AcDbScale
 70
     0
300
1:8
140
1.0
141
8.0
290
     0
  0
SCALE
  5
4D
102
{ACAD_REACTORS
330
47
102
}
330
47
100
AcDbScale
 70
     0
300
1:10
140
1.0
141
10.0
290
     0
  0
SCALE
  5
4E
102
{ACAD_REACTORS
330
47
102
}
330
47
100
AcDbScale
 70
     0
300
1:16
140
1.0
141
16.0
290
     0
  0
SCALE
  5
4F
102
{ACAD_REACTORS
330
47
102
}
330
47
100
AcDbScale
 70
     0
300
1:20
140
1.0
141
20.0
290
     0
  0
SCALE
  5
50
102
{ACAD_REACTORS
330
47
102
}
330
47
100
AcDbScale
 70
     0
300
1:30
140
1.0
141
30.0
290
     0
  0
SCALE
  5
51
102
{ACAD_REACTORS
330
47
102
}
330
47
100
AcDbScale
 70
     0
300
1:40
140
1.0
141
40.0
290
     0
  0
SCALE
  5
52
102
{ACAD_REACTORS
330
47
102
}
330
47
100
AcDbScale
 70
     0
300
1:50
140
1.0
141
50.0
290
     0
  0
SCALE
  5
53
102
{ACAD_REACTORS
330
47
102
}
330
47
100
AcDbScale
 70
     0
300
1:100
140
1.0
141
100.0
290
     0
  0
SCALE
  5
54
102
{ACAD_REACTORS
330
47
102
}
330
47
100
AcDbScale
 70
     0
300
2:1
140
2.0
141
1.0
290
     0
  0
SCALE
  5
55
102
{ACAD_REACTORS
330
47
102
}
330
47
100
AcDbScale
 70
     0
300
4:1
140
4.0
141
1.0
290
     0
  0
SCALE
  5
56
102
{ACAD_REACTORS
330
47
102
}
330
47
100
AcDbScale
 70
     0
300
8:1
140
8.0
141
1.0
290
     0
  0
SCALE
  5
57
102
{ACAD_REACTORS
330
47
102
}
330
47
100
AcDbScale
 70
     0
300
10:1
140
10.0
141
1.0
290
     0
  0
SCALE
  5
58
102
{ACAD_REACTORS
330
47
102
}
330
47
100
AcDbScale
 70
     0
300
100:1
140
100.0
141
1.0
290
     0
  0
SCALE
  5
59
102
{ACAD_REACTORS
330
47
102
}
330
47
100
AcDbScale
 70
     0
300
1/128" = 1'-0"
140
0.0078125
141
12.0
290
     0
  0
SCALE
  5
5A
102
{ACAD_REACTORS
330
47
102
}
330
47
100
AcDbScale
 70
     0
300
1/64" = 1'-0"
140
0.015625
141
12.0
290
     0
  0
SCALE
  5
5B
102
{ACAD_REACTORS
330
47
102
}
330
47
100
AcDbScale
 70
     0
300
1/32" = 1'-0"
140
0.03125
141
12.0
290
     0
  0
SCALE
  5
5C
102
{ACAD_REACTORS
330
47
102
}
330
47
100
AcDbScale
 70
     0
300
1/16" = 1'-0"
140
0.0625
141
12.0
290
     0
  0
SCALE
  5
5D
102
{ACAD_REACTORS
330
47
102
}
330
47
100
AcDbScale
 70
     0
300
3/32" = 1'-0"
140
0.09375
141
12.0
290
     0
  0
SCALE
  5
5E
102
{ACAD_REACTORS
330
47
102
}
330
47
100
AcDbScale
 70
     0
300
1/8" = 1'-0"
140
0.125
141
12.0
290
     0
  0
SCALE
  5
5F
102
{ACAD_REACTORS
330
47
102
}
330
47
100
AcDbScale
 70
     0
300
3/16" = 1'-0"
140
0.1875
141
12.0
290
     0
  0
SCALE
  5
60
102
{ACAD_REACTORS
330
47
102
}
330
47
100
AcDbScale
 70
     0
300
1/4" = 1'-0"
140
0.25
141
12.0
290
     0
  0
SCALE
  5
61
102
{ACAD_REACTORS
330
47
102
}
330
47
100
AcDbScale
 70
     0
300
3/8" = 1'-0"
140
0.375
141
12.0
290
     0
  0
SCALE
  5
62
102
{ACAD_REACTORS
330
47
102
}
330
47
100
AcDbScale
 70
     0
300
1/2" = 1'-0"
140
0.5
141
12.0
290
     0
  0
SCALE
  5
63
102
{ACAD_REACTORS
330
47
102
}
330
47
100
AcDbScale
 70
     0
300
3/4" = 1'-0"
140
0.75
141
12.0
290
     0
  0
SCALE
  5
64
102
{ACAD_REACTORS
330
47
102
}
330
47
100
AcDbScale
 70
     0
300
1" = 1'-0"
140
1.0
141
12.0
290
     0
  0
SCALE
  5
65
102
{ACAD_REACTORS
330
47
102
}
330
47
100
AcDbScale
 70
     0
300
1-1/2" = 1'-0"
140
1.5
141
12.0
290
     0
  0
SCALE
  5
66
102
{ACAD_REACTORS
330
47
102
}
330
47
100
AcDbScale
 70
     0
300
3" = 1'-0"
140
3.0
141
12.0
290
     0
  0
SCALE
  5
67
102
{ACAD_REACTORS
330
47
102
}
330
47
100
AcDbScale
 70
     0
300
6" = 1'-0"
140
6.0
141
12.0
290
     0
  0
SCALE
  5
68
102
{ACAD_REACTORS
330
47
102
}
330
47
100
AcDbScale
 70
     0
300
1'-0" = 1'-0"
140
12.0
141
12.0
290
     0
  0
ENDSEC
  0
EOF
