  0
SECTION
  2
HEADER
  9
$ACADVER
  1
AC1015
  9
$ACADMAINTVER
 70
     6
  9
$DWGCODEPAGE
  3
ANSI_1252
  9
$INSBASE
 10
0.0
 20
0.0
 30
0.0
  9
$EXTMIN
 10
0.0
 20
0.0
 30
0.0
  9
$EXTMAX
 10
1189.0
 20
841.0
 30
0.0
  9
$LIMMIN
 10
0.0
 20
0.0
  9
$LIMMAX
 10
1189.0
 20
841.0
  9
$ORTHOMODE
 70
     0
  9
$REGENMODE
 70
     1
  9
$FILLMODE
 70
     1
  9
$QTEXTMODE
 70
     0
  9
$MIRRTEXT
 70
     1
  9
$LTSCALE
 40
1.0
  9
$ATTMODE
 70
     1
  9
$TEXTSIZE
 40
3.5
  9
$TRACEWID
 40
1.0
  9
$TEXTSTYLE
  7
Standard
  9
$CLAYER
  8
0
  9
$CELTYPE
  6
ByLayer
  9
$CECOLOR
 62
   256
  9
$CELTSCALE
 40
1.0
  9
$DISPSILH
 70
     0
  9
$DIMSCALE
 40
1.0
  9
$DIMASZ
 40
3.302
  9
$DIMEXO
 40
1.0
  9
$DIMDLI
 40
3.75
  9
$DIMRND
 40
0.0
  9
$DIMDLE
 40
0.0
  9
$DIMEXE
 40
1.0
  9
$DIMTP
 40
0.0
  9
$DIMTM
 40
0.0
  9
$DIMTXT
 40
3.5
  9
$DIMCEN
 40
2.5
  9
$DIMTSZ
 40
0.0
  9
$DIMTOL
 70
     0
  9
$DIMLIM
 70
     0
  9
$DIMTIH
 70
     1
  9
$DIMTOH
 70
     1
  9
$DIMSE1
 70
     0
  9
$DIMSE2
 70
     0
  9
$DIMTAD
 70
     1
  9
$DIMZIN
 70
     0
  9
$DIMBLK
  1

  9
$DIMASO
 70
     1
  9
$DIMSHO
 70
     1
  9
$DIMPOST
  1

  9
$DIMAPOST
  1

  9
$DIMALT
 70
     0
  9
$DIMALTD
 70
     3
  9
$DIMALTF
 40
0.0393700787
  9
$DIMLFAC
 40
5.0
  9
$DIMTOFL
 70
     1
  9
$DIMTVP
 40
0.0
  9
$DIMTIX
 70
     0
  9
$DIMSOXD
 70
     0
  9
$DIMSAH
 70
     0
  9
$DIMBLK1
  1

  9
$DIMBLK2
  1

  9
$DIMSTYLE
  2
ISO-25
  9
$DIMCLRD
 70
     0
  9
$DIMCLRE
 70
     0
  9
$DIMCLRT
 70
     0
  9
$DIMTFAC
 40
1.0
  9
$DIMGAP
 40
1.524
  9
$DIMJUST
 70
     0
  9
$DIMSD1
 70
     0
  9
$DIMSD2
 70
     0
  9
$DIMTOLJ
 70
     0
  9
$DIMTZIN
 70
     0
  9
$DIMALTZ
 70
     0
  9
$DIMALTTZ
 70
     0
  9
$DIMUPT
 70
     0
  9
$DIMDEC
 70
     2
  9
$DIMTDEC
 70
     2
  9
$DIMALTU
 70
     2
  9
$DIMALTTD
 70
     3
  9
$DIMTXSTY
  7
Standard
  9
$DIMAUNIT
 70
     0
  9
$DIMADEC
 70
     2
  9
$DIMALTRND
 40
0.0
  9
$DIMAZIN
 70
     0
  9
$DIMDSEP
 70
    44
  9
$DIMATFIT
 70
     3
  9
$DIMFRAC
 70
     0
  9
$DIMLDRBLK
  1

  9
$DIMLUNIT
 70
     2
  9
$DIMLWD
 70
    -2
  9
$DIMLWE
 70
    -2
  9
$DIMTMOVE
 70
     0
  9
$LUNITS
 70
     2
  9
$LUPREC
 70
     2
  9
$SKETCHINC
 40
1.0
  9
$FILLETRAD
 40
10.0
  9
$AUNITS
 70
     0
  9
$AUPREC
 70
     2
  9
$MENU
  1
.
  9
$ELEVATION
 40
0.0
  9
$PELEVATION
 40
0.0
  9
$THICKNESS
 40
0.0
  9
$LIMCHECK
 70
     0
  9
$CHAMFERA
 40
0.0
  9
$CHAMFERB
 40
0.0
  9
$CHAMFERC
 40
0.0
  9
$CHAMFERD
 40
0.0
  9
$SKPOLY
 70
     0
  9
$TDCREATE
 40
2458054.732848171
  9
$TDUCREATE
 40
2458054.691181505
  9
$TDUPDATE
 40
2458054.732848356
  9
$TDUUPDATE
 40
2458054.69118169
  9
$TDINDWG
 40
0.0000000116
  9
$TDUSRTIMER
 40
0.0000000116
  9
$USRTIMER
 70
     1
  9
$ANGBASE
 50
0.0
  9
$ANGDIR
 70
     0
  9
$PDMODE
 70
     0
  9
$PDSIZE
 40
-1.0
  9
$PLINEWID
 40
0.0
  9
$SPLFRAME
 70
     0
  9
$SPLINETYPE
 70
     6
  9
$SPLINESEGS
 70
     8
  9
$HANDSEED
  5
337
  9
$SURFTAB1
 70
     6
  9
$SURFTAB2
 70
     6
  9
$SURFTYPE
 70
     6
  9
$SURFU
 70
     6
  9
$SURFV
 70
     6
  9
$UCSBASE
  2

  9
$UCSNAME
  2

  9
$UCSORG
 10
0.0
 20
0.0
 30
0.0
  9
$UCSXDIR
 10
1.0
 20
0.0
 30
0.0
  9
$UCSYDIR
 10
0.0
 20
1.0
 30
0.0
  9
$UCSORTHOREF
  2

  9
$UCSORTHOVIEW
 70
     0
  9
$UCSORGTOP
 10
0.0
 20
0.0
 30
0.0
  9
$UCSORGBOTTOM
 10
0.0
 20
0.0
 30
0.0
  9
$UCSORGLEFT
 10
0.0
 20
0.0
 30
0.0
  9
$UCSORGRIGHT
 10
0.0
 20
0.0
 30
0.0
  9
$UCSORGFRONT
 10
0.0
 20
0.0
 30
0.0
  9
$UCSORGBACK
 10
0.0
 20
0.0
 30
0.0
  9
$PUCSBASE
  2

  9
$PUCSNAME
  2

  9
$PUCSORG
 10
0.0
 20
0.0
 30
0.0
  9
$PUCSXDIR
 10
1.0
 20
0.0
 30
0.0
  9
$PUCSYDIR
 10
0.0
 20
1.0
 30
0.0
  9
$PUCSORTHOREF
  2

  9
$PUCSORTHOVIEW
 70
     0
  9
$PUCSORGTOP
 10
0.0
 20
0.0
 30
0.0
  9
$PUCSORGBOTTOM
 10
0.0
 20
0.0
 30
0.0
  9
$PUCSORGLEFT
 10
0.0
 20
0.0
 30
0.0
  9
$PUCSORGRIGHT
 10
0.0
 20
0.0
 30
0.0
  9
$PUCSORGFRONT
 10
0.0
 20
0.0
 30
0.0
  9
$PUCSORGBACK
 10
0.0
 20
0.0
 30
0.0
  9
$USERI1
 70
     0
  9
$USERI2
 70
     0
  9
$USERI3
 70
     0
  9
$USERI4
 70
     0
  9
$USERI5
 70
     0
  9
$USERR1
 40
0.0
  9
$USERR2
 40
0.0
  9
$USERR3
 40
0.0
  9
$USERR4
 40
0.0
  9
$USERR5
 40
0.0
  9
$WORLDVIEW
 70
     1
  9
$SHADEDGE
 70
     3
  9
$SHADEDIF
 70
    70
  9
$TILEMODE
 70
     1
  9
$MAXACTVP
 70
    64
  9
$PINSBASE
 10
0.0
 20
0.0
 30
0.0
  9
$PLIMCHECK
 70
     0
  9
$PEXTMIN
 10
1.0000000000E+20
 20
1.0000000000E+20
 30
1.0000000000E+20
  9
$PEXTMAX
 10
-1.0000000000E+20
 20
-1.0000000000E+20
 30
-1.0000000000E+20
  9
$PLIMMIN
 10
0.0
 20
0.0
  9
$PLIMMAX
 10
420.0
 20
297.0
  9
$UNITMODE
 70
     0
  9
$VISRETAIN
 70
     1
  9
$PLINEGEN
 70
     0
  9
$PSLTSCALE
 70
     1
  9
$TREEDEPTH
 70
  3020
  9
$CMLSTYLE
  2
Standard
  9
$CMLJUST
 70
     0
  9
$CMLSCALE
 40
20.0
  9
$PROXYGRAPHICS
 70
     1
  9
$MEASUREMENT
 70
     1
  9
$CELWEIGHT
370
    -1
  9
$ENDCAPS
280
     0
  9
$JOINSTYLE
280
     0
  9
$LWDISPLAY
290
     1
  9
$INSUNITS
 70
     4
  9
$HYPERLINKBASE
  1

  9
$STYLESHEET
  1

  9
$XEDIT
290
     1
  9
$CEPSNTYPE
380
     0
  9
$PSTYLEMODE
290
     1
  9
$FINGERPRINTGUID
  2
{F41FC9C7-286B-4D7E-9FC3-609AD88234D3}
  9
$VERSIONGUID
  2
{FAEB1C32-E019-11D5-929B-00C0DF256EC4}
  9
$EXTNAMES
290
     1
  9
$PSVPSCALE
 40
0.0
  9
$OLESTARTUP
290
     0
  0
ENDSEC
  0
SECTION
  2
CLASSES
  0
CLASS
  1
ACDBDICTIONARYWDFLT
  2
AcDbDictionaryWithDefault
  3
ObjectDBX Classes
 90
        0
280
     0
281
     0
  0
CLASS
  1
VISUALSTYLE
  2
AcDbVisualStyle
  3
ObjectDBX Classes
 90
     4095
280
     0
281
     0
  0
CLASS
  1
MATERIAL
  2
AcDbMaterial
  3
ObjectDBX Classes
 90
     1153
280
     0
281
     0
  0
CLASS
  1
SCALE
  2
AcDbScale
  3
ObjectDBX Classes
 90
     1153
280
     0
281
     0
  0
CLASS
  1
TABLESTYLE
  2
AcDbTableStyle
  3
ObjectDBX Classes
 90
     4095
280
     0
281
     0
  0
CLASS
  1
MLEADERSTYLE
  2
AcDbMLeaderStyle
  3
ACDB_MLEADERSTYLE_CLASS
 90
     4095
280
     0
281
     0
  0
CLASS
  1
SUN
  2
AcDbSun
  3
SCENEOE
 90
     1153
280
     0
281
     0
  0
CLASS
  1
ACDBPLACEHOLDER
  2
AcDbPlaceHolder
  3
ObjectDBX Classes
 90
        0
280
     0
281
     0
  0
CLASS
  1
LAYOUT
  2
AcDbLayout
  3
ObjectDBX Classes
 90
        0
280
     0
281
     0
  0
ENDSEC
  0
SECTION
  2
TABLES
  0
TABLE
  2
VPORT
  5
8
330
0
100
AcDbSymbolTable
 70
     1
  0
VPORT
  5
29
330
8
100
AcDbSymbolTableRecord
100
AcDbViewportTableRecord
  2
*Active
 70
     0
 10
0.0
 20
0.0
 11
1.0
 21
1.0
 12
594.5
 22
420.5
 13
0.0
 23
0.0
 14
10.0
 24
10.0
 15
10.0
 25
10.0
 16
0.0
 26
0.0
 36
1.0
 17
0.0
 27
0.0
 37
0.0
 40
841.0
 41
1.4137931034
 42
50.0
 43
0.0
 44
0.0
 50
0.0
 51
0.0
 71
     0
 72
  2000
 73
     1
 74
     3
 75
     0
 76
     0
 77
     0
 78
     0
281
     0
 65
     1
110
0.0
120
0.0
130
0.0
111
1.0
121
0.0
131
0.0
112
0.0
122
1.0
132
0.0
 79
     0
146
0.0
  0
ENDTAB
  0
TABLE
  2
LTYPE
  5
5
330
0
100
AcDbSymbolTable
 70
     6
  0
LTYPE
  5
14
330
5
100
AcDbSymbolTableRecord
100
AcDbLinetypeTableRecord
  2
ByBlock
 70
     0
  3

 72
    65
 73
     0
 40
0.0
  0
LTYPE
  5
15
330
5
100
AcDbSymbolTableRecord
100
AcDbLinetypeTableRecord
  2
ByLayer
 70
     0
  3

 72
    65
 73
     0
 40
0.0
  0
LTYPE
  5
16
330
5
100
AcDbSymbolTableRecord
100
AcDbLinetypeTableRecord
  2
Continuous
 70
     0
  3
Solid line
 72
    65
 73
     0
 40
0.0
  0
LTYPE
  5
6E
330
5
100
AcDbSymbolTableRecord
100
AcDbLinetypeTableRecord
  2
HIDDEN
 70
     0
  3
Hidden __ __ __ __ __ __ __ __ __ __ __ __ __ __
 72
    65
 73
     2
 40
1.905
 49
1.27
 74
     0
 49
-0.635
 74
     0
  0
LTYPE
  5
6F
330
5
100
AcDbSymbolTableRecord
100
AcDbLinetypeTableRecord
  2
PHANTOM
 70
     0
  3
Phantom ______  __  __  ______  __  __  ______
 72
    65
 73
     6
 40
12.7
 49
6.35
 74
     0
 49
-1.27
 74
     0
 49
1.27
 74
     0
 49
-1.27
 74
     0
 49
1.27
 74
     0
 49
-1.27
 74
     0
  0
LTYPE
  5
70
330
5
100
AcDbSymbolTableRecord
100
AcDbLinetypeTableRecord
  2
CENTER
 70
     0
  3
Center ____ _ ____ _ ____ _ ____ _ ____ _ ____
 72
    65
 73
     4
 40
10.16
 49
6.35
 74
     0
 49
-1.27
 74
     0
 49
1.27
 74
     0
 49
-1.27
 74
     0
  0
LTYPE
  5
71
330
5
100
AcDbSymbolTableRecord
100
AcDbLinetypeTableRecord
  2
CENTERX2
 70
     0
  3
Center (2x) ________  __  ________  __  _____
 72
    65
 73
     4
 40
20.32
 49
12.7
 74
     0
 49
-2.54
 74
     0
 49
2.54
 74
     0
 49
-2.54
 74
     0
  0
LTYPE
  5
72
330
5
100
AcDbSymbolTableRecord
100
AcDbLinetypeTableRecord
  2
DOT2
 70
     0
  3
Dot (.5x) ........................................
 72
    65
 73
     2
 40
0.635
 49
0.0
 74
     0
 49
-0.635
 74
     0
  0
ENDTAB
  0
TABLE
  2
LAYER
  5
2
330
0
100
AcDbSymbolTable
 70
     2
  0
LAYER
  5
10
330
2
100
AcDbSymbolTableRecord
100
AcDbLayerTableRecord
  2
0
 70
     0
 62
     7
  6
Continuous
370
    -3
390
F
  0
LAYER
  5
73
330
2
100
AcDbSymbolTableRecord
100
AcDbLayerTableRecord
  2
FORMAT
 70
     0
 62
     7
  6
Continuous
370
    -3
390
F
  0
ENDTAB
  0
TABLE
  2
STYLE
  5
3
330
0
100
AcDbSymbolTable
 70
     1
  0
STYLE
  5
11
330
3
100
AcDbSymbolTableRecord
100
AcDbTextStyleTableRecord
  2
Standard
 70
     0
 40
0.0
 41
1.0
 50
0.0
 71
     0
 42
3.5
  3
txt
  4

  0
ENDTAB
  0
TABLE
  2
VIEW
  5
6
330
0
100
AcDbSymbolTable
 70
     0
  0
ENDTAB
  0
TABLE
  2
UCS
  5
7
330
0
100
AcDbSymbolTable
 70
     0
  0
ENDTAB
  0
TABLE
  2
APPID
  5
9
330
0
100
AcDbSymbolTable
 70
     1
  0
APPID
  5
12
330
9
100
AcDbSymbolTableRecord
100
AcDbRegAppTableRecord
  2
ACAD
 70
     0
  0
ENDTAB
  0
TABLE
  2
DIMSTYLE
  5
A
330
0
100
AcDbSymbolTable
 70
     1
100
AcDbDimStyleTable
  0
DIMSTYLE
105
27
330
A
100
AcDbSymbolTableRecord
100
AcDbDimStyleTableRecord
  2
ISO-25
 70
     0
 41
2.5
 42
0.625
 43
3.75
 44
1.25
 73
     0
 74
     0
 77
     1
 78
     8
140
2.5
141
2.5
143
0.0393700787
147
0.625
171
     3
172
     1
178
     0
271
     2
272
     2
274
     3
278
    44
283
     0
284
     8
340
11
  0
ENDTAB
  0
TABLE
  2
BLOCK_RECORD
  5
1
330
0
100
AcDbSymbolTable
 70
     1
  0
BLOCK_RECORD
  5
1F
330
1
100
AcDbSymbolTableRecord
100
AcDbBlockTableRecord
  2
*Model_Space
340
22
  0
BLOCK_RECORD
  5
1B
330
1
100
AcDbSymbolTableRecord
100
AcDbBlockTableRecord
  2
*Paper_Space
340
1E
  0
BLOCK_RECORD
  5
23
330
1
100
AcDbSymbolTableRecord
100
AcDbBlockTableRecord
  2
*Paper_Space0
340
26
  0
ENDTAB
  0
ENDSEC
  0
SECTION
  2
BLOCKS
  0
BLOCK
  5
20
330
1F
100
AcDbEntity
  8
0
100
AcDbBlockBegin
  2
*Model_Space
 70
     0
 10
0.0
 20
0.0
 30
0.0
  3
*Model_Space
  1

  0
ENDBLK
  5
21
330
1F
100
AcDbEntity
  8
0
100
AcDbBlockEnd
  0
BLOCK
  5
1C
330
1B
100
AcDbEntity
 67
     1
  8
0
100
AcDbBlockBegin
  2
*Paper_Space
 70
     0
 10
0.0
 20
0.0
 30
0.0
  3
*Paper_Space
  1

  0
ENDBLK
  5
1D
330
1B
100
AcDbEntity
 67
     1
  8
0
100
AcDbBlockEnd
  0
BLOCK
  5
24
330
23
100
AcDbEntity
  8
0
100
AcDbBlockBegin
  2
*Paper_Space0
 70
     0
 10
0.0
 20
0.0
 30
0.0
  3
*Paper_Space0
  1

  0
ENDBLK
  5
25
330
23
100
AcDbEntity
  8
0
100
AcDbBlockEnd
  0
ENDSEC
  0
SECTION
  2
ENTITIES
  0
LINE
  5
74
330
1F
100
AcDbEntity
  8
0
  6
Continuous
 62
     7
370
    15
100
AcDbLine
 10
445.1135167361
 20
279.5247926489
 30
0.0
 11
445.1135167361
 21
222.7247945145
 31
0.0
  0
LINE
  5
75
330
1F
100
AcDbEntity
  8
0
  6
Continuous
 62
     7
370
    15
100
AcDbLine
 10
445.1135167361
 20
279.5247926489
 30
0.0
 11
447.9135194302
 21
279.5247926489
 31
0.0
  0
LINE
  5
76
330
1F
100
AcDbEntity
  8
0
  6
Continuous
 62
     7
370
    15
100
AcDbLine
 10
447.9135194302
 20
222.7247945145
 30
0.0
 11
447.9135194302
 21
279.5247926489
 31
0.0
  0
LINE
  5
77
330
1F
100
AcDbEntity
  8
0
  6
Continuous
 62
     7
370
    15
100
AcDbLine
 10
445.1135167361
 20
222.7247945145
 30
0.0
 11
447.9135194302
 21
222.7247945145
 31
0.0
  0
LINE
  5
78
330
1F
100
AcDbEntity
  8
0
  6
Continuous
 62
     7
370
    15
100
AcDbLine
 10
447.9135194302
 20
279.5247926489
 30
0.0
 11
448.3135172606
 21
279.2643084303
 31
0.0
  0
LINE
  5
79
330
1F
100
AcDbEntity
  8
0
  6
Continuous
 62
     7
370
    15
100
AcDbLine
 10
448.3135172606
 20
279.2643084303
 30
0.0
 11
448.3135172606
 21
223.1247945801
 31
0.0
  0
LINE
  5
7A
330
1F
100
AcDbEntity
  8
0
  6
Continuous
 62
     7
370
    15
100
AcDbLine
 10
447.9135194302
 20
222.7247945145
 30
0.0
 11
448.3135172606
 21
223.1247945801
 31
0.0
  0
LINE
  5
7B
330
1F
100
AcDbEntity
  8
0
  6
Continuous
 62
     7
370
    15
100
AcDbLine
 10
444.7135189057
 20
223.1247945801
 30
0.0
 11
444.7135189057
 21
279.2643084303
 31
0.0
  0
LINE
  5
7C
330
1F
100
AcDbEntity
  8
0
  6
Continuous
 62
     7
370
    15
100
AcDbLine
 10
444.7135189057
 20
279.2643084303
 30
0.0
 11
445.1135167361
 21
279.5247926489
 31
0.0
  0
LINE
  5
7D
330
1F
100
AcDbEntity
  8
0
  6
Continuous
 62
     7
370
    15
100
AcDbLine
 10
444.7135189057
 20
223.1247945801
 30
0.0
 11
445.1135167361
 21
222.7247945145
 31
0.0
  0
LINE
  5
7E
330
1F
100
AcDbEntity
  8
0
  6
Continuous
 62
     7
370
    15
100
AcDbLine
 10
444.7135189057
 20
285.4421868101
 30
0.0
 11
445.1135167361
 21
285.7247962729
 31
0.0
  0
LINE
  5
7F
330
1F
100
AcDbEntity
  8
0
  6
Continuous
 62
     7
370
    15
100
AcDbLine
 10
445.1135167361
 20
285.7247962729
 30
0.0
 11
445.1135167361
 21
279.5247926489
 31
0.0
  0
LINE
  5
80
330
1F
100
AcDbEntity
  8
0
  6
Continuous
 62
     7
370
    15
100
AcDbLine
 10
444.7135189057
 20
279.2643084303
 30
0.0
 11
444.7135189057
 21
285.4421868101
 31
0.0
  0
LINE
  5
81
330
1F
100
AcDbEntity
  8
0
  6
Continuous
 62
     7
370
    15
100
AcDbLine
 10
445.1135167361
 20
285.7247962729
 30
0.0
 11
447.9135194302
 21
285.7247962729
 31
0.0
  0
LINE
  5
82
330
1F
100
AcDbEntity
  8
0
  6
Continuous
 62
     7
370
    15
100
AcDbLine
 10
447.9135194302
 20
279.5247926489
 30
0.0
 11
447.9135194302
 21
285.7247962729
 31
0.0
  0
LINE
  5
83
330
1F
100
AcDbEntity
  8
0
  6
Continuous
 62
     7
370
    15
100
AcDbLine
 10
447.9135194302
 20
285.7247962729
 30
0.0
 11
448.3135172606
 21
285.4421868101
 31
0.0
  0
LINE
  5
84
330
1F
100
AcDbEntity
  8
0
  6
Continuous
 62
     7
370
    15
100
AcDbLine
 10
448.3135172606
 20
285.4421868101
 30
0.0
 11
448.3135172606
 21
279.2643084303
 31
0.0
  0
LINE
  5
85
330
1F
100
AcDbEntity
  8
0
  6
Continuous
 62
     7
370
    15
100
AcDbLine
 10
447.9135194302
 20
302.5247945563
 30
0.0
 11
447.9135194302
 21
307.3352291361
 31
0.0
  0
LINE
  5
86
330
1F
100
AcDbEntity
  8
0
  6
Continuous
 62
     7
370
    15
100
AcDbLine
 10
447.9135194302
 20
302.5247945563
 30
0.0
 11
448.3135172606
 21
302.753366448
 31
0.0
  0
LINE
  5
87
330
1F
100
AcDbEntity
  8
0
  6
Continuous
 62
     7
370
    15
100
AcDbLine
 10
448.3135172606
 20
307.2006060854
 30
0.0
 11
448.3135172606
 21
302.753366448
 31
0.0
  0
LINE
  5
88
330
1F
100
AcDbEntity
  8
0
  6
Continuous
 62
     7
370
    15
100
AcDbLine
 10
445.1135167361
 20
307.3352291361
 30
0.0
 11
445.1135167361
 21
302.5247945563
 31
0.0
  0
LINE
  5
89
330
1F
100
AcDbEntity
  8
0
  6
Continuous
 62
     7
370
    15
100
AcDbLine
 10
445.1135167361
 20
302.5247945563
 30
0.0
 11
447.9135194302
 21
302.5247945563
 31
0.0
  0
LINE
  5
8A
330
1F
100
AcDbEntity
  8
0
  6
Continuous
 62
     7
370
    15
100
AcDbLine
 10
444.7135189057
 20
302.753366448
 30
0.0
 11
445.1135167361
 21
302.5247945563
 31
0.0
  0
LINE
  5
8B
330
1F
100
AcDbEntity
  8
0
  6
Continuous
 62
     7
370
    15
100
AcDbLine
 10
444.7135189057
 20
302.753366448
 30
0.0
 11
444.7135189057
 21
307.2006060854
 31
0.0
  0
LINE
  5
8C
330
1F
100
AcDbEntity
  8
0
  6
Continuous
 62
     7
370
    15
100
AcDbLine
 10
445.1135167361
 20
302.5247945563
 30
0.0
 11
445.1135167361
 21
295.9247960821
 31
0.0
  0
LINE
  5
8D
330
1F
100
AcDbEntity
  8
0
  6
Continuous
 62
     7
370
    15
100
AcDbLine
 10
447.9135194302
 20
295.9247960821
 30
0.0
 11
447.9135194302
 21
302.5247945563
 31
0.0
  0
LINE
  5
8E
330
1F
100
AcDbEntity
  8
0
  6
Continuous
 62
     7
370
    15
100
AcDbLine
 10
445.1135167361
 20
295.9247960821
 30
0.0
 11
447.9135194302
 21
295.9247960821
 31
0.0
  0
LINE
  5
8F
330
1F
100
AcDbEntity
  8
0
  6
Continuous
 62
     7
370
    15
100
AcDbLine
 10
444.7135189057
 20
296.0587873236
 30
0.0
 11
445.1135167361
 21
295.9247960821
 31
0.0
  0
LINE
  5
90
330
1F
100
AcDbEntity
  8
0
  6
Continuous
 62
     7
370
    15
100
AcDbLine
 10
444.7135189057
 20
296.0587873236
 30
0.0
 11
444.7135189057
 21
302.753366448
 31
0.0
  0
LINE
  5
91
330
1F
100
AcDbEntity
  8
0
  6
Continuous
 62
     7
370
    15
100
AcDbLine
 10
447.9135194302
 20
295.9247960821
 30
0.0
 11
448.3135172606
 21
296.0587873236
 31
0.0
  0
LINE
  5
92
330
1F
100
AcDbEntity
  8
0
  6
Continuous
 62
     7
370
    15
100
AcDbLine
 10
448.3135172606
 20
302.753366448
 30
0.0
 11
448.3135172606
 21
296.0587873236
 31
0.0
  0
LINE
  5
93
330
1F
100
AcDbEntity
  8
0
  6
Continuous
 62
     7
370
    15
100
AcDbLine
 10
447.9135194302
 20
285.7247962729
 30
0.0
 11
447.9135194302
 21
295.9247960821
 31
0.0
  0
LINE
  5
94
330
1F
100
AcDbEntity
  8
0
  6
Continuous
 62
     7
370
    15
100
AcDbLine
 10
448.3135172606
 20
296.0587873236
 30
0.0
 11
448.3135172606
 21
285.4421868101
 31
0.0
  0
LINE
  5
95
330
1F
100
AcDbEntity
  8
0
  6
Continuous
 62
     7
370
    15
100
AcDbLine
 10
445.1135167361
 20
295.9247960821
 30
0.0
 11
445.1135167361
 21
285.7247962729
 31
0.0
  0
LINE
  5
96
330
1F
100
AcDbEntity
  8
0
  6
Continuous
 62
     7
370
    15
100
AcDbLine
 10
444.7135189057
 20
285.4421868101
 30
0.0
 11
444.7135189057
 21
296.0587873236
 31
0.0
  0
LINE
  5
97
330
1F
100
AcDbEntity
  8
0
  6
Continuous
 62
     7
370
    15
100
AcDbLine
 10
448.4135189534
 20
304.0764524714
 30
0.0
 11
448.4135189534
 21
298.364712216
 31
0.0
  0
LINE
  5
98
330
1F
100
AcDbEntity
  8
0
  6
Continuous
 62
     7
370
    15
100
AcDbLine
 10
448.3135172606
 20
304.0764524714
 30
0.0
 11
448.4135189534
 21
304.0764524714
 31
0.0
  0
LINE
  5
99
330
1F
100
AcDbEntity
  8
0
  6
Continuous
 62
     7
370
    15
100
AcDbLine
 10
438.0165690065
 20
302.9394581095
 30
0.0
 11
444.7135189057
 21
298.364712216
 31
0.0
  0
LINE
  5
9A
330
1F
100
AcDbEntity
  8
0
  6
Continuous
 62
     7
370
    15
100
AcDbLine
 10
437.1620008231
 20
305.2733673826
 30
0.0
 11
438.0165690065
 21
302.9394581095
 31
0.0
  0
LINE
  5
9B
330
1F
100
AcDbEntity
  8
0
  6
Continuous
 62
     7
370
    15
100
AcDbLine
 10
455.1104673625
 20
302.9394581095
 30
0.0
 11
455.9599229575
 21
305.2594079748
 31
0.0
  0
LINE
  5
9C
330
1F
100
AcDbEntity
  8
0
  6
Continuous
 62
     7
370
    15
100
AcDbLine
 10
448.4135189534
 20
298.364712216
 30
0.0
 11
455.1104673625
 21
302.9394581095
 31
0.0
  0
LINE
  5
9D
330
1F
100
AcDbEntity
  8
0
  6
Continuous
 62
     7
370
    15
100
AcDbLine
 10
455.1104673625
 20
302.9394581095
 30
0.0
 11
455.4436245442
 21
302.6140763537
 31
0.0
  0
LINE
  5
9E
330
1F
100
AcDbEntity
  8
0
  6
Continuous
 62
     7
370
    15
100
AcDbLine
 10
455.4436245442
 20
302.6140763537
 30
0.0
 11
448.4135189534
 21
297.8117480055
 31
0.0
  0
LINE
  5
9F
330
1F
100
AcDbEntity
  8
0
  6
Continuous
 62
     7
370
    15
100
AcDbLine
 10
448.4135189534
 20
297.8117480055
 30
0.0
 11
448.4135189534
 21
298.364712216
 31
0.0
  0
LINE
  5
A0
330
1F
100
AcDbEntity
  8
0
  6
Continuous
 62
     7
370
    15
100
AcDbLine
 10
444.7135189057
 20
297.8117480055
 30
0.0
 11
437.6834118248
 21
302.6140763537
 31
0.0
  0
LINE
  5
A1
330
1F
100
AcDbEntity
  8
0
  6
Continuous
 62
     7
370
    15
100
AcDbLine
 10
438.0165690065
 20
302.9394581095
 30
0.0
 11
437.6834118248
 21
302.6140763537
 31
0.0
  0
LINE
  5
A2
330
1F
100
AcDbEntity
  8
0
  6
Continuous
 62
     7
370
    15
100
AcDbLine
 10
455.4436245442
 20
302.6140763537
 30
0.0
 11
455.4436245442
 21
302.0941450373
 31
0.0
  0
LINE
  5
A3
330
1F
100
AcDbEntity
  8
0
  6
Continuous
 62
     7
370
    15
100
AcDbLine
 10
448.4135189534
 20
297.2918166891
 30
0.0
 11
455.4436245442
 21
302.0941450373
 31
0.0
  0
LINE
  5
A4
330
1F
100
AcDbEntity
  8
0
  6
Continuous
 62
     7
370
    15
100
AcDbLine
 10
448.4135189534
 20
297.8117480055
 30
0.0
 11
448.4135189534
 21
297.2918166891
 31
0.0
  0
LINE
  5
A5
330
1F
100
AcDbEntity
  8
0
  6
Continuous
 62
     7
370
    15
100
AcDbLine
 10
437.6834118248
 20
302.0941450373
 30
0.0
 11
444.7135189057
 21
297.2918166891
 31
0.0
  0
LINE
  5
A6
330
1F
100
AcDbEntity
  8
0
  6
Continuous
 62
     7
370
    15
100
AcDbLine
 10
437.6834118248
 20
302.6140763537
 30
0.0
 11
437.6834118248
 21
302.0941450373
 31
0.0
  0
LINE
  5
A7
330
1F
100
AcDbEntity
  8
0
  6
Continuous
 62
     7
370
    15
100
AcDbLine
 10
456.4120986939
 20
305.2590682284
 30
0.0
 11
455.4436245442
 21
302.6140763537
 31
0.0
  0
LINE
  5
A8
330
1F
100
AcDbEntity
  8
0
  6
Continuous
 62
     7
370
    15
100
AcDbLine
 10
437.6834118248
 20
302.6140763537
 30
0.0
 11
436.7095792175
 21
305.2737071291
 31
0.0
  0
LINE
  5
A9
330
1F
100
AcDbEntity
  8
0
  6
Continuous
 62
     7
370
    15
100
AcDbLine
 10
448.3135172606
 20
303.4079684988
 30
0.0
 11
448.4135189534
 21
303.4079684988
 31
0.0
  0
LINE
  5
AA
330
1F
100
AcDbEntity
  8
0
  6
Continuous
 62
     7
370
    15
100
AcDbLine
 10
455.4436245442
 20
302.0941450373
 30
0.0
 11
456.4506032945
 21
304.8443033472
 31
0.0
  0
LINE
  5
AB
330
1F
100
AcDbEntity
  8
0
  6
Continuous
 62
     7
370
    15
100
AcDbLine
 10
436.5275391818
 20
305.2509441153
 30
0.0
 11
437.6834118248
 21
302.0941450373
 31
0.0
  0
LINE
  5
AC
330
1F
100
AcDbEntity
  8
0
  6
Continuous
 62
     7
370
    15
100
AcDbLine
 10
436.5275391818
 20
305.2738382593
 30
0.0
 11
436.5275391818
 21
305.2509441153
 31
0.0
  0
LINE
  5
AD
330
1F
100
AcDbEntity
  8
0
  6
Continuous
 62
     7
370
    15
100
AcDbLine
 10
443.763715911
 20
308.3967580572
 30
0.0
 11
449.1874793054
 21
308.3967580572
 31
0.0
  0
LINE
  5
AE
330
1F
100
AcDbEntity
  8
0
  6
Continuous
 62
     7
370
    15
100
AcDbLine
 10
449.1874793054
 20
307.9294397608
 30
0.0
 11
443.763715911
 21
307.9294397608
 31
0.0
  0
ARC
  5
AF
330
1F
100
AcDbEntity
  8
0
  6
Continuous
 62
     7
370
    15
100
AcDbCircle
 10
443.6848462197
 20
307.7248588603
 30
0.0
 40
3.424110364212543
100
AcDbArc
 50
88.680153488
 51
102.7893949043
  0
ARC
  5
B0
330
1F
100
AcDbEntity
  8
0
  6
Continuous
 62
     7
370
    15
100
AcDbCircle
 10
443.6849174213
 20
304.9728471474
 30
0.0
 40
3.424817530950508
100
AcDbArc
 50
88.6816175512
 51
102.7879308411
  0
LINE
  5
B1
330
1F
100
AcDbEntity
  8
0
  6
Continuous
 62
     7
370
    15
100
AcDbLine
 10
449.1874793054
 20
311.1480607764
 30
0.0
 11
443.763715911
 21
311.1480607764
 31
0.0
  0
ARC
  5
B2
330
1F
100
AcDbEntity
  8
0
  6
Continuous
 62
     7
370
    15
100
AcDbCircle
 10
443.7164560335
 20
305.8748964908
 30
0.0
 40
2.055086748637776
100
AcDbArc
 50
88.6822793518
 51
102.7872555161
  0
ARC
  5
B3
330
1F
100
AcDbEntity
  8
0
  6
Continuous
 62
     7
370
    15
100
AcDbCircle
 10
449.2662775701
 20
304.9728449073
 30
0.0
 40
3.424819765318011
100
AcDbArc
 50
77.2120737838
 51
91.3183778239
  0
ARC
  5
B4
330
1F
100
AcDbEntity
  8
0
  6
Continuous
 62
     7
370
    15
100
AcDbCircle
 10
449.2347371774
 20
305.8748765217
 30
0.0
 40
2.055106666305099
100
AcDbArc
 50
77.2128131825
 51
91.3176519496
  0
ARC
  5
B5
330
1F
100
AcDbEntity
  8
0
  6
Continuous
 62
     7
370
    15
100
AcDbCircle
 10
449.2663487712
 20
307.7248566152
 30
0.0
 40
3.424112603513157
100
AcDbArc
 50
77.2106097327
 51
91.3198418749
  0
LINE
  5
B6
330
1F
100
AcDbEntity
  8
0
  6
Continuous
 62
     7
370
    15
100
AcDbLine
 10
448.3135172606
 20
302.0687355772
 30
0.0
 11
448.4135189534
 21
302.0873024241
 31
0.0
  0
LINE
  5
B7
330
1F
100
AcDbEntity
  8
0
  6
Continuous
 62
     7
370
    15
100
AcDbLine
 10
455.9537896396
 20
303.4874572531
 30
0.0
 11
461.5192839385
 21
304.5209123865
 31
0.0
  0
LINE
  5
B8
330
1F
100
AcDbEntity
  8
0
  6
Continuous
 62
     7
370
    15
100
AcDbLine
 10
431.4319105328
 20
304.5209123865
 30
0.0
 11
437.186073649
 21
303.4524216429
 31
0.0
  0
LINE
  5
B9
330
1F
100
AcDbEntity
  8
0
  6
Continuous
 62
     7
370
    15
100
AcDbLine
 10
443.2616004229
 20
307.8790142313
 30
0.0
 11
431.4319105328
 21
304.5209123865
 31
0.0
  0
LINE
  5
BA
330
1F
100
AcDbEntity
  8
0
  6
Continuous
 62
     7
370
    15
100
AcDbLine
 10
461.5192839385
 20
304.5209123865
 30
0.0
 11
449.6895947934
 21
307.8790142313
 31
0.0
  0
LINE
  5
BB
330
1F
100
AcDbEntity
  8
0
  6
Continuous
 62
     7
370
    15
100
AcDbLine
 10
444.7135189057
 20
305.2677585856
 30
0.0
 11
436.4636385322
 21
305.2738859431
 31
0.0
  0
LINE
  5
BC
330
1F
100
AcDbEntity
  8
0
  6
Continuous
 62
     7
370
    15
100
AcDbLine
 10
436.4636385322
 20
305.2738859431
 30
0.0
 11
436.4496374012
 21
304.6239807383
 31
0.0
  0
LINE
  5
BD
330
1F
100
AcDbEntity
  8
0
  6
Continuous
 62
     7
370
    15
100
AcDbLine
 10
436.4496374012
 20
304.6239807383
 30
0.0
 11
436.7571884275
 21
304.6237482802
 31
0.0
  0
LINE
  5
BE
330
1F
100
AcDbEntity
  8
0
  6
Continuous
 62
     7
370
    15
100
AcDbLine
 10
456.364516306
 20
304.6091868654
 30
0.0
 11
456.4494767667
 21
304.6091213003
 31
0.0
  0
LINE
  5
BF
330
1F
100
AcDbEntity
  8
0
  6
Continuous
 62
     7
370
    15
100
AcDbLine
 10
456.4494767667
 20
304.6091213003
 30
0.0
 11
456.4634778977
 21
305.2590324656
 31
0.0
  0
LINE
  5
C0
330
1F
100
AcDbEntity
  8
0
  6
Continuous
 62
     7
370
    15
100
AcDbLine
 10
456.4634778977
 20
305.2590324656
 30
0.0
 11
448.3135172606
 21
305.2650882975
 31
0.0
  0
LINE
  5
C1
330
1F
100
AcDbEntity
  8
0
  6
Continuous
 62
     7
370
    15
100
AcDbLine
 10
448.2135453702
 20
307.2211279646
 30
0.0
 11
448.2135453702
 21
307.3352291361
 31
0.0
  0
LINE
  5
C2
330
1F
100
AcDbEntity
  8
0
  6
Continuous
 62
     7
370
    15
100
AcDbLine
 10
448.2135453702
 20
307.3352291361
 30
0.0
 11
444.7135189057
 21
307.3352291361
 31
0.0
  0
LINE
  5
C3
330
1F
100
AcDbEntity
  8
0
  6
Continuous
 62
     7
370
    15
100
AcDbLine
 10
444.7135189057
 20
307.3352291361
 30
0.0
 11
444.7135189057
 21
307.2006060854
 31
0.0
  0
LINE
  5
C4
330
1F
100
AcDbEntity
  8
0
  6
Continuous
 62
     7
370
    15
100
AcDbLine
 10
430.9192487479
 20
304.9041106478
 30
0.0
 11
442.9268577577
 21
308.3127155081
 31
0.0
  0
LINE
  5
C5
330
1F
100
AcDbEntity
  8
0
  6
Continuous
 62
     7
370
    15
100
AcDbLine
 10
430.9192487479
 20
304.9041106478
 30
0.0
 11
431.4319105328
 21
304.5209123865
 31
0.0
  0
LINE
  5
C6
330
1F
100
AcDbEntity
  8
0
  6
Continuous
 62
     7
370
    15
100
AcDbLine
 10
442.9268577577
 20
311.0640182272
 30
0.0
 11
430.9192487479
 21
307.6554133669
 31
0.0
  0
LINE
  5
C7
330
1F
100
AcDbEntity
  8
0
  6
Continuous
 62
     7
370
    15
100
AcDbLine
 10
430.9192487479
 20
307.6554133669
 30
0.0
 11
430.9192487479
 21
304.9041106478
 31
0.0
  0
LINE
  5
C8
330
1F
100
AcDbEntity
  8
0
  6
Continuous
 62
     7
370
    15
100
AcDbLine
 10
462.0319464684
 20
307.6554133669
 30
0.0
 11
450.0243374587
 21
311.0640182272
 31
0.0
  0
LINE
  5
C9
330
1F
100
AcDbEntity
  8
0
  6
Continuous
 62
     7
370
    15
100
AcDbLine
 10
462.0319464684
 20
307.6554133669
 30
0.0
 11
462.0319464684
 21
304.9041106478
 31
0.0
  0
LINE
  5
CA
330
1F
100
AcDbEntity
  8
0
  6
Continuous
 62
     7
370
    15
100
AcDbLine
 10
450.0243374587
 20
308.3127155081
 30
0.0
 11
462.0319464684
 21
304.9041106478
 31
0.0
  0
LINE
  5
CB
330
1F
100
AcDbEntity
  8
0
  6
Continuous
 62
     7
370
    15
100
AcDbLine
 10
461.5192839385
 20
304.5209123865
 30
0.0
 11
462.0319464684
 21
304.9041106478
 31
0.0
  0
LINE
  5
CC
330
1F
100
AcDbEntity
  8
0
  6
Continuous
 62
     7
370
    15
100
AcDbLine
 10
443.763715911
 20
311.4668264166
 30
0.0
 11
449.1874793054
 21
311.4668264166
 31
0.0
  0
ARC
  5
CD
330
1F
100
AcDbEntity
  8
0
  6
Continuous
 62
     7
370
    15
100
AcDbCircle
 10
443.7163579374
 20
309.4132599444
 30
0.0
 40
2.054112468499451
100
AcDbArc
 50
88.6789172979
 51
102.79061757
  0
ARC
  5
CE
330
1F
100
AcDbEntity
  8
0
  6
Continuous
 62
     7
370
    15
100
AcDbCircle
 10
449.2348352755
 20
309.4132399952
 30
0.0
 40
2.054132366294185
100
AcDbArc
 50
77.2094511256
 51
91.3210140065
  0
LINE
  5
CF
330
1F
100
AcDbEntity
  8
0
  6
Continuous
 62
     7
370
    15
100
AcDbLine
 10
431.4319105328
 20
308.0583050028
 30
0.0
 11
443.2616004229
 21
311.4164008871
 31
0.0
  0
LINE
  5
D0
330
1F
100
AcDbEntity
  8
0
  6
Continuous
 62
     7
370
    15
100
AcDbLine
 10
431.4319105328
 20
308.0583050028
 30
0.0
 11
430.9192487479
 21
307.6554133669
 31
0.0
  0
LINE
  5
D1
330
1F
100
AcDbEntity
  8
0
  6
Continuous
 62
     7
370
    15
100
AcDbLine
 10
449.6895947934
 20
311.4164008871
 30
0.0
 11
461.5192839385
 21
308.0583050028
 31
0.0
  0
LINE
  5
D2
330
1F
100
AcDbEntity
  8
0
  6
Continuous
 62
     7
370
    15
100
AcDbLine
 10
462.0319464684
 20
307.6554133669
 30
0.0
 11
461.5192839385
 21
308.0583050028
 31
0.0
  0
LINE
  5
D3
330
1F
100
AcDbEntity
  8
0
  6
Continuous
 62
     7
370
    15
100
AcDbLine
 10
436.4623376609
 20
305.2135362402
 30
0.0
 11
436.5412586809
 21
305.2134766356
 31
0.0
  0
LINE
  5
D4
330
1F
100
AcDbEntity
  8
0
  6
Continuous
 62
     7
370
    15
100
AcDbLine
 10
456.4494767667
 20
304.8412277476
 30
0.0
 11
456.4494767667
 21
304.6091213003
 31
0.0
  0
LINE
  5
D5
330
1F
100
AcDbEntity
  8
0
  6
Continuous
 62
     7
370
    15
100
AcDbLine
 10
444.7135189057
 20
292.7247955576
 30
0.0
 11
444.3135180951
 21
293.1247963682
 31
0.0
  0
LINE
  5
D6
330
1F
100
AcDbEntity
  8
0
  6
Continuous
 62
     7
370
    15
100
AcDbLine
 10
444.3135180951
 20
293.1247963682
 30
0.0
 11
444.7135189057
 21
293.1247963682
 31
0.0
  0
LINE
  5
D7
330
1F
100
AcDbEntity
  8
0
  6
Continuous
 62
     7
370
    15
100
AcDbLine
 10
448.3135172606
 20
293.1247963682
 30
0.0
 11
448.7135180713
 21
293.1247963682
 31
0.0
  0
LINE
  5
D8
330
1F
100
AcDbEntity
  8
0
  6
Continuous
 62
     7
370
    15
100
AcDbLine
 10
448.3135172606
 20
292.7247955576
 30
0.0
 11
448.7135180713
 21
293.1247963682
 31
0.0
  0
LINE
  5
D9
330
1F
100
AcDbEntity
  8
0
  6
Continuous
 62
     7
370
    15
100
AcDbLine
 10
448.7135180713
 20
293.1247963682
 30
0.0
 11
448.7135180713
 21
286.1247970835
 31
0.0
  0
LINE
  5
DA
330
1F
100
AcDbEntity
  8
0
  6
Continuous
 62
     7
370
    15
100
AcDbLine
 10
448.3135172606
 20
285.7247962729
 30
0.0
 11
448.7135180713
 21
286.1247970835
 31
0.0
  0
LINE
  5
DB
330
1F
100
AcDbEntity
  8
0
  6
Continuous
 62
     7
370
    15
100
AcDbLine
 10
415.1144956679
 20
307.2006060854
 30
0.0
 11
416.2674830736
 21
302.753366448
 31
0.0
  0
LINE
  5
DC
330
1F
100
AcDbEntity
  8
0
  6
Continuous
 62
     7
370
    15
100
AcDbLine
 10
416.2674830736
 20
302.753366448
 30
0.0
 11
415.9135182829
 21
302.5247945563
 31
0.0
  0
LINE
  5
DD
330
1F
100
AcDbEntity
  8
0
  6
Continuous
 62
     7
370
    15
100
AcDbLine
 10
415.9135182829
 20
302.5247945563
 30
0.0
 11
414.6799826504
 21
307.2827174441
 31
0.0
  0
LINE
  5
DE
330
1F
100
AcDbEntity
  8
0
  6
Continuous
 62
     7
370
    15
100
AcDbLine
 10
463.9376857758
 20
302.9313697592
 30
0.0
 11
463.6405804635
 21
304.503543593
 31
0.0
  0
LINE
  5
DF
330
1F
100
AcDbEntity
  8
0
  6
Continuous
 62
     7
370
    15
100
AcDbLine
 10
464.0336254121
 20
304.5778169409
 30
0.0
 11
464.2564514161
 21
303.3986880556
 31
0.0
  0
LINE
  5
E0
330
1F
100
AcDbEntity
  8
0
  6
Continuous
 62
     7
370
    15
100
AcDbLine
 10
463.9376857758
 20
302.9313697592
 30
0.0
 11
464.2564514161
 21
303.3986880556
 31
0.0
  0
LINE
  5
E1
330
1F
100
AcDbEntity
  8
0
  6
Continuous
 62
     7
370
    15
100
AcDbLine
 10
408.8807785393
 20
279.2643084303
 30
0.0
 11
400.9738036872
 21
223.1247945801
 31
0.0
  0
LINE
  5
E2
330
1F
100
AcDbEntity
  8
0
  6
Continuous
 62
     7
370
    15
100
AcDbLine
 10
400.9738036872
 20
223.1247945801
 30
0.0
 11
400.5135187388
 21
222.7247945145
 31
0.0
  0
LINE
  5
E3
330
1F
100
AcDbEntity
  8
0
  6
Continuous
 62
     7
370
    15
100
AcDbLine
 10
400.5135187388
 20
222.7247945145
 30
0.0
 11
408.513517815
 21
279.5247926489
 31
0.0
  0
LINE
  5
E4
330
1F
100
AcDbEntity
  8
0
  6
Continuous
 62
     7
370
    15
100
AcDbLine
 10
408.8807785393
 20
279.2643084303
 30
0.0
 11
408.513517815
 21
279.5247926489
 31
0.0
  0
LINE
  5
E5
330
1F
100
AcDbEntity
  8
0
  6
Continuous
 62
     7
370
    15
100
AcDbLine
 10
484.5135190965
 20
279.5247926489
 30
0.0
 11
492.5135174275
 21
222.7247945145
 31
0.0
  0
LINE
  5
E6
330
1F
100
AcDbEntity
  8
0
  6
Continuous
 62
     7
370
    15
100
AcDbLine
 10
492.5135174275
 20
222.7247945145
 30
0.0
 11
492.0532324792
 21
223.1247945801
 31
0.0
  0
LINE
  5
E7
330
1F
100
AcDbEntity
  8
0
  6
Continuous
 62
     7
370
    15
100
AcDbLine
 10
492.0532324792
 20
223.1247945801
 30
0.0
 11
484.1462591172
 21
279.2643084303
 31
0.0
  0
LINE
  5
E8
330
1F
100
AcDbEntity
  8
0
  6
Continuous
 62
     7
370
    15
100
AcDbLine
 10
484.5135190965
 20
279.5247926489
 30
0.0
 11
484.1462591172
 21
279.2643084303
 31
0.0
  0
LINE
  5
E9
330
1F
100
AcDbEntity
  8
0
  6
Continuous
 62
     7
370
    15
100
AcDbLine
 10
451.9871452332
 20
299.1247966067
 30
0.0
 11
451.0968097926
 21
299.1247966067
 31
0.0
  0
LINE
  5
EA
330
1F
100
AcDbEntity
  8
0
  6
Continuous
 62
     7
370
    15
100
AcDbLine
 10
448.4135189534
 20
299.1247966067
 30
0.0
 11
448.3135172606
 21
299.1247966067
 31
0.0
  0
LINE
  5
EB
330
1F
100
AcDbEntity
  8
0
  6
Continuous
 62
     7
370
    15
100
AcDbLine
 10
442.0302280665
 20
299.1247966067
 30
0.0
 11
441.0398909331
 21
299.1247966067
 31
0.0
  0
LINE
  5
EC
330
1F
100
AcDbEntity
  8
0
  6
Continuous
 62
     7
370
    15
100
AcDbLine
 10
441.0398909331
 20
299.1247966067
 30
0.0
 11
441.3135179759
 21
299.5247974173
 31
0.0
  0
LINE
  5
ED
330
1F
100
AcDbEntity
  8
0
  6
Continuous
 62
     7
370
    15
100
AcDbLine
 10
441.3135179759
 20
299.5247974173
 30
0.0
 11
441.444669056
 21
299.5247974173
 31
0.0
  0
LINE
  5
EE
330
1F
100
AcDbEntity
  8
0
  6
Continuous
 62
     7
370
    15
100
AcDbLine
 10
448.3135172606
 20
299.5247974173
 30
0.0
 11
448.4135189534
 21
299.5247974173
 31
0.0
  0
LINE
  5
EF
330
1F
100
AcDbEntity
  8
0
  6
Continuous
 62
     7
370
    15
100
AcDbLine
 10
451.6823658229
 20
299.5247974173
 30
0.0
 11
451.7135181905
 21
299.5247974173
 31
0.0
  0
LINE
  5
F0
330
1F
100
AcDbEntity
  8
0
  6
Continuous
 62
     7
370
    15
100
AcDbLine
 10
451.9871452332
 20
299.1247966067
 30
0.0
 11
451.7135181905
 21
299.5247974173
 31
0.0
  0
LINE
  5
F1
330
1F
100
AcDbEntity
  8
0
  6
Continuous
 62
     7
370
    15
100
AcDbLine
 10
429.0893511356
 20
302.9313697592
 30
0.0
 11
428.6471778036
 21
303.0149295107
 31
0.0
  0
LINE
  5
F2
330
1F
100
AcDbEntity
  8
0
  6
Continuous
 62
     7
370
    15
100
AcDbLine
 10
425.1097874225
 20
303.6834134833
 30
0.0
 11
424.6676133455
 21
303.7669732348
 31
0.0
  0
LINE
  5
F3
330
1F
100
AcDbEntity
  8
0
  6
Continuous
 62
     7
370
    15
100
AcDbLine
 10
424.6676133455
 20
303.7669732348
 30
0.0
 11
425.1349327595
 21
304.085738875
 31
0.0
  0
LINE
  5
F4
330
1F
100
AcDbEntity
  8
0
  6
Continuous
 62
     7
370
    15
100
AcDbLine
 10
425.1349327595
 20
304.085738875
 30
0.0
 11
425.1840633781
 21
304.0764524714
 31
0.0
  0
LINE
  5
F5
330
1F
100
AcDbEntity
  8
0
  6
Continuous
 62
     7
370
    15
100
AcDbLine
 10
428.7214533866
 20
303.4079684988
 30
0.0
 11
428.7705840052
 21
303.3986880556
 31
0.0
  0
LINE
  5
F6
330
1F
100
AcDbEntity
  8
0
  6
Continuous
 62
     7
370
    15
100
AcDbLine
 10
429.0893511356
 20
302.9313697592
 30
0.0
 11
428.7705840052
 21
303.3986880556
 31
0.0
  0
LINE
  5
F7
330
1F
100
AcDbEntity
  8
0
  6
Continuous
 62
     7
370
    15
100
AcDbLine
 10
429.3864549578
 20
304.503543593
 30
0.0
 11
429.0893511356
 21
302.9313697592
 31
0.0
  0
LINE
  5
F8
330
1F
100
AcDbEntity
  8
0
  6
Continuous
 62
     7
370
    15
100
AcDbLine
 10
428.7705840052
 20
303.3986880556
 30
0.0
 11
428.9934114993
 21
304.5778169409
 31
0.0
  0
LINE
  5
F9
330
1F
100
AcDbEntity
  8
0
  6
Continuous
 62
     7
370
    15
100
AcDbLine
 10
468.359423566
 20
303.7669732348
 30
0.0
 11
467.9172494889
 21
303.6834134833
 31
0.0
  0
LINE
  5
FA
330
1F
100
AcDbEntity
  8
0
  6
Continuous
 62
     7
370
    15
100
AcDbLine
 10
464.3798598529
 20
303.0149295107
 30
0.0
 11
463.9376857758
 21
302.9313697592
 31
0.0
  0
LINE
  5
FB
330
1F
100
AcDbEntity
  8
0
  6
Continuous
 62
     7
370
    15
100
AcDbLine
 10
464.2564514161
 20
303.3986880556
 30
0.0
 11
464.3055835248
 21
303.4079684988
 31
0.0
  0
LINE
  5
FC
330
1F
100
AcDbEntity
  8
0
  6
Continuous
 62
     7
370
    15
100
AcDbLine
 10
467.8429731608
 20
304.0764524714
 30
0.0
 11
467.8921022893
 21
304.085738875
 31
0.0
  0
LINE
  5
FD
330
1F
100
AcDbEntity
  8
0
  6
Continuous
 62
     7
370
    15
100
AcDbLine
 10
467.8921022893
 20
304.085738875
 30
0.0
 11
468.359423566
 21
303.7669732348
 31
0.0
  0
LINE
  5
FE
330
1F
100
AcDbEntity
  8
0
  6
Continuous
 62
     7
370
    15
100
AcDbLine
 10
420.837956711
 20
285.4421868101
 30
0.0
 11
408.8807785393
 21
279.2643084303
 31
0.0
  0
LINE
  5
FF
330
1F
100
AcDbEntity
  8
0
  6
Continuous
 62
     7
370
    15
100
AcDbLine
 10
408.513517815
 20
279.5247926489
 30
0.0
 11
420.5135181987
 21
285.7247962729
 31
0.0
  0
LINE
  5
100
330
1F
100
AcDbEntity
  8
0
  6
Continuous
 62
     7
370
    15
100
AcDbLine
 10
420.837956711
 20
285.4421868101
 30
0.0
 11
420.5135181987
 21
285.7247962729
 31
0.0
  0
LINE
  5
101
330
1F
100
AcDbEntity
  8
0
  6
Continuous
 62
     7
370
    15
100
AcDbLine
 10
400.9738036872
 20
223.1247945801
 30
0.0
 11
408.2186327756
 21
223.1247945801
 31
0.0
  0
LINE
  5
102
330
1F
100
AcDbEntity
  8
0
  6
Continuous
 62
     7
370
    15
100
AcDbLine
 10
408.2186327756
 20
223.1247945801
 30
0.0
 11
408.513517815
 21
222.7247945145
 31
0.0
  0
LINE
  5
103
330
1F
100
AcDbEntity
  8
0
  6
Continuous
 62
     7
370
    15
100
AcDbLine
 10
408.513517815
 20
222.7247945145
 30
0.0
 11
400.5135187388
 21
222.7247945145
 31
0.0
  0
LINE
  5
104
330
1F
100
AcDbEntity
  8
0
  6
Continuous
 62
     7
370
    15
100
AcDbLine
 10
461.7135175944
 20
270.5247952715
 30
0.0
 11
455.5135169507
 21
285.7247962729
 31
0.0
  0
LINE
  5
105
330
1F
100
AcDbEntity
  8
0
  6
Continuous
 62
     7
370
    15
100
AcDbLine
 10
455.5135169507
 20
285.7247962729
 30
0.0
 11
455.7823547603
 21
286.1247970835
 31
0.0
  0
LINE
  5
106
330
1F
100
AcDbEntity
  8
0
  6
Continuous
 62
     7
370
    15
100
AcDbLine
 10
455.7823547603
 20
286.1247970835
 30
0.0
 11
461.982355404
 21
270.9247960821
 31
0.0
  0
LINE
  5
107
330
1F
100
AcDbEntity
  8
0
  6
Continuous
 62
     7
370
    15
100
AcDbLine
 10
461.7135175944
 20
270.5247952715
 30
0.0
 11
461.982355404
 21
270.9247960821
 31
0.0
  0
LINE
  5
108
330
1F
100
AcDbEntity
  8
0
  6
Continuous
 62
     7
370
    15
100
AcDbLine
 10
467.8921022893
 20
304.085738875
 30
0.0
 11
467.6692762853
 21
305.2648677603
 31
0.0
  0
LINE
  5
109
330
1F
100
AcDbEntity
  8
0
  6
Continuous
 62
     7
370
    15
100
AcDbLine
 10
468.0623182536
 20
305.3391470686
 30
0.0
 11
468.359423566
 21
303.7669732348
 31
0.0
  0
LINE
  5
10A
330
1F
100
AcDbEntity
  8
0
  6
Continuous
 62
     7
370
    15
100
AcDbLine
 10
478.3470550061
 20
307.2827174441
 30
0.0
 11
477.1135190011
 21
302.5247945563
 31
0.0
  0
LINE
  5
10B
330
1F
100
AcDbEntity
  8
0
  6
Continuous
 62
     7
370
    15
100
AcDbLine
 10
477.1135190011
 20
302.5247945563
 30
0.0
 11
476.7595508576
 21
302.753366448
 31
0.0
  0
LINE
  5
10C
330
1F
100
AcDbEntity
  8
0
  6
Continuous
 62
     7
370
    15
100
AcDbLine
 10
476.7595508576
 20
302.753366448
 30
0.0
 11
477.9125431062
 21
307.2006060854
 31
0.0
  0
LINE
  5
10D
330
1F
100
AcDbEntity
  8
0
  6
Continuous
 62
     7
370
    15
100
AcDbLine
 10
423.0186329664
 20
270.9247960821
 30
0.0
 11
431.0446800173
 21
270.9247960821
 31
0.0
  0
LINE
  5
10E
330
1F
100
AcDbEntity
  8
0
  6
Continuous
 62
     7
370
    15
100
AcDbLine
 10
431.3135178269
 20
270.5247952715
 30
0.0
 11
431.0446800173
 21
270.9247960821
 31
0.0
  0
LINE
  5
10F
330
1F
100
AcDbEntity
  8
0
  6
Continuous
 62
     7
370
    15
100
AcDbLine
 10
431.3135178269
 20
270.5247952715
 30
0.0
 11
423.3135180057
 21
270.5247952715
 31
0.0
  0
LINE
  5
110
330
1F
100
AcDbEntity
  8
0
  6
Continuous
 62
     7
370
    15
100
AcDbLine
 10
423.0186329664
 20
270.9247960821
 30
0.0
 11
423.3135180057
 21
270.5247952715
 31
0.0
  0
LINE
  5
111
330
1F
100
AcDbEntity
  8
0
  6
Continuous
 62
     7
370
    15
100
AcDbLine
 10
452.309227872
 20
299.9530091063
 30
0.0
 11
451.9871452332
 21
299.1247966067
 31
0.0
  0
LINE
  5
112
330
1F
100
AcDbEntity
  8
0
  6
Continuous
 62
     7
370
    15
100
AcDbLine
 10
451.7135181905
 20
299.5247974173
 30
0.0
 11
451.7247864486
 21
299.5537712351
 31
0.0
  0
LINE
  5
113
330
1F
100
AcDbEntity
  8
0
  6
Continuous
 62
     7
370
    15
100
AcDbLine
 10
444.7135189057
 20
285.7247962729
 30
0.0
 11
444.3135180951
 21
286.1247970835
 31
0.0
  0
LINE
  5
114
330
1F
100
AcDbEntity
  8
0
  6
Continuous
 62
     7
370
    15
100
AcDbLine
 10
444.3135180951
 20
286.1247970835
 30
0.0
 11
444.3135180951
 21
293.1247963682
 31
0.0
  0
LINE
  5
115
330
1F
100
AcDbEntity
  8
0
  6
Continuous
 62
     7
370
    15
100
AcDbLine
 10
424.6676133455
 20
303.7669732348
 30
0.0
 11
424.9647171677
 21
305.3391470686
 31
0.0
  0
LINE
  5
116
330
1F
100
AcDbEntity
  8
0
  6
Continuous
 62
     7
370
    15
100
AcDbLine
 10
425.3577606262
 20
305.2648677603
 30
0.0
 11
425.1349327595
 21
304.085738875
 31
0.0
  0
LINE
  5
117
330
1F
100
AcDbEntity
  8
0
  6
Continuous
 62
     7
370
    15
100
AcDbLine
 10
477.1135190011
 20
302.5247945563
 30
0.0
 11
468.9135172845
 21
295.9247960821
 31
0.0
  0
LINE
  5
118
330
1F
100
AcDbEntity
  8
0
  6
Continuous
 62
     7
370
    15
100
AcDbLine
 10
468.9135172845
 20
295.9247960821
 30
0.0
 11
468.4420445443
 21
296.0587873236
 31
0.0
  0
LINE
  5
119
330
1F
100
AcDbEntity
  8
0
  6
Continuous
 62
     7
370
    15
100
AcDbLine
 10
468.4420445443
 20
296.0587873236
 30
0.0
 11
476.7595508576
 21
302.753366448
 31
0.0
  0
LINE
  5
11A
330
1F
100
AcDbEntity
  8
0
  6
Continuous
 62
     7
370
    15
100
AcDbLine
 10
472.5135186196
 20
285.7247962729
 30
0.0
 11
484.5135190965
 21
279.5247926489
 31
0.0
  0
LINE
  5
11B
330
1F
100
AcDbEntity
  8
0
  6
Continuous
 62
     7
370
    15
100
AcDbLine
 10
484.1462591172
 20
279.2643084303
 30
0.0
 11
472.1890786172
 21
285.4421868101
 31
0.0
  0
LINE
  5
11C
330
1F
100
AcDbEntity
  8
0
  6
Continuous
 62
     7
370
    15
100
AcDbLine
 10
472.5135186196
 20
285.7247962729
 30
0.0
 11
472.1890786172
 21
285.4421868101
 31
0.0
  0
LINE
  5
11D
330
1F
100
AcDbEntity
  8
0
  6
Continuous
 62
     7
370
    15
100
AcDbLine
 10
468.9135172845
 20
295.9247960821
 30
0.0
 11
472.5135186196
 21
285.7247962729
 31
0.0
  0
LINE
  5
11E
330
1F
100
AcDbEntity
  8
0
  6
Continuous
 62
     7
370
    15
100
AcDbLine
 10
472.1890786172
 20
285.4421868101
 30
0.0
 11
468.4420445443
 21
296.0587873236
 31
0.0
  0
LINE
  5
11F
330
1F
100
AcDbEntity
  8
0
  6
Continuous
 62
     7
370
    15
100
AcDbLine
 10
444.7135189057
 20
285.7247962729
 30
0.0
 11
437.5135177256
 21
285.7247962729
 31
0.0
  0
LINE
  5
120
330
1F
100
AcDbEntity
  8
0
  6
Continuous
 62
     7
370
    15
100
AcDbLine
 10
437.5135177256
 20
285.7247962729
 30
0.0
 11
437.244679916
 21
286.1247970835
 31
0.0
  0
LINE
  5
121
330
1F
100
AcDbEntity
  8
0
  6
Continuous
 62
     7
370
    15
100
AcDbLine
 10
437.244679916
 20
286.1247970835
 30
0.0
 11
444.3135180951
 21
286.1247970835
 31
0.0
  0
LINE
  5
122
330
1F
100
AcDbEntity
  8
0
  6
Continuous
 62
     7
370
    15
100
AcDbLine
 10
492.5135174275
 20
222.7247945145
 30
0.0
 11
484.5135190965
 21
222.7247945145
 31
0.0
  0
LINE
  5
123
330
1F
100
AcDbEntity
  8
0
  6
Continuous
 62
     7
370
    15
100
AcDbLine
 10
484.5135190965
 20
222.7247945145
 30
0.0
 11
484.8084011556
 21
223.1247945801
 31
0.0
  0
LINE
  5
124
330
1F
100
AcDbEntity
  8
0
  6
Continuous
 62
     7
370
    15
100
AcDbLine
 10
484.8084011556
 20
223.1247945801
 30
0.0
 11
492.0532324792
 21
223.1247945801
 31
0.0
  0
LINE
  5
125
330
1F
100
AcDbEntity
  8
0
  6
Continuous
 62
     7
370
    15
100
AcDbLine
 10
469.7135189057
 20
270.5247952715
 30
0.0
 11
461.7135175944
 21
270.5247952715
 31
0.0
  0
LINE
  5
126
330
1F
100
AcDbEntity
  8
0
  6
Continuous
 62
     7
370
    15
100
AcDbLine
 10
461.982355404
 20
270.9247960821
 30
0.0
 11
470.0084009648
 21
270.9247960821
 31
0.0
  0
LINE
  5
127
330
1F
100
AcDbEntity
  8
0
  6
Continuous
 62
     7
370
    15
100
AcDbLine
 10
469.7135189057
 20
270.5247952715
 30
0.0
 11
470.0084009648
 21
270.9247960821
 31
0.0
  0
LINE
  5
128
330
1F
100
AcDbEntity
  8
0
  6
Continuous
 62
     7
370
    15
100
AcDbLine
 10
455.5135169507
 20
285.7247962729
 30
0.0
 11
448.3135172606
 21
285.7247962729
 31
0.0
  0
LINE
  5
129
330
1F
100
AcDbEntity
  8
0
  6
Continuous
 62
     7
370
    15
100
AcDbLine
 10
448.7135180713
 20
286.1247970835
 30
0.0
 11
455.7823547603
 21
286.1247970835
 31
0.0
  0
LINE
  5
12A
330
1F
100
AcDbEntity
  8
0
  6
Continuous
 62
     7
370
    15
100
AcDbLine
 10
408.2186327756
 20
223.1247945801
 30
0.0
 11
423.0186329664
 21
270.9247960821
 31
0.0
  0
LINE
  5
12B
330
1F
100
AcDbEntity
  8
0
  6
Continuous
 62
     7
370
    15
100
AcDbLine
 10
423.3135180057
 20
270.5247952715
 30
0.0
 11
408.513517815
 21
222.7247945145
 31
0.0
  0
LINE
  5
12C
330
1F
100
AcDbEntity
  8
0
  6
Continuous
 62
     7
370
    15
100
AcDbLine
 10
416.2674830736
 20
302.753366448
 30
0.0
 11
424.5849919946
 21
296.0587873236
 31
0.0
  0
LINE
  5
12D
330
1F
100
AcDbEntity
  8
0
  6
Continuous
 62
     7
370
    15
100
AcDbLine
 10
424.5849919946
 20
296.0587873236
 30
0.0
 11
424.1135181368
 21
295.9247960821
 31
0.0
  0
LINE
  5
12E
330
1F
100
AcDbEntity
  8
0
  6
Continuous
 62
     7
370
    15
100
AcDbLine
 10
424.1135181368
 20
295.9247960821
 30
0.0
 11
415.9135182829
 21
302.5247945563
 31
0.0
  0
LINE
  5
12F
330
1F
100
AcDbEntity
  8
0
  6
Continuous
 62
     7
370
    15
100
AcDbLine
 10
437.5135177256
 20
285.7247962729
 30
0.0
 11
431.3135178269
 21
270.5247952715
 31
0.0
  0
LINE
  5
130
330
1F
100
AcDbEntity
  8
0
  6
Continuous
 62
     7
370
    15
100
AcDbLine
 10
431.0446800173
 20
270.9247960821
 30
0.0
 11
437.244679916
 21
286.1247970835
 31
0.0
  0
LINE
  5
131
330
1F
100
AcDbEntity
  8
0
  6
Continuous
 62
     7
370
    15
100
AcDbLine
 10
424.5849919946
 20
296.0587873236
 30
0.0
 11
420.837956711
 21
285.4421868101
 31
0.0
  0
LINE
  5
132
330
1F
100
AcDbEntity
  8
0
  6
Continuous
 62
     7
370
    15
100
AcDbLine
 10
420.5135181987
 20
285.7247962729
 30
0.0
 11
424.1135181368
 21
295.9247960821
 31
0.0
  0
LINE
  5
133
330
1F
100
AcDbEntity
  8
0
  6
Continuous
 62
     7
370
    15
100
AcDbLine
 10
441.0398909331
 20
299.1247966067
 30
0.0
 11
440.6816327454
 21
300.0460340754
 31
0.0
  0
LINE
  5
134
330
1F
100
AcDbEntity
  8
0
  6
Continuous
 62
     7
370
    15
100
AcDbLine
 10
441.2660741688
 20
299.6467962042
 30
0.0
 11
441.3135179759
 21
299.5247974173
 31
0.0
  0
LINE
  5
135
330
1F
100
AcDbEntity
  8
0
  6
Continuous
 62
     7
370
    15
100
AcDbLine
 10
470.0084009648
 20
270.9247960821
 30
0.0
 11
484.8084011556
 21
223.1247945801
 31
0.0
  0
LINE
  5
136
330
1F
100
AcDbEntity
  8
0
  6
Continuous
 62
     7
370
    15
100
AcDbLine
 10
484.5135190965
 20
222.7247945145
 30
0.0
 11
469.7135189057
 21
270.5247952715
 31
0.0
  0
LINE
  5
137
330
1F
100
AcDbEntity
  8
0
  6
Continuous
 62
     7
370
    15
100
AcDbLine
 10
467.6201441766
 20
305.2555873171
 30
0.0
 11
468.0578389645
 21
302.9394581095
 31
0.0
  0
LINE
  5
138
330
1F
100
AcDbEntity
  8
0
  6
Continuous
 62
     7
370
    15
100
AcDbLine
 10
468.0578389645
 20
302.9394581095
 30
0.0
 11
467.7122482539
 21
302.6140763537
 31
0.0
  0
LINE
  5
139
330
1F
100
AcDbEntity
  8
0
  6
Continuous
 62
     7
370
    15
100
AcDbLine
 10
467.7122482539
 20
302.6140763537
 30
0.0
 11
467.2271022082
 21
305.1813080088
 31
0.0
  0
LINE
  5
13A
330
1F
100
AcDbEntity
  8
0
  6
Continuous
 62
     7
370
    15
100
AcDbLine
 10
467.7122482539
 20
302.6140763537
 30
0.0
 11
464.9609455348
 21
302.0941450373
 31
0.0
  0
LINE
  5
13B
330
1F
100
AcDbEntity
  8
0
  6
Continuous
 62
     7
370
    15
100
AcDbLine
 10
464.4757994891
 20
304.6613766924
 30
0.0
 11
464.9609455348
 21
302.0941450373
 31
0.0
  0
LINE
  5
13C
330
1F
100
AcDbEntity
  8
0
  6
Continuous
 62
     7
370
    15
100
AcDbLine
 10
464.5204493285
 20
302.2709741369
 30
0.0
 11
464.9609455348
 21
302.0941450373
 31
0.0
  0
LINE
  5
13D
330
1F
100
AcDbEntity
  8
0
  6
Continuous
 62
     7
370
    15
100
AcDbLine
 10
464.5204493285
 20
302.2709741369
 30
0.0
 11
464.0827545405
 21
304.5871033446
 31
0.0
  0
LINE
  5
13E
330
1F
100
AcDbEntity
  8
0
  6
Continuous
 62
     7
370
    15
100
AcDbLine
 10
464.9609455348
 20
302.0941450373
 30
0.0
 11
465.868470955
 21
297.2918166891
 31
0.0
  0
LINE
  5
13F
330
1F
100
AcDbEntity
  8
0
  6
Continuous
 62
     7
370
    15
100
AcDbLine
 10
465.868470955
 20
297.2918166891
 30
0.0
 11
465.3849670173
 21
297.6962282435
 31
0.0
  0
LINE
  5
140
330
1F
100
AcDbEntity
  8
0
  6
Continuous
 62
     7
370
    15
100
AcDbLine
 10
465.3849670173
 20
297.6962282435
 30
0.0
 11
464.5204493285
 21
302.2709741369
 31
0.0
  0
LINE
  5
141
330
1F
100
AcDbEntity
  8
0
  6
Continuous
 62
     7
370
    15
100
AcDbLine
 10
468.9223566533
 20
298.364712216
 30
0.0
 11
468.6197766543
 21
297.8117480055
 31
0.0
  0
LINE
  5
142
330
1F
100
AcDbEntity
  8
0
  6
Continuous
 62
     7
370
    15
100
AcDbLine
 10
468.6197766543
 20
297.8117480055
 30
0.0
 11
467.7122482539
 21
302.6140763537
 31
0.0
  0
LINE
  5
143
330
1F
100
AcDbEntity
  8
0
  6
Continuous
 62
     7
370
    15
100
AcDbLine
 10
468.0578389645
 20
302.9394581095
 30
0.0
 11
468.9223566533
 21
298.364712216
 31
0.0
  0
LINE
  5
144
330
1F
100
AcDbEntity
  8
0
  6
Continuous
 62
     7
370
    15
100
AcDbLine
 10
468.6197766543
 20
297.8117480055
 30
0.0
 11
465.868470955
 21
297.2918166891
 31
0.0
  0
LINE
  5
145
330
1F
100
AcDbEntity
  8
0
  6
Continuous
 62
     7
370
    15
100
AcDbLine
 10
461.5337797881
 20
308.0469085947
 30
0.0
 11
461.5951248885
 21
308.0583050028
 31
0.0
  0
LINE
  5
146
330
1F
100
AcDbEntity
  8
0
  6
Continuous
 62
     7
370
    15
100
AcDbLine
 10
461.5951248885
 20
308.0583050028
 30
0.0
 11
461.8798711778
 21
307.8345253245
 31
0.0
  0
LINE
  5
147
330
1F
100
AcDbEntity
  8
0
  6
Continuous
 62
     7
370
    15
100
AcDbLine
 10
449.2633202554
 20
311.4668264166
 30
0.0
 11
449.1874793054
 21
311.4668264166
 31
0.0
  0
ARC
  5
148
330
1F
100
AcDbEntity
  8
0
  6
Continuous
 62
     7
370
    15
100
AcDbCircle
 10
449.3106762255
 20
309.4132399952
 30
0.0
 40
2.054132366294886
100
AcDbArc
 50
77.2094511256
 51
91.3210140065
  0
LINE
  5
149
330
1F
100
AcDbEntity
  8
0
  6
Continuous
 62
     7
370
    15
100
AcDbLine
 10
461.5951248885
 20
308.0583050028
 30
0.0
 11
449.7654357434
 21
311.4164008871
 31
0.0
  0
LINE
  5
14A
330
1F
100
AcDbEntity
  8
0
  6
Continuous
 62
     7
370
    15
100
AcDbLine
 10
448.4135189534
 20
302.073223807
 30
0.0
 11
448.3135172606
 21
302.0546509997
 31
0.0
  0
LINE
  5
14B
330
1F
100
AcDbEntity
  8
0
  6
Continuous
 62
     7
370
    15
100
AcDbLine
 10
428.9442816258
 20
304.5871033446
 30
0.0
 11
428.506588328
 21
302.2709741369
 31
0.0
  0
LINE
  5
14C
330
1F
100
AcDbEntity
  8
0
  6
Continuous
 62
     7
370
    15
100
AcDbLine
 10
428.506588328
 20
302.2709741369
 30
0.0
 11
428.0660913766
 21
302.0941450373
 31
0.0
  0
LINE
  5
14D
330
1F
100
AcDbEntity
  8
0
  6
Continuous
 62
     7
370
    15
100
AcDbLine
 10
428.0660913766
 20
302.0941450373
 30
0.0
 11
428.5512381674
 21
304.6613766924
 31
0.0
  0
LINE
  5
14E
330
1F
100
AcDbEntity
  8
0
  6
Continuous
 62
     7
370
    15
100
AcDbLine
 10
425.7999343307
 20
305.1813080088
 30
0.0
 11
425.3147879125
 21
302.6140763537
 31
0.0
  0
LINE
  5
14F
330
1F
100
AcDbEntity
  8
0
  6
Continuous
 62
     7
370
    15
100
AcDbLine
 10
425.3147879125
 20
302.6140763537
 30
0.0
 11
428.0660913766
 21
302.0941450373
 31
0.0
  0
LINE
  5
150
330
1F
100
AcDbEntity
  8
0
  6
Continuous
 62
     7
370
    15
100
AcDbLine
 10
424.9691979469
 20
302.9394581095
 30
0.0
 11
425.4068908722
 21
305.2555873171
 31
0.0
  0
LINE
  5
151
330
1F
100
AcDbEntity
  8
0
  6
Continuous
 62
     7
370
    15
100
AcDbLine
 10
424.9691979469
 20
302.9394581095
 30
0.0
 11
425.3147879125
 21
302.6140763537
 31
0.0
  0
LINE
  5
152
330
1F
100
AcDbEntity
  8
0
  6
Continuous
 62
     7
370
    15
100
AcDbLine
 10
425.3147879125
 20
302.6140763537
 30
0.0
 11
424.4072610022
 21
297.8117480055
 31
0.0
  0
LINE
  5
153
330
1F
100
AcDbEntity
  8
0
  6
Continuous
 62
     7
370
    15
100
AcDbLine
 10
427.1585644663
 20
297.2918166891
 30
0.0
 11
428.0660913766
 21
302.0941450373
 31
0.0
  0
LINE
  5
154
330
1F
100
AcDbEntity
  8
0
  6
Continuous
 62
     7
370
    15
100
AcDbLine
 10
424.4072610022
 20
297.8117480055
 30
0.0
 11
427.1585644663
 21
297.2918166891
 31
0.0
  0
LINE
  5
155
330
1F
100
AcDbEntity
  8
0
  6
Continuous
 62
     7
370
    15
100
AcDbLine
 10
427.6420691491
 20
297.6962282435
 30
0.0
 11
427.1585644663
 21
297.2918166891
 31
0.0
  0
LINE
  5
156
330
1F
100
AcDbEntity
  8
0
  6
Continuous
 62
     7
370
    15
100
AcDbLine
 10
428.506588328
 20
302.2709741369
 30
0.0
 11
427.6420691491
 21
297.6962282435
 31
0.0
  0
LINE
  5
157
330
1F
100
AcDbEntity
  8
0
  6
Continuous
 62
     7
370
    15
100
AcDbLine
 10
424.4072610022
 20
297.8117480055
 30
0.0
 11
424.104678768
 21
298.364712216
 31
0.0
  0
LINE
  5
158
330
1F
100
AcDbEntity
  8
0
  6
Continuous
 62
     7
370
    15
100
AcDbLine
 10
424.104678768
 20
298.364712216
 30
0.0
 11
424.9691979469
 21
302.9394581095
 31
0.0
  0
LINE
  5
159
330
1F
100
AcDbEntity
  8
0
  6
Continuous
 62
     7
370
    15
100
AcDbLine
 10
463.0861946822
 20
307.6554133669
 30
0.0
 11
462.0319464684
 21
307.4561848418
 31
0.0
  0
LINE
  5
15A
330
1F
100
AcDbEntity
  8
0
  6
Continuous
 62
     7
370
    15
100
AcDbLine
 10
463.0861946822
 20
307.6554133669
 30
0.0
 11
463.6061259986
 21
304.9041106478
 31
0.0
  0
LINE
  5
15B
330
1F
100
AcDbEntity
  8
0
  6
Continuous
 62
     7
370
    15
100
AcDbLine
 10
455.9422024966
 20
303.4558071867
 30
0.0
 11
463.6061259986
 21
304.9041106478
 31
0.0
  0
LINE
  5
15C
330
1F
100
AcDbEntity
  8
0
  6
Continuous
 62
     7
370
    15
100
AcDbLine
 10
463.0640187741
 20
308.0583050028
 30
0.0
 11
480.8339694024
 21
311.4164008871
 31
0.0
  0
LINE
  5
15D
330
1F
100
AcDbEntity
  8
0
  6
Continuous
 62
     7
370
    15
100
AcDbLine
 10
481.123403597
 20
311.0640182272
 30
0.0
 11
463.0861946822
 21
307.6554133669
 31
0.0
  0
LINE
  5
15E
330
1F
100
AcDbEntity
  8
0
  6
Continuous
 62
     7
370
    15
100
AcDbLine
 10
463.0640187741
 20
308.0583050028
 30
0.0
 11
463.0861946822
 21
307.6554133669
 31
0.0
  0
LINE
  5
15F
330
1F
100
AcDbEntity
  8
0
  6
Continuous
 62
     7
370
    15
100
AcDbLine
 10
463.6061259986
 20
304.9041106478
 30
0.0
 11
481.6433349133
 21
308.3127155081
 31
0.0
  0
LINE
  5
160
330
1F
100
AcDbEntity
  8
0
  6
Continuous
 62
     7
370
    15
100
AcDbLine
 10
481.5024533749
 20
307.8790142313
 30
0.0
 11
463.7325027467
 21
304.5209123865
 31
0.0
  0
LINE
  5
161
330
1F
100
AcDbEntity
  8
0
  6
Continuous
 62
     7
370
    15
100
AcDbLine
 10
463.6061259986
 20
304.9041106478
 30
0.0
 11
463.7325027467
 21
304.5209123865
 31
0.0
  0
LINE
  5
162
330
1F
100
AcDbEntity
  8
0
  6
Continuous
 62
     7
370
    15
100
AcDbLine
 10
461.8187317134
 20
307.8229739443
 30
0.0
 11
463.0640187741
 21
308.0583050028
 31
0.0
  0
LINE
  5
163
330
1F
100
AcDbEntity
  8
0
  6
Continuous
 62
     7
370
    15
100
AcDbLine
 10
463.7325027467
 20
304.5209123865
 30
0.0
 11
455.782068658
 21
303.0184700266
 31
0.0
  0
LINE
  5
164
330
1F
100
AcDbEntity
  8
0
  6
Continuous
 62
     7
370
    15
100
AcDbLine
 10
481.5681138516
 20
311.1480607764
 30
0.0
 11
481.1007955552
 21
311.4668264166
 31
0.0
  0
LWPOLYLINE
  5
165
330
1F
100
AcDbEntity
  8
0
  6
Continuous
 62
     7
370
    15
100
AcDbPolyline
 90
        9
 70
   128
 43
0.0
 10
481.5681138516
 20
311.1480607764
 10
481.5605798245
 20
311.1466362253
 10
481.5380790711
 20
311.1423864142
 10
481.5009692193
 20
311.1353709475
 10
481.4498165131
 20
311.1257030741
 10
481.3854017735
 20
311.1135318056
 10
481.3087144376
 20
311.0990419165
 10
481.2209346772
 20
311.0824479834
 10
481.123403597
 20
311.0640182272
  0
LWPOLYLINE
  5
166
330
1F
100
AcDbEntity
  8
0
  6
Continuous
 62
     7
370
    15
100
AcDbPolyline
 90
        9
 70
   128
 43
0.0
 10
480.8339694024
 20
311.4164008871
 10
480.8924892426
 20
311.4274635092
 10
480.9451559068
 20
311.4374174849
 10
480.9911706925
 20
311.4461078421
 10
481.0298183442
 20
311.4534153715
 10
481.0605087758
 20
311.4592149035
 10
481.0827770711
 20
311.4634229914
 10
481.0962715627
 20
311.4659740702
 10
481.1007955552
 20
311.4668264166
  0
LWPOLYLINE
  5
167
330
1F
100
AcDbEntity
  8
0
  6
Continuous
 62
     7
370
    15
100
AcDbPolyline
 90
        9
 70
   128
 43
0.0
 10
481.6433349133
 20
308.3127155081
 10
481.7408659936
 20
308.3311452643
 10
481.8286457539
 20
308.3477332369
 10
481.9053330899
 20
308.3622290865
 10
481.9697478295
 20
308.374400355
 10
482.0209005357
 20
308.3840682284
 10
482.0580103875
 20
308.3910777346
 10
482.0805111409
 20
308.3953335062
 10
482.088045168
 20
308.3967580572
  0
LINE
  5
168
330
1F
100
AcDbEntity
  8
0
  6
Continuous
 62
     7
370
    15
100
AcDbLine
 10
482.088045168
 20
308.3967580572
 30
0.0
 11
481.7692795278
 21
307.9294397608
 31
0.0
  0
LWPOLYLINE
  5
169
330
1F
100
AcDbEntity
  8
0
  6
Continuous
 62
     7
370
    15
100
AcDbPolyline
 90
        9
 70
   128
 43
0.0
 10
481.7692795278
 20
307.9294397608
 10
481.7647555352
 20
307.9285814539
 10
481.7512610436
 20
307.9260303751
 10
481.7289927483
 20
307.9218222872
 10
481.6983023168
 20
307.9160227553
 10
481.6596487046
 20
307.9087211863
 10
481.6136398793
 20
307.9000248686
 10
481.5609732152
 20
307.8900708929
 10
481.5024533749
 20
307.8790142313
  0
LINE
  5
16A
330
1F
100
AcDbEntity
  8
0
  6
Continuous
 62
     7
370
    15
100
AcDbLine
 10
481.5681138516
 20
311.1480607764
 30
0.0
 11
482.088045168
 21
308.3967580572
 31
0.0
  0
LINE
  5
16B
330
1F
100
AcDbEntity
  8
0
  6
Continuous
 62
     7
370
    15
100
AcDbLine
 10
437.3524019004
 20
302.9981627241
 30
0.0
 11
429.2945341648
 21
304.5209123865
 31
0.0
  0
LINE
  5
16C
330
1F
100
AcDbEntity
  8
0
  6
Continuous
 62
     7
370
    15
100
AcDbLine
 10
429.2945341648
 20
304.5209123865
 30
0.0
 11
429.4209116579
 21
304.9041106478
 31
0.0
  0
LINE
  5
16D
330
1F
100
AcDbEntity
  8
0
  6
Continuous
 62
     7
370
    15
100
AcDbLine
 10
429.4209116579
 20
304.9041106478
 30
0.0
 11
431.426241386
 21
304.5251502768
 31
0.0
  0
LINE
  5
16E
330
1F
100
AcDbEntity
  8
0
  6
Continuous
 62
     7
370
    15
100
AcDbLine
 10
432.3952564479
 20
304.3420269266
 30
0.0
 11
437.1922680617
 21
303.4355058447
 31
0.0
  0
LINE
  5
16F
330
1F
100
AcDbEntity
  8
0
  6
Continuous
 62
     7
370
    15
100
AcDbLine
 10
429.9630173922
 20
308.0583050028
 30
0.0
 11
431.1471642435
 21
307.8345253245
 31
0.0
  0
LINE
  5
170
330
1F
100
AcDbEntity
  8
0
  6
Continuous
 62
     7
370
    15
100
AcDbLine
 10
430.9192487479
 20
307.4705197588
 30
0.0
 11
429.9408429743
 21
307.6554133669
 31
0.0
  0
LINE
  5
171
330
1F
100
AcDbEntity
  8
0
  6
Continuous
 62
     7
370
    15
100
AcDbLine
 10
429.9408429743
 20
307.6554133669
 30
0.0
 11
429.9630173922
 21
308.0583050028
 31
0.0
  0
LINE
  5
172
330
1F
100
AcDbEntity
  8
0
  6
Continuous
 62
     7
370
    15
100
AcDbLine
 10
429.9408429743
 20
307.6554133669
 30
0.0
 11
429.4209116579
 21
304.9041106478
 31
0.0
  0
LINE
  5
173
330
1F
100
AcDbEntity
  8
0
  6
Continuous
 62
     7
370
    15
100
AcDbLine
 10
429.9408429743
 20
307.6554133669
 30
0.0
 11
411.9036310793
 21
311.0640182272
 31
0.0
  0
LINE
  5
174
330
1F
100
AcDbEntity
  8
0
  6
Continuous
 62
     7
370
    15
100
AcDbLine
 10
412.193066764
 20
311.4164008871
 30
0.0
 11
429.9630173922
 21
308.0583050028
 31
0.0
  0
LINE
  5
175
330
1F
100
AcDbEntity
  8
0
  6
Continuous
 62
     7
370
    15
100
AcDbLine
 10
411.3836997629
 20
308.3127155081
 30
0.0
 11
429.4209116579
 21
304.9041106478
 31
0.0
  0
LINE
  5
176
330
1F
100
AcDbEntity
  8
0
  6
Continuous
 62
     7
370
    15
100
AcDbLine
 10
429.2945341648
 20
304.5209123865
 30
0.0
 11
411.5245835365
 21
307.8790142313
 31
0.0
  0
LWPOLYLINE
  5
177
330
1F
100
AcDbEntity
  8
0
  6
Continuous
 62
     7
370
    15
100
AcDbPolyline
 90
        9
 70
   128
 43
0.0
 10
411.9036310793
 20
311.0640182272
 10
411.8061014892
 20
311.0824479834
 10
411.7183202387
 20
311.0990419165
 10
411.6416343928
 20
311.1135318056
 10
411.5772196532
 20
311.1257030741
 10
411.526065457
 20
311.1353709475
 10
411.4889548601
 20
311.1423864142
 10
411.466458577
 20
311.1466362253
 10
411.4589215697
 20
311.1480607764
  0
LINE
  5
178
330
1F
100
AcDbEntity
  8
0
  6
Continuous
 62
     7
370
    15
100
AcDbLine
 10
411.4589215697
 20
311.1480607764
 30
0.0
 11
411.9262406112
 21
311.4668264166
 31
0.0
  0
LWPOLYLINE
  5
179
330
1F
100
AcDbEntity
  8
0
  6
Continuous
 62
     7
370
    15
100
AcDbPolyline
 90
        9
 70
   128
 43
0.0
 10
411.9262406112
 20
311.4668264166
 10
411.9307631136
 20
311.4659740702
 10
411.9442605854
 20
311.4634229914
 10
411.9665266455
 20
311.4592149035
 10
411.9972200573
 20
311.4534153715
 10
412.0358684541
 20
311.4461078421
 10
412.0818802596
 20
311.4374174849
 10
412.1345491589
 20
311.4274635092
 10
412.193066764
 20
311.4164008871
  0
LWPOLYLINE
  5
17A
330
1F
100
AcDbEntity
  8
0
  6
Continuous
 62
     7
370
    15
100
AcDbPolyline
 90
        9
 70
   128
 43
0.0
 10
410.9389902533
 20
308.3967580572
 10
410.9465272606
 20
308.3953335062
 10
410.9690235437
 20
308.3910777346
 10
411.0061341406
 20
308.3840682284
 10
411.0572883368
 20
308.374400355
 10
411.1217030764
 20
308.3622290865
 10
411.1983889223
 20
308.3477332369
 10
411.2861701728
 20
308.3311452643
 10
411.3836997629
 20
308.3127155081
  0
LINE
  5
17B
330
1F
100
AcDbEntity
  8
0
  6
Continuous
 62
     7
370
    15
100
AcDbLine
 10
411.4589215697
 20
311.1480607764
 30
0.0
 11
410.9389902533
 21
308.3967580572
 31
0.0
  0
LINE
  5
17C
330
1F
100
AcDbEntity
  8
0
  6
Continuous
 62
     7
370
    15
100
AcDbLine
 10
410.9389902533
 20
308.3967580572
 30
0.0
 11
411.2577573837
 21
307.9294397608
 31
0.0
  0
LWPOLYLINE
  5
17D
330
1F
100
AcDbEntity
  8
0
  6
Continuous
 62
     7
370
    15
100
AcDbPolyline
 90
        9
 70
   128
 43
0.0
 10
411.5245835365
 20
307.8790142313
 10
411.4660659314
 20
307.8900708929
 10
411.4133970321
 20
307.9000248686
 10
411.3673852266
 20
307.9087211863
 10
411.3287368298
 20
307.9160227553
 10
411.298043418
 20
307.9218222872
 10
411.2757773579
 20
307.9260303751
 10
411.2622798861
 20
307.9285814539
 10
411.2577573837
 20
307.9294397608
  0
LINE
  5
17E
330
1F
100
AcDbEntity
  8
0
  6
Continuous
 62
     7
370
    15
100
AcDbLine
 10
445.1135167361
 20
577.6079348586
 30
0.0
 11
445.1135167361
 21
576.708143141
 31
0.0
  0
LINE
  5
17F
330
1F
100
AcDbEntity
  8
0
  6
Continuous
 62
     7
370
    15
100
AcDbLine
 10
447.9135194302
 20
576.708143141
 30
0.0
 11
447.9135194302
 21
577.5846383832
 31
0.0
  0
LINE
  5
180
330
1F
100
AcDbEntity
  8
0
  6
Continuous
 62
     7
370
    15
100
AcDbLine
 10
445.1135167361
 20
576.708143141
 30
0.0
 11
447.9135194302
 21
576.708143141
 31
0.0
  0
LINE
  5
181
330
1F
100
AcDbEntity
  8
0
  6
Continuous
 62
     7
370
    15
100
AcDbLine
 10
448.3135172606
 20
577.1081439517
 30
0.0
 11
447.9135194302
 21
576.708143141
 31
0.0
  0
LINE
  5
182
330
1F
100
AcDbEntity
  8
0
  6
Continuous
 62
     7
370
    15
100
AcDbLine
 10
448.3135172606
 20
577.9264561198
 30
0.0
 11
448.3135172606
 21
577.1081439517
 31
0.0
  0
LINE
  5
183
330
1F
100
AcDbEntity
  8
0
  6
Continuous
 62
     7
370
    15
100
AcDbLine
 10
445.1135167361
 20
576.708143141
 30
0.0
 11
444.7135189057
 21
577.1081439517
 31
0.0
  0
LINE
  5
184
330
1F
100
AcDbEntity
  8
0
  6
Continuous
 62
     7
370
    15
100
AcDbLine
 10
444.7135189057
 20
577.1081439517
 30
0.0
 11
444.7135189057
 21
578.0009768269
 31
0.0
  0
LINE
  5
185
330
1F
100
AcDbEntity
  8
0
  6
Continuous
 62
     7
370
    15
100
AcDbLine
 10
447.9135194302
 20
572.2083560488
 30
0.0
 11
447.9135194302
 21
573.1081477664
 31
0.0
  0
LINE
  5
186
330
1F
100
AcDbEntity
  8
0
  6
Continuous
 62
     7
370
    15
100
AcDbLine
 10
448.3135172606
 20
572.7081469557
 30
0.0
 11
447.9135194302
 21
573.1081477664
 31
0.0
  0
LINE
  5
187
330
1F
100
AcDbEntity
  8
0
  6
Continuous
 62
     7
370
    15
100
AcDbLine
 10
448.3135172606
 20
572.7081469557
 30
0.0
 11
448.3135172606
 21
571.8153111002
 31
0.0
  0
LINE
  5
188
330
1F
100
AcDbEntity
  8
0
  6
Continuous
 62
     7
370
    15
100
AcDbLine
 10
445.1135167361
 20
573.1081477664
 30
0.0
 11
445.1135167361
 21
572.231649544
 31
0.0
  0
LINE
  5
189
330
1F
100
AcDbEntity
  8
0
  6
Continuous
 62
     7
370
    15
100
AcDbLine
 10
445.1135167361
 20
573.1081477664
 30
0.0
 11
447.9135194302
 21
573.1081477664
 31
0.0
  0
LINE
  5
18A
330
1F
100
AcDbEntity
  8
0
  6
Continuous
 62
     7
370
    15
100
AcDbLine
 10
445.1135167361
 20
573.1081477664
 30
0.0
 11
444.7135189057
 21
572.7081469557
 31
0.0
  0
LINE
  5
18B
330
1F
100
AcDbEntity
  8
0
  6
Continuous
 62
     7
370
    15
100
AcDbLine
 10
444.7135189057
 20
571.8898347876
 30
0.0
 11
444.7135189057
 21
572.7081469557
 31
0.0
  0
LINE
  5
18C
330
1F
100
AcDbEntity
  8
0
  6
Continuous
 62
     7
370
    15
100
AcDbLine
 10
448.3135172606
 20
577.1081439517
 30
0.0
 11
448.3135172606
 21
576.708143141
 31
0.0
  0
LINE
  5
18D
330
1F
100
AcDbEntity
  8
0
  6
Continuous
 62
     7
370
    15
100
AcDbLine
 10
448.3135172606
 20
573.1081477664
 30
0.0
 11
448.3135172606
 21
572.7081469557
 31
0.0
  0
LINE
  5
18E
330
1F
100
AcDbEntity
  8
0
  6
Continuous
 62
     7
370
    15
100
AcDbLine
 10
444.7135189057
 20
572.7081469557
 30
0.0
 11
444.7135189057
 21
573.1081477664
 31
0.0
  0
LINE
  5
18F
330
1F
100
AcDbEntity
  8
0
  6
Continuous
 62
     7
370
    15
100
AcDbLine
 10
444.7135189057
 20
576.708143141
 30
0.0
 11
444.7135189057
 21
577.1081439517
 31
0.0
  0
LINE
  5
190
330
1F
100
AcDbEntity
  8
0
  6
Continuous
 62
     7
370
    15
100
AcDbLine
 10
447.9135194302
 20
610.4826725385
 30
0.0
 11
447.9135194302
 21
612.9081449769
 31
0.0
  0
LINE
  5
191
330
1F
100
AcDbEntity
  8
0
  6
Continuous
 62
     7
370
    15
100
AcDbLine
 10
447.9135194302
 20
612.9081449769
 30
0.0
 11
448.3135172606
 21
612.5408849976
 31
0.0
  0
LINE
  5
192
330
1F
100
AcDbEntity
  8
0
  6
Continuous
 62
     7
370
    15
100
AcDbLine
 10
448.3135172606
 20
612.5408849976
 30
0.0
 11
448.3135172606
 21
610.4826725385
 31
0.0
  0
LINE
  5
193
330
1F
100
AcDbEntity
  8
0
  6
Continuous
 62
     7
370
    15
100
AcDbLine
 10
445.1135167361
 20
612.9081449769
 30
0.0
 11
445.1135167361
 21
610.4826725385
 31
0.0
  0
LINE
  5
194
330
1F
100
AcDbEntity
  8
0
  6
Continuous
 62
     7
370
    15
100
AcDbLine
 10
445.1135167361
 20
612.9081449769
 30
0.0
 11
447.9135194302
 21
612.9081449769
 31
0.0
  0
LINE
  5
195
330
1F
100
AcDbEntity
  8
0
  6
Continuous
 62
     7
370
    15
100
AcDbLine
 10
444.7135189057
 20
612.5408849976
 30
0.0
 11
445.1135167361
 21
612.9081449769
 31
0.0
  0
LINE
  5
196
330
1F
100
AcDbEntity
  8
0
  6
Continuous
 62
     7
370
    15
100
AcDbLine
 10
444.7135189057
 20
610.4826725385
 30
0.0
 11
444.7135189057
 21
612.5408849976
 31
0.0
  0
LINE
  5
197
330
1F
100
AcDbEntity
  8
0
  6
Continuous
 62
     7
370
    15
100
AcDbLine
 10
447.9135194302
 20
536.9081429503
 30
0.0
 11
447.9135194302
 21
539.3336168788
 31
0.0
  0
LINE
  5
198
330
1F
100
AcDbEntity
  8
0
  6
Continuous
 62
     7
370
    15
100
AcDbLine
 10
447.9135194302
 20
536.9081429503
 30
0.0
 11
448.3135172606
 21
537.2754029295
 31
0.0
  0
LINE
  5
199
330
1F
100
AcDbEntity
  8
0
  6
Continuous
 62
     7
370
    15
100
AcDbLine
 10
448.3135172606
 20
539.3336168788
 30
0.0
 11
448.3135172606
 21
537.2754029295
 31
0.0
  0
LINE
  5
19A
330
1F
100
AcDbEntity
  8
0
  6
Continuous
 62
     7
370
    15
100
AcDbLine
 10
445.1135167361
 20
539.3336168788
 30
0.0
 11
445.1135167361
 21
536.9081429503
 31
0.0
  0
LINE
  5
19B
330
1F
100
AcDbEntity
  8
0
  6
Continuous
 62
     7
370
    15
100
AcDbLine
 10
445.1135167361
 20
536.9081429503
 30
0.0
 11
447.9135194302
 21
536.9081429503
 31
0.0
  0
LINE
  5
19C
330
1F
100
AcDbEntity
  8
0
  6
Continuous
 62
     7
370
    15
100
AcDbLine
 10
444.7135189057
 20
537.2754029295
 30
0.0
 11
445.1135167361
 21
536.9081429503
 31
0.0
  0
LINE
  5
19D
330
1F
100
AcDbEntity
  8
0
  6
Continuous
 62
     7
370
    15
100
AcDbLine
 10
444.7135189057
 20
537.2754029295
 30
0.0
 11
444.7135189057
 21
539.3336168788
 31
0.0
  0
LINE
  5
19E
330
1F
100
AcDbEntity
  8
0
  6
Continuous
 62
     7
370
    15
100
AcDbLine
 10
445.1135167361
 20
620.908144798
 30
0.0
 11
445.1135167361
 21
612.9081449769
 31
0.0
  0
LINE
  5
19F
330
1F
100
AcDbEntity
  8
0
  6
Continuous
 62
     7
370
    15
100
AcDbLine
 10
445.1135167361
 20
620.908144798
 30
0.0
 11
447.9135194302
 21
620.908144798
 31
0.0
  0
LINE
  5
1A0
330
1F
100
AcDbEntity
  8
0
  6
Continuous
 62
     7
370
    15
100
AcDbLine
 10
447.9135194302
 20
612.9081449769
 30
0.0
 11
447.9135194302
 21
620.908144798
 31
0.0
  0
LINE
  5
1A1
330
1F
100
AcDbEntity
  8
0
  6
Continuous
 62
     7
370
    15
100
AcDbLine
 10
447.9135194302
 20
620.908144798
 30
0.0
 11
448.3135172606
 21
620.4478591046
 31
0.0
  0
LINE
  5
1A2
330
1F
100
AcDbEntity
  8
0
  6
Continuous
 62
     7
370
    15
100
AcDbLine
 10
448.3135172606
 20
620.4478591046
 30
0.0
 11
448.3135172606
 21
612.5408849976
 31
0.0
  0
LINE
  5
1A3
330
1F
100
AcDbEntity
  8
0
  6
Continuous
 62
     7
370
    15
100
AcDbLine
 10
444.7135189057
 20
620.4478591046
 30
0.0
 11
445.1135167361
 21
620.908144798
 31
0.0
  0
LINE
  5
1A4
330
1F
100
AcDbEntity
  8
0
  6
Continuous
 62
     7
370
    15
100
AcDbLine
 10
444.7135189057
 20
612.5408849976
 30
0.0
 11
444.7135189057
 21
620.4478591046
 31
0.0
  0
LINE
  5
1A5
330
1F
100
AcDbEntity
  8
0
  6
Continuous
 62
     7
370
    15
100
AcDbLine
 10
445.1135167361
 20
536.9081429503
 30
0.0
 11
445.1135167361
 21
528.9081446192
 31
0.0
  0
LINE
  5
1A6
330
1F
100
AcDbEntity
  8
0
  6
Continuous
 62
     7
370
    15
100
AcDbLine
 10
447.9135194302
 20
528.9081446192
 30
0.0
 11
447.9135194302
 21
536.9081429503
 31
0.0
  0
LINE
  5
1A7
330
1F
100
AcDbEntity
  8
0
  6
Continuous
 62
     7
370
    15
100
AcDbLine
 10
445.1135167361
 20
528.9081446192
 30
0.0
 11
447.9135194302
 21
528.9081446192
 31
0.0
  0
LINE
  5
1A8
330
1F
100
AcDbEntity
  8
0
  6
Continuous
 62
     7
370
    15
100
AcDbLine
 10
447.9135194302
 20
528.9081446192
 30
0.0
 11
448.3135172606
 21
529.3684295676
 31
0.0
  0
LINE
  5
1A9
330
1F
100
AcDbEntity
  8
0
  6
Continuous
 62
     7
370
    15
100
AcDbLine
 10
448.3135172606
 20
537.2754029295
 30
0.0
 11
448.3135172606
 21
529.3684295676
 31
0.0
  0
LINE
  5
1AA
330
1F
100
AcDbEntity
  8
0
  6
Continuous
 62
     7
370
    15
100
AcDbLine
 10
444.7135189057
 20
529.3684295676
 30
0.0
 11
445.1135167361
 21
528.9081446192
 31
0.0
  0
LINE
  5
1AB
330
1F
100
AcDbEntity
  8
0
  6
Continuous
 62
     7
370
    15
100
AcDbLine
 10
444.7135189057
 20
529.3684295676
 30
0.0
 11
444.7135189057
 21
537.2754029295
 31
0.0
  0
LINE
  5
1AC
330
1F
100
AcDbEntity
  8
0
  6
Continuous
 62
     7
370
    15
100
AcDbLine
 10
445.2270695449
 20
571.9128839037
 30
0.0
 11
431.4319105328
 21
558.3576432726
 31
0.0
  0
LINE
  5
1AD
330
1F
100
AcDbEntity
  8
0
  6
Continuous
 62
     7
370
    15
100
AcDbLine
 10
447.7241256715
 20
571.9128839037
 30
0.0
 11
445.2270695449
 21
571.9128839037
 31
0.0
  0
LINE
  5
1AE
330
1F
100
AcDbEntity
  8
0
  6
Continuous
 62
     7
370
    15
100
AcDbLine
 10
461.5192839385
 20
558.3576432726
 30
0.0
 11
447.7241256715
 21
571.9128839037
 31
0.0
  0
LINE
  5
1AF
330
1F
100
AcDbEntity
  8
0
  6
Continuous
 62
     7
370
    15
100
AcDbLine
 10
449.6895947934
 20
540.5876926444
 30
0.0
 11
461.5192839385
 21
558.3576432726
 31
0.0
  0
ARC
  5
1B0
330
1F
100
AcDbEntity
  8
0
  6
Continuous
 62
     7
370
    15
100
AcDbCircle
 10
449.1891721496
 20
540.923536337
 30
0.0
 40
0.6026722229067929
100
AcDbArc
 50
269.8390618386
 51
326.1336442875
  0
LINE
  5
1B1
330
1F
100
AcDbEntity
  8
0
  6
Continuous
 62
     7
370
    15
100
AcDbLine
 10
443.763715911
 20
540.3208664916
 30
0.0
 11
449.1874793054
 21
540.3208664916
 31
0.0
  0
ARC
  5
1B2
330
1F
100
AcDbEntity
  8
0
  6
Continuous
 62
     7
370
    15
100
AcDbCircle
 10
443.7620206557
 20
540.9235317999
 30
0.0
 40
0.6026676926929092
100
AcDbArc
 50
213.8661252889
 51
270.161168585
  0
LINE
  5
1B3
330
1F
100
AcDbEntity
  8
0
  6
Continuous
 62
     7
370
    15
100
AcDbLine
 10
431.4319105328
 20
558.3576432726
 30
0.0
 11
443.2616004229
 21
540.5876926444
 31
0.0
  0
ARC
  5
1B4
330
1F
100
AcDbEntity
  8
0
  6
Continuous
 62
     7
370
    15
100
AcDbCircle
 10
443.7608991291
 20
540.8580047781
 30
0.0
 40
1.004460532519078
100
AcDbArc
 50
213.8665642687
 51
270.1606732369
  0
LINE
  5
1B5
330
1F
100
AcDbEntity
  8
0
  6
Continuous
 62
     7
370
    15
100
AcDbLine
 10
449.1874793054
 20
539.8535481951
 30
0.0
 11
443.763715911
 21
539.8535481951
 31
0.0
  0
ARC
  5
1B6
330
1F
100
AcDbEntity
  8
0
  6
Continuous
 62
     7
370
    15
100
AcDbCircle
 10
449.1902958013
 20
540.8580053162
 30
0.0
 40
1.00446106982935
100
AcDbArc
 50
269.8393431604
 51
326.1334193339
  0
LINE
  5
1B7
330
1F
100
AcDbEntity
  8
0
  6
Continuous
 62
     7
370
    15
100
AcDbLine
 10
442.9268577577
 20
540.2982584498
 30
0.0
 11
430.9192487479
 21
558.3354703448
 31
0.0
  0
LINE
  5
1B8
330
1F
100
AcDbEntity
  8
0
  6
Continuous
 62
     7
370
    15
100
AcDbLine
 10
431.4319105328
 20
558.3576432726
 30
0.0
 11
430.9192487479
 21
558.3354703448
 31
0.0
  0
LINE
  5
1B9
330
1F
100
AcDbEntity
  8
0
  6
Continuous
 62
     7
370
    15
100
AcDbLine
 10
462.0319464684
 20
558.3354703448
 30
0.0
 11
450.0243374587
 21
540.2982584498
 31
0.0
  0
LINE
  5
1BA
330
1F
100
AcDbEntity
  8
0
  6
Continuous
 62
     7
370
    15
100
AcDbLine
 10
462.0319464684
 20
558.3354703448
 30
0.0
 11
461.5192839385
 21
558.3576432726
 31
0.0
  0
LINE
  5
1BB
330
1F
100
AcDbEntity
  8
0
  6
Continuous
 62
     7
370
    15
100
AcDbLine
 10
443.763715911
 20
539.3336168788
 30
0.0
 11
449.1874793054
 21
539.3336168788
 31
0.0
  0
ARC
  5
1BC
330
1F
100
AcDbEntity
  8
0
  6
Continuous
 62
     7
370
    15
100
AcDbCircle
 10
443.7608991291
 20
540.3380734618
 30
0.0
 40
1.004460532519188
100
AcDbArc
 50
213.8665642687
 51
270.1606732369
  0
ARC
  5
1BD
330
1F
100
AcDbEntity
  8
0
  6
Continuous
 62
     7
370
    15
100
AcDbCircle
 10
449.1902958013
 20
540.3380739999
 30
0.0
 40
1.00446106982935
100
AcDbArc
 50
269.8393431604
 51
326.1334193339
  0
LINE
  5
1BE
330
1F
100
AcDbEntity
  8
0
  6
Continuous
 62
     7
370
    15
100
AcDbLine
 10
430.9192487479
 20
557.8155390284
 30
0.0
 11
442.9268577577
 21
539.7783271334
 31
0.0
  0
LINE
  5
1BF
330
1F
100
AcDbEntity
  8
0
  6
Continuous
 62
     7
370
    15
100
AcDbLine
 10
430.9192487479
 20
558.3354703448
 30
0.0
 11
430.9192487479
 21
557.8155390284
 31
0.0
  0
LINE
  5
1C0
330
1F
100
AcDbEntity
  8
0
  6
Continuous
 62
     7
370
    15
100
AcDbLine
 10
462.0319464684
 20
558.3354703448
 30
0.0
 11
462.0319464684
 21
557.8155390284
 31
0.0
  0
LINE
  5
1C1
330
1F
100
AcDbEntity
  8
0
  6
Continuous
 62
     7
370
    15
100
AcDbLine
 10
450.0243374587
 20
539.7783271334
 30
0.0
 11
462.0319464684
 21
557.8155390284
 31
0.0
  0
LINE
  5
1C2
330
1F
100
AcDbEntity
  8
0
  6
Continuous
 62
     7
370
    15
100
AcDbLine
 10
430.9192487479
 20
558.3354703448
 30
0.0
 11
445.0613835336
 21
572.231649544
 31
0.0
  0
LINE
  5
1C3
330
1F
100
AcDbEntity
  8
0
  6
Continuous
 62
     7
370
    15
100
AcDbLine
 10
445.2270695449
 20
571.9128839037
 30
0.0
 11
445.0613835336
 21
572.231649544
 31
0.0
  0
LINE
  5
1C4
330
1F
100
AcDbEntity
  8
0
  6
Continuous
 62
     7
370
    15
100
AcDbLine
 10
447.7241256715
 20
571.9128839037
 30
0.0
 11
447.8898116828
 21
572.231649544
 31
0.0
  0
LINE
  5
1C5
330
1F
100
AcDbEntity
  8
0
  6
Continuous
 62
     7
370
    15
100
AcDbLine
 10
447.8898116828
 20
572.231649544
 30
0.0
 11
462.0319464684
 21
558.3354703448
 31
0.0
  0
LINE
  5
1C6
330
1F
100
AcDbEntity
  8
0
  6
Continuous
 62
     7
370
    15
100
AcDbLine
 10
445.0613835336
 20
572.231649544
 30
0.0
 11
447.8898116828
 21
572.231649544
 31
0.0
  0
LINE
  5
1C7
330
1F
100
AcDbEntity
  8
0
  6
Continuous
 62
     7
370
    15
100
AcDbLine
 10
443.8137301684
 20
573.5081426165
 30
0.0
 11
449.1900125028
 21
573.5081426165
 31
0.0
  0
LINE
  5
1C8
330
1F
100
AcDbEntity
  8
0
  6
Continuous
 62
     7
370
    15
100
AcDbLine
 10
449.2133059979
 20
576.3081423304
 30
0.0
 11
443.8370236636
 21
576.3081423304
 31
0.0
  0
LINE
  5
1C9
330
1F
100
AcDbEntity
  8
0
  6
Continuous
 62
     7
370
    15
100
AcDbLine
 10
443.4952089072
 20
576.708143141
 30
0.0
 11
445.1135167361
 21
576.708143141
 31
0.0
  0
LINE
  5
1CA
330
1F
100
AcDbEntity
  8
0
  6
Continuous
 62
     7
370
    15
100
AcDbLine
 10
447.9135194302
 20
576.708143141
 30
0.0
 11
449.6063509465
 21
576.708143141
 31
0.0
  0
LINE
  5
1CB
330
1F
100
AcDbEntity
  8
0
  6
Continuous
 62
     7
370
    15
100
AcDbLine
 10
449.5318272592
 20
573.1081477664
 30
0.0
 11
447.9135194302
 21
573.1081477664
 31
0.0
  0
LINE
  5
1CC
330
1F
100
AcDbEntity
  8
0
  6
Continuous
 62
     7
370
    15
100
AcDbLine
 10
445.1135167361
 20
573.1081477664
 30
0.0
 11
443.42068671
 21
573.1081477664
 31
0.0
  0
LINE
  5
1CD
330
1F
100
AcDbEntity
  8
0
  6
Continuous
 62
     7
370
    15
100
AcDbLine
 10
408.513517815
 20
573.5081426165
 30
0.0
 11
410.9389902533
 21
573.5081426165
 31
0.0
  0
LINE
  5
1CE
330
1F
100
AcDbEntity
  8
0
  6
Continuous
 62
     7
370
    15
100
AcDbLine
 10
408.513517815
 20
573.5081426165
 30
0.0
 11
408.513517815
 21
576.3081423304
 31
0.0
  0
LINE
  5
1CF
330
1F
100
AcDbEntity
  8
0
  6
Continuous
 62
     7
370
    15
100
AcDbLine
 10
410.9389902533
 20
576.3081423304
 30
0.0
 11
408.513517815
 21
576.3081423304
 31
0.0
  0
LINE
  5
1D0
330
1F
100
AcDbEntity
  8
0
  6
Continuous
 62
     7
370
    15
100
AcDbLine
 10
484.1462591172
 20
576.708143141
 30
0.0
 11
484.5135190965
 21
576.3081423304
 31
0.0
  0
LINE
  5
1D1
330
1F
100
AcDbEntity
  8
0
  6
Continuous
 62
     7
370
    15
100
AcDbLine
 10
484.5135190965
 20
576.3081423304
 30
0.0
 11
482.088045168
 21
576.3081423304
 31
0.0
  0
LINE
  5
1D2
330
1F
100
AcDbEntity
  8
0
  6
Continuous
 62
     7
370
    15
100
AcDbLine
 10
482.088045168
 20
576.708143141
 30
0.0
 11
484.1462591172
 21
576.708143141
 31
0.0
  0
LINE
  5
1D3
330
1F
100
AcDbEntity
  8
0
  6
Continuous
 62
     7
370
    15
100
AcDbLine
 10
482.088045168
 20
573.5081426165
 30
0.0
 11
484.5135190965
 21
573.5081426165
 31
0.0
  0
LINE
  5
1D4
330
1F
100
AcDbEntity
  8
0
  6
Continuous
 62
     7
370
    15
100
AcDbLine
 10
484.5135190965
 20
573.5081426165
 30
0.0
 11
484.5135190965
 21
576.3081423304
 31
0.0
  0
LINE
  5
1D5
330
1F
100
AcDbEntity
  8
0
  6
Continuous
 62
     7
370
    15
100
AcDbLine
 10
408.513517815
 20
576.3081423304
 30
0.0
 11
408.8807785393
 21
576.708143141
 31
0.0
  0
LINE
  5
1D6
330
1F
100
AcDbEntity
  8
0
  6
Continuous
 62
     7
370
    15
100
AcDbLine
 10
408.8807785393
 20
576.708143141
 30
0.0
 11
410.9389902533
 21
576.708143141
 31
0.0
  0
LINE
  5
1D7
330
1F
100
AcDbEntity
  8
0
  6
Continuous
 62
     7
370
    15
100
AcDbLine
 10
408.8807785393
 20
573.1081477664
 30
0.0
 11
408.513517815
 21
573.5081426165
 31
0.0
  0
LINE
  5
1D8
330
1F
100
AcDbEntity
  8
0
  6
Continuous
 62
     7
370
    15
100
AcDbLine
 10
410.9389902533
 20
573.1081477664
 30
0.0
 11
408.8807785393
 21
573.1081477664
 31
0.0
  0
LINE
  5
1D9
330
1F
100
AcDbEntity
  8
0
  6
Continuous
 62
     7
370
    15
100
AcDbLine
 10
484.5135190965
 20
573.5081426165
 30
0.0
 11
484.1462591172
 21
573.1081477664
 31
0.0
  0
LINE
  5
1DA
330
1F
100
AcDbEntity
  8
0
  6
Continuous
 62
     7
370
    15
100
AcDbLine
 10
484.1462591172
 20
573.1081477664
 30
0.0
 11
482.088045168
 21
573.1081477664
 31
0.0
  0
LINE
  5
1DB
330
1F
100
AcDbEntity
  8
0
  6
Continuous
 62
     7
370
    15
100
AcDbLine
 10
408.513517815
 20
576.3081423304
 30
0.0
 11
400.5135187388
 21
576.3081423304
 31
0.0
  0
LINE
  5
1DC
330
1F
100
AcDbEntity
  8
0
  6
Continuous
 62
     7
370
    15
100
AcDbLine
 10
400.5135187388
 20
576.3081423304
 30
0.0
 11
400.9738036872
 21
576.708143141
 31
0.0
  0
LINE
  5
1DD
330
1F
100
AcDbEntity
  8
0
  6
Continuous
 62
     7
370
    15
100
AcDbLine
 10
400.9738036872
 20
576.708143141
 30
0.0
 11
408.8807785393
 21
576.708143141
 31
0.0
  0
LINE
  5
1DE
330
1F
100
AcDbEntity
  8
0
  6
Continuous
 62
     7
370
    15
100
AcDbLine
 10
484.5135190965
 20
573.5081426165
 30
0.0
 11
492.5135174275
 21
573.5081426165
 31
0.0
  0
LINE
  5
1DF
330
1F
100
AcDbEntity
  8
0
  6
Continuous
 62
     7
370
    15
100
AcDbLine
 10
492.5135174275
 20
576.3081423304
 30
0.0
 11
484.5135190965
 21
576.3081423304
 31
0.0
  0
LINE
  5
1E0
330
1F
100
AcDbEntity
  8
0
  6
Continuous
 62
     7
370
    15
100
AcDbLine
 10
492.5135174275
 20
573.5081426165
 30
0.0
 11
492.5135174275
 21
576.3081423304
 31
0.0
  0
LINE
  5
1E1
330
1F
100
AcDbEntity
  8
0
  6
Continuous
 62
     7
370
    15
100
AcDbLine
 10
492.0532324792
 20
576.708143141
 30
0.0
 11
492.5135174275
 21
576.3081423304
 31
0.0
  0
LINE
  5
1E2
330
1F
100
AcDbEntity
  8
0
  6
Continuous
 62
     7
370
    15
100
AcDbLine
 10
484.1462591172
 20
576.708143141
 30
0.0
 11
492.0532324792
 21
576.708143141
 31
0.0
  0
LINE
  5
1E3
330
1F
100
AcDbEntity
  8
0
  6
Continuous
 62
     7
370
    15
100
AcDbLine
 10
400.5135187388
 20
573.5081426165
 30
0.0
 11
408.513517815
 21
573.5081426165
 31
0.0
  0
LINE
  5
1E4
330
1F
100
AcDbEntity
  8
0
  6
Continuous
 62
     7
370
    15
100
AcDbLine
 10
400.5135187388
 20
573.5081426165
 30
0.0
 11
400.5135187388
 21
576.3081423304
 31
0.0
  0
LINE
  5
1E5
330
1F
100
AcDbEntity
  8
0
  6
Continuous
 62
     7
370
    15
100
AcDbLine
 10
492.5135174275
 20
573.5081426165
 30
0.0
 11
492.0532324792
 21
573.1081477664
 31
0.0
  0
LINE
  5
1E6
330
1F
100
AcDbEntity
  8
0
  6
Continuous
 62
     7
370
    15
100
AcDbLine
 10
492.0532324792
 20
573.1081477664
 30
0.0
 11
484.1462591172
 21
573.1081477664
 31
0.0
  0
LINE
  5
1E7
330
1F
100
AcDbEntity
  8
0
  6
Continuous
 62
     7
370
    15
100
AcDbLine
 10
400.9738036872
 20
573.1081477664
 30
0.0
 11
400.5135187388
 21
573.5081426165
 31
0.0
  0
LINE
  5
1E8
330
1F
100
AcDbEntity
  8
0
  6
Continuous
 62
     7
370
    15
100
AcDbLine
 10
408.8807785393
 20
573.1081477664
 30
0.0
 11
400.9738036872
 21
573.1081477664
 31
0.0
  0
LINE
  5
1E9
330
1F
100
AcDbEntity
  8
0
  6
Continuous
 62
     7
370
    15
100
AcDbLine
 10
443.839556861
 20
609.9627412221
 30
0.0
 11
449.2633202554
 21
609.9627412221
 31
0.0
  0
LINE
  5
1EA
330
1F
100
AcDbEntity
  8
0
  6
Continuous
 62
     7
370
    15
100
AcDbLine
 10
449.2633202554
 20
609.4954229257
 30
0.0
 11
443.839556861
 21
609.4954229257
 31
0.0
  0
LINE
  5
1EB
330
1F
100
AcDbEntity
  8
0
  6
Continuous
 62
     7
370
    15
100
AcDbLine
 10
447.7999666215
 20
577.9034070036
 30
0.0
 11
461.5951248885
 21
591.4586446545
 31
0.0
  0
LINE
  5
1EC
330
1F
100
AcDbEntity
  8
0
  6
Continuous
 62
     7
370
    15
100
AcDbLine
 10
445.3029104949
 20
577.9034070036
 30
0.0
 11
447.7999666215
 21
577.9034070036
 31
0.0
  0
LINE
  5
1ED
330
1F
100
AcDbEntity
  8
0
  6
Continuous
 62
     7
370
    15
100
AcDbLine
 10
431.5077514828
 20
591.4586446545
 30
0.0
 11
445.3029104949
 21
577.9034070036
 31
0.0
  0
LINE
  5
1EE
330
1F
100
AcDbEntity
  8
0
  6
Continuous
 62
     7
370
    15
100
AcDbLine
 10
443.337441373
 20
609.2285967729
 30
0.0
 11
431.5077514828
 21
591.4586446545
 31
0.0
  0
ARC
  5
1EF
330
1F
100
AcDbEntity
  8
0
  6
Continuous
 62
     7
370
    15
100
AcDbCircle
 10
443.8378676559
 20
608.8927462321
 30
0.0
 40
0.6026790609301262
100
AcDbArc
 50
89.8394096385
 51
146.1332964876
  0
ARC
  5
1F0
330
1F
100
AcDbEntity
  8
0
  6
Continuous
 62
     7
370
    15
100
AcDbCircle
 10
449.2650070494
 20
608.892741695
 30
0.0
 40
0.6026835912615891
100
AcDbArc
 50
33.866933932
 51
90.1603599418
  0
LINE
  5
1F1
330
1F
100
AcDbEntity
  8
0
  6
Continuous
 62
     7
370
    15
100
AcDbLine
 10
461.5951248885
 20
591.4586446545
 30
0.0
 11
449.7654357434
 21
609.2285967729
 31
0.0
  0
ARC
  5
1F2
330
1F
100
AcDbEntity
  8
0
  6
Continuous
 62
     7
370
    15
100
AcDbCircle
 10
449.2661418841
 20
608.9582918845
 30
0.0
 40
1.004453300824612
100
AcDbArc
 50
33.8664457477
 51
90.1609508692
  0
ARC
  5
1F3
330
1F
100
AcDbEntity
  8
0
  6
Continuous
 62
     7
370
    15
100
AcDbCircle
 10
443.8367368028
 20
608.9582889291
 30
0.0
 40
1.004456251800237
100
AcDbArc
 50
89.8391391882
 51
146.1334641949
  0
LINE
  5
1F4
330
1F
100
AcDbEntity
  8
0
  6
Continuous
 62
     7
370
    15
100
AcDbLine
 10
450.1001784087
 20
609.5180324576
 30
0.0
 11
462.1077874185
 21
591.4808205626
 31
0.0
  0
LINE
  5
1F5
330
1F
100
AcDbEntity
  8
0
  6
Continuous
 62
     7
370
    15
100
AcDbLine
 10
461.5951248885
 20
591.4586446545
 30
0.0
 11
462.1077874185
 21
591.4808205626
 31
0.0
  0
LINE
  5
1F6
330
1F
100
AcDbEntity
  8
0
  6
Continuous
 62
     7
370
    15
100
AcDbLine
 10
430.9950896979
 20
591.4808205626
 30
0.0
 11
443.0026987077
 21
609.5180324576
 31
0.0
  0
LINE
  5
1F7
330
1F
100
AcDbEntity
  8
0
  6
Continuous
 62
     7
370
    15
100
AcDbLine
 10
430.9950896979
 20
591.4808205626
 30
0.0
 11
431.5077514828
 21
591.4586446545
 31
0.0
  0
LINE
  5
1F8
330
1F
100
AcDbEntity
  8
0
  6
Continuous
 62
     7
370
    15
100
AcDbLine
 10
449.2633202554
 20
610.4826725385
 30
0.0
 11
443.839556861
 21
610.4826725385
 31
0.0
  0
ARC
  5
1F9
330
1F
100
AcDbEntity
  8
0
  6
Continuous
 62
     7
370
    15
100
AcDbCircle
 10
449.2661418841
 20
609.4782232009
 30
0.0
 40
1.004453300824612
100
AcDbArc
 50
33.8664457477
 51
90.1609508692
  0
ARC
  5
1FA
330
1F
100
AcDbEntity
  8
0
  6
Continuous
 62
     7
370
    15
100
AcDbCircle
 10
443.8367368028
 20
609.4782202455
 30
0.0
 40
1.004456251800237
100
AcDbArc
 50
89.8391391882
 51
146.1334641949
  0
LINE
  5
1FB
330
1F
100
AcDbEntity
  8
0
  6
Continuous
 62
     7
370
    15
100
AcDbLine
 10
462.1077874185
 20
592.000751879
 30
0.0
 11
450.1001784087
 21
610.037963774
 31
0.0
  0
LINE
  5
1FC
330
1F
100
AcDbEntity
  8
0
  6
Continuous
 62
     7
370
    15
100
AcDbLine
 10
462.1077874185
 20
591.4808205626
 30
0.0
 11
462.1077874185
 21
592.000751879
 31
0.0
  0
LINE
  5
1FD
330
1F
100
AcDbEntity
  8
0
  6
Continuous
 62
     7
370
    15
100
AcDbLine
 10
430.9950896979
 20
591.4808205626
 30
0.0
 11
430.9950896979
 21
592.000751879
 31
0.0
  0
LINE
  5
1FE
330
1F
100
AcDbEntity
  8
0
  6
Continuous
 62
     7
370
    15
100
AcDbLine
 10
443.0026987077
 20
610.037963774
 30
0.0
 11
430.9950896979
 21
592.000751879
 31
0.0
  0
LINE
  5
1FF
330
1F
100
AcDbEntity
  8
0
  6
Continuous
 62
     7
370
    15
100
AcDbLine
 10
462.1077874185
 20
591.4808205626
 30
0.0
 11
447.9656526328
 21
577.5846383832
 31
0.0
  0
LINE
  5
200
330
1F
100
AcDbEntity
  8
0
  6
Continuous
 62
     7
370
    15
100
AcDbLine
 10
447.7999666215
 20
577.9034070036
 30
0.0
 11
447.9656526328
 21
577.5846383832
 31
0.0
  0
LINE
  5
201
330
1F
100
AcDbEntity
  8
0
  6
Continuous
 62
     7
370
    15
100
AcDbLine
 10
445.3029104949
 20
577.9034070036
 30
0.0
 11
445.1372244836
 21
577.5846383832
 31
0.0
  0
LINE
  5
202
330
1F
100
AcDbEntity
  8
0
  6
Continuous
 62
     7
370
    15
100
AcDbLine
 10
445.1372244836
 20
577.5846383832
 30
0.0
 11
430.9950896979
 21
591.4808205626
 31
0.0
  0
LINE
  5
203
330
1F
100
AcDbEntity
  8
0
  6
Continuous
 62
     7
370
    15
100
AcDbLine
 10
447.9656526328
 20
577.5846383832
 30
0.0
 11
445.1372244836
 21
577.5846383832
 31
0.0
  0
LINE
  5
204
330
1F
100
AcDbEntity
  8
0
  6
Continuous
 62
     7
370
    15
100
AcDbLine
 10
449.508778143
 20
573.6216954253
 30
0.0
 11
463.0640187741
 21
559.8265401385
 31
0.0
  0
LINE
  5
205
330
1F
100
AcDbEntity
  8
0
  6
Continuous
 62
     7
370
    15
100
AcDbLine
 10
449.508778143
 20
576.1187545321
 30
0.0
 11
449.508778143
 21
573.6216954253
 31
0.0
  0
LINE
  5
206
330
1F
100
AcDbEntity
  8
0
  6
Continuous
 62
     7
370
    15
100
AcDbLine
 10
463.0640187741
 20
589.9139127991
 30
0.0
 11
449.508778143
 21
576.1187545321
 31
0.0
  0
LINE
  5
207
330
1F
100
AcDbEntity
  8
0
  6
Continuous
 62
     7
370
    15
100
AcDbLine
 10
480.8339694024
 20
578.0842206738
 30
0.0
 11
463.0640187741
 21
589.9139127991
 31
0.0
  0
ARC
  5
208
330
1F
100
AcDbEntity
  8
0
  6
Continuous
 62
     7
370
    15
100
AcDbCircle
 10
480.4981347837
 20
577.5838028519
 30
0.0
 40
0.6026631625846448
100
AcDbArc
 50
359.8386009928
 51
56.1341051333
  0
LINE
  5
209
330
1F
100
AcDbEntity
  8
0
  6
Continuous
 62
     7
370
    15
100
AcDbLine
 10
481.1007955552
 20
572.1583417914
 30
0.0
 11
481.1007955552
 21
577.5821051858
 31
0.0
  0
ARC
  5
20A
330
1F
100
AcDbEntity
  8
0
  6
Continuous
 62
     7
370
    15
100
AcDbCircle
 10
480.4981246333
 20
572.1566495192
 30
0.0
 40
0.6026732977782582
100
AcDbArc
 50
303.8664103839
 51
0.16088349
  0
LINE
  5
20B
330
1F
100
AcDbEntity
  8
0
  6
Continuous
 62
     7
370
    15
100
AcDbLine
 10
463.0640187741
 20
559.8265401385
 30
0.0
 11
480.8339694024
 21
571.6562263033
 31
0.0
  0
LINE
  5
20C
330
1F
100
AcDbEntity
  8
0
  6
Continuous
 62
     7
370
    15
100
AcDbLine
 10
481.5681138516
 20
577.5821051858
 30
0.0
 11
481.5681138516
 21
572.1583417914
 31
0.0
  0
ARC
  5
20D
330
1F
100
AcDbEntity
  8
0
  6
Continuous
 62
     7
370
    15
100
AcDbCircle
 10
480.5636476307
 20
577.5849198162
 30
0.0
 40
1.004470164342857
100
AcDbArc
 50
359.8394510222
 51
56.1331423679
  0
ARC
  5
20E
330
1F
100
AcDbEntity
  8
0
  6
Continuous
 62
     7
370
    15
100
AcDbCircle
 10
480.5636693237
 20
572.1555215736
 30
0.0
 40
1.004448487146864
100
AcDbArc
 50
303.8661972435
 51
0.160871157
  0
LINE
  5
20F
330
1F
100
AcDbEntity
  8
0
  6
Continuous
 62
     7
370
    15
100
AcDbLine
 10
463.0861946822
 20
590.4265723488
 30
0.0
 11
481.123403597
 21
578.4189663193
 31
0.0
  0
LINE
  5
210
330
1F
100
AcDbEntity
  8
0
  6
Continuous
 62
     7
370
    15
100
AcDbLine
 10
463.0861946822
 20
590.4265723488
 30
0.0
 11
463.0640187741
 21
589.9139127991
 31
0.0
  0
LINE
  5
211
330
1F
100
AcDbEntity
  8
0
  6
Continuous
 62
     7
370
    15
100
AcDbLine
 10
481.123403597
 20
571.3214866183
 30
0.0
 11
463.0861946822
 21
559.3138746283
 31
0.0
  0
LINE
  5
212
330
1F
100
AcDbEntity
  8
0
  6
Continuous
 62
     7
370
    15
100
AcDbLine
 10
463.0640187741
 20
559.8265401385
 30
0.0
 11
463.0861946822
 21
559.3138746283
 31
0.0
  0
LINE
  5
213
330
1F
100
AcDbEntity
  8
0
  6
Continuous
 62
     7
370
    15
100
AcDbLine
 10
482.088045168
 20
572.1583417914
 30
0.0
 11
482.088045168
 21
577.5821051858
 31
0.0
  0
ARC
  5
214
330
1F
100
AcDbEntity
  8
0
  6
Continuous
 62
     7
370
    15
100
AcDbCircle
 10
481.0835789471
 20
577.5849198162
 30
0.0
 40
1.004470164342857
100
AcDbArc
 50
359.8394510222
 51
56.1331423679
  0
ARC
  5
215
330
1F
100
AcDbEntity
  8
0
  6
Continuous
 62
     7
370
    15
100
AcDbCircle
 10
481.0836006401
 20
572.1555215736
 30
0.0
 40
1.004448487146911
100
AcDbArc
 50
303.8661972435
 51
0.160871157
  0
LINE
  5
216
330
1F
100
AcDbEntity
  8
0
  6
Continuous
 62
     7
370
    15
100
AcDbLine
 10
463.0861946822
 20
590.4265723488
 30
0.0
 11
463.6061259986
 21
590.4265723488
 31
0.0
  0
LINE
  5
217
330
1F
100
AcDbEntity
  8
0
  6
Continuous
 62
     7
370
    15
100
AcDbLine
 10
481.6433349133
 20
578.4189663193
 30
0.0
 11
463.6061259986
 21
590.4265723488
 31
0.0
  0
LINE
  5
218
330
1F
100
AcDbEntity
  8
0
  6
Continuous
 62
     7
370
    15
100
AcDbLine
 10
463.6061259986
 20
559.3138746283
 30
0.0
 11
481.6433349133
 21
571.3214866183
 31
0.0
  0
LINE
  5
219
330
1F
100
AcDbEntity
  8
0
  6
Continuous
 62
     7
370
    15
100
AcDbLine
 10
463.0861946822
 20
559.3138746283
 30
0.0
 11
463.6061259986
 21
559.3138746283
 31
0.0
  0
LINE
  5
21A
330
1F
100
AcDbEntity
  8
0
  6
Continuous
 62
     7
370
    15
100
AcDbLine
 10
449.508778143
 20
576.1187545321
 30
0.0
 11
449.1900125028
 21
576.2844375632
 31
0.0
  0
LINE
  5
21B
330
1F
100
AcDbEntity
  8
0
  6
Continuous
 62
     7
370
    15
100
AcDbLine
 10
449.1900125028
 20
576.2844375632
 30
0.0
 11
463.0861946822
 21
590.4265723488
 31
0.0
  0
LINE
  5
21C
330
1F
100
AcDbEntity
  8
0
  6
Continuous
 62
     7
370
    15
100
AcDbLine
 10
463.0861946822
 20
559.3138746283
 30
0.0
 11
449.1900125028
 21
573.4560123942
 31
0.0
  0
LINE
  5
21D
330
1F
100
AcDbEntity
  8
0
  6
Continuous
 62
     7
370
    15
100
AcDbLine
 10
449.508778143
 20
573.6216954253
 30
0.0
 11
449.1900125028
 21
573.4560123942
 31
0.0
  0
LINE
  5
21E
330
1F
100
AcDbEntity
  8
0
  6
Continuous
 62
     7
370
    15
100
AcDbLine
 10
449.1900125028
 20
573.4560123942
 30
0.0
 11
449.1900125028
 21
576.2844375632
 31
0.0
  0
LINE
  5
21F
330
1F
100
AcDbEntity
  8
0
  6
Continuous
 62
     7
370
    15
100
AcDbLine
 10
443.5182565332
 20
576.1945954821
 30
0.0
 11
429.9630173922
 21
589.9897537491
 31
0.0
  0
LINE
  5
220
330
1F
100
AcDbEntity
  8
0
  6
Continuous
 62
     7
370
    15
100
AcDbLine
 10
443.5182565332
 20
573.6975363753
 30
0.0
 11
443.5182565332
 21
576.1945954821
 31
0.0
  0
LINE
  5
221
330
1F
100
AcDbEntity
  8
0
  6
Continuous
 62
     7
370
    15
100
AcDbLine
 10
429.9630173922
 20
559.9023810885
 30
0.0
 11
443.5182565332
 21
573.6975363753
 31
0.0
  0
LINE
  5
222
330
1F
100
AcDbEntity
  8
0
  6
Continuous
 62
     7
370
    15
100
AcDbLine
 10
412.193066764
 20
571.7320672534
 30
0.0
 11
429.9630173922
 21
559.9023810885
 31
0.0
  0
ARC
  5
223
330
1F
100
AcDbEntity
  8
0
  6
Continuous
 62
     7
370
    15
100
AcDbCircle
 10
412.5289261162
 20
572.2324982187
 30
0.0
 40
0.6026878591531634
100
AcDbArc
 50
179.8398571261
 51
236.1328490001
  0
LINE
  5
224
330
1F
100
AcDbEntity
  8
0
  6
Continuous
 62
     7
370
    15
100
AcDbLine
 10
411.9262406112
 20
577.6579461358
 30
0.0
 11
411.9262406112
 21
572.2341827414
 31
0.0
  0
ARC
  5
225
330
1F
100
AcDbEntity
  8
0
  6
Continuous
 62
     7
370
    15
100
AcDbCircle
 10
412.5289111311
 20
577.6596386216
 30
0.0
 40
0.6026728963984926
100
AcDbArc
 50
123.8663899684
 51
180.1609039054
  0
LINE
  5
226
330
1F
100
AcDbEntity
  8
0
  6
Continuous
 62
     7
370
    15
100
AcDbLine
 10
429.9630173922
 20
589.9897537491
 30
0.0
 11
412.193066764
 21
578.1600616238
 31
0.0
  0
ARC
  5
227
330
1F
100
AcDbEntity
  8
0
  6
Continuous
 62
     7
370
    15
100
AcDbCircle
 10
412.463384863
 20
577.6607628203
 30
0.0
 40
1.004467242525707
100
AcDbArc
 50
123.8668195536
 51
180.1606666118
  0
LINE
  5
228
330
1F
100
AcDbEntity
  8
0
  6
Continuous
 62
     7
370
    15
100
AcDbLine
 10
411.4589215697
 20
572.2341827414
 30
0.0
 11
411.4589215697
 21
577.6579461358
 31
0.0
  0
ARC
  5
229
330
1F
100
AcDbEntity
  8
0
  6
Continuous
 62
     7
370
    15
100
AcDbCircle
 10
412.4633631701
 20
572.2313604696
 30
0.0
 40
1.004445565458183
100
AcDbArc
 50
179.8390112094
 51
236.1338408344
  0
LINE
  5
22A
330
1F
100
AcDbEntity
  8
0
  6
Continuous
 62
     7
370
    15
100
AcDbLine
 10
411.9036310793
 20
578.4948072693
 30
0.0
 11
429.9408429743
 21
590.5024132988
 31
0.0
  0
LINE
  5
22B
330
1F
100
AcDbEntity
  8
0
  6
Continuous
 62
     7
370
    15
100
AcDbLine
 10
429.9630173922
 20
589.9897537491
 30
0.0
 11
429.9408429743
 21
590.5024132988
 31
0.0
  0
LINE
  5
22C
330
1F
100
AcDbEntity
  8
0
  6
Continuous
 62
     7
370
    15
100
AcDbLine
 10
429.9408429743
 20
559.3897155783
 30
0.0
 11
411.9036310793
 21
571.3973275683
 31
0.0
  0
LINE
  5
22D
330
1F
100
AcDbEntity
  8
0
  6
Continuous
 62
     7
370
    15
100
AcDbLine
 10
429.9408429743
 20
559.3897155783
 30
0.0
 11
429.9630173922
 21
559.9023810885
 31
0.0
  0
LINE
  5
22E
330
1F
100
AcDbEntity
  8
0
  6
Continuous
 62
     7
370
    15
100
AcDbLine
 10
410.9389902533
 20
577.6579461358
 30
0.0
 11
410.9389902533
 21
572.2341827414
 31
0.0
  0
ARC
  5
22F
330
1F
100
AcDbEntity
  8
0
  6
Continuous
 62
     7
370
    15
100
AcDbCircle
 10
411.9434535466
 20
577.6607628203
 30
0.0
 40
1.004467242525667
100
AcDbArc
 50
123.8668195536
 51
180.1606666118
  0
ARC
  5
230
330
1F
100
AcDbEntity
  8
0
  6
Continuous
 62
     7
370
    15
100
AcDbCircle
 10
411.9434318538
 20
572.2313604696
 30
0.0
 40
1.004445565458183
100
AcDbArc
 50
179.8390112094
 51
236.1338408344
  0
LINE
  5
231
330
1F
100
AcDbEntity
  8
0
  6
Continuous
 62
     7
370
    15
100
AcDbLine
 10
429.4209116579
 20
590.5024132988
 30
0.0
 11
411.3836997629
 21
578.4948072693
 31
0.0
  0
LINE
  5
232
330
1F
100
AcDbEntity
  8
0
  6
Continuous
 62
     7
370
    15
100
AcDbLine
 10
429.9408429743
 20
590.5024132988
 30
0.0
 11
429.4209116579
 21
590.5024132988
 31
0.0
  0
LINE
  5
233
330
1F
100
AcDbEntity
  8
0
  6
Continuous
 62
     7
370
    15
100
AcDbLine
 10
429.9408429743
 20
559.3897155783
 30
0.0
 11
429.4209116579
 21
559.3897155783
 31
0.0
  0
LINE
  5
234
330
1F
100
AcDbEntity
  8
0
  6
Continuous
 62
     7
370
    15
100
AcDbLine
 10
411.3836997629
 20
571.3973275683
 30
0.0
 11
429.4209116579
 21
559.3897155783
 31
0.0
  0
LINE
  5
235
330
1F
100
AcDbEntity
  8
0
  6
Continuous
 62
     7
370
    15
100
AcDbLine
 10
429.9408429743
 20
590.5024132988
 30
0.0
 11
443.8370236636
 21
576.3602785132
 31
0.0
  0
LINE
  5
236
330
1F
100
AcDbEntity
  8
0
  6
Continuous
 62
     7
370
    15
100
AcDbLine
 10
443.5182565332
 20
576.1945954821
 30
0.0
 11
443.8370236636
 21
576.3602785132
 31
0.0
  0
LINE
  5
237
330
1F
100
AcDbEntity
  8
0
  6
Continuous
 62
     7
370
    15
100
AcDbLine
 10
443.5182565332
 20
573.6975363753
 30
0.0
 11
443.8370236636
 21
573.5318533442
 31
0.0
  0
LINE
  5
238
330
1F
100
AcDbEntity
  8
0
  6
Continuous
 62
     7
370
    15
100
AcDbLine
 10
443.8370236636
 20
573.5318533442
 30
0.0
 11
429.9408429743
 21
559.3897155783
 31
0.0
  0
LINE
  5
239
330
1F
100
AcDbEntity
  8
0
  6
Continuous
 62
     7
370
    15
100
AcDbLine
 10
443.8370236636
 20
576.3602785132
 30
0.0
 11
443.8370236636
 21
573.5318533442
 31
0.0
  0
LINE
  5
23A
330
1F
100
AcDbEntity
  8
0
  6
Continuous
 62
     7
370
    15
100
AcDbLine
 10
720.5896738089
 20
588.964700676
 30
0.0
 11
720.2220268494
 21
586.5059116478
 31
0.0
  0
LINE
  5
23B
330
1F
100
AcDbEntity
  8
0
  6
Continuous
 62
     7
370
    15
100
AcDbLine
 10
720.3298795811
 20
586.2487862656
 30
0.0
 11
720.6298207895
 21
585.9412271087
 31
0.0
  0
LINE
  5
23C
330
1F
100
AcDbEntity
  8
0
  6
Continuous
 62
     7
370
    15
100
AcDbLine
 10
775.0042613605
 20
612.5320354966
 30
0.0
 11
774.6366144009
 21
614.5663483805
 31
0.0
  0
LINE
  5
23D
330
1F
100
AcDbEntity
  8
0
  6
Continuous
 62
     7
370
    15
100
AcDbLine
 10
770.1081083305
 20
617.2811674051
 30
0.0
 11
769.9392954508
 21
617.3003227038
 31
0.0
  0
LINE
  5
23E
330
1F
100
AcDbEntity
  8
0
  6
Continuous
 62
     7
370
    15
100
AcDbLine
 10
774.9555828041
 20
586.474954281
 30
0.0
 11
774.5879358446
 21
588.9337433091
 31
0.0
  0
LINE
  5
23F
330
1F
100
AcDbEntity
  8
0
  6
Continuous
 62
     7
370
    15
100
AcDbLine
 10
774.547788864
 20
585.9102697418
 30
0.0
 11
774.8477290188
 21
586.2178282905
 31
0.0
  0
LINE
  5
240
330
1F
100
AcDbEntity
  8
0
  6
Continuous
 62
     7
370
    15
100
AcDbLine
 10
720.6482489722
 20
614.5973066597
 30
0.0
 11
720.2806020126
 21
612.5629937759
 31
0.0
  0
LINE
  5
241
330
1F
100
AcDbEntity
  8
0
  6
Continuous
 62
     7
370
    15
100
AcDbLine
 10
725.3455705564
 20
617.3312818955
 30
0.0
 11
725.1767560963
 21
617.3121262926
 31
0.0
  0
LINE
  5
242
330
1F
100
AcDbEntity
  8
0
  6
Continuous
 62
     7
370
    15
100
AcDbLine
 10
747.3327764198
 20
590.303987376
 30
0.0
 11
746.7918258338
 21
589.9917032499
 31
0.0
  0
LINE
  5
243
330
1F
100
AcDbEntity
  8
0
  6
Continuous
 62
     7
370
    15
100
AcDbLine
 10
747.3327764198
 20
584.5882022769
 30
0.0
 11
747.3327764198
 21
590.303987376
 31
0.0
  0
LINE
  5
244
330
1F
100
AcDbEntity
  8
0
  6
Continuous
 62
     7
370
    15
100
AcDbLine
 10
747.8984587764
 20
584.9147637503
 30
0.0
 11
747.3327764198
 21
584.5882022769
 31
0.0
  0
LINE
  5
245
330
1F
100
AcDbEntity
  8
0
  6
Continuous
 62
     7
370
    15
100
AcDbLine
 10
775.4987756024
 20
590.3469734628
 30
0.0
 11
773.9477262694
 21
590.3769711255
 31
0.0
  0
LINE
  5
246
330
1F
100
AcDbEntity
  8
0
  6
Continuous
 62
     7
370
    15
100
AcDbLine
 10
781.0898506122
 20
547.7344281452
 30
0.0
 11
775.4987756024
 21
590.3469734628
 31
0.0
  0
LINE
  5
247
330
1F
100
AcDbEntity
  8
0
  6
Continuous
 62
     7
370
    15
100
AcDbLine
 10
777.2720426137
 20
545.5304545006
 30
0.0
 11
781.0898506122
 21
547.7344281452
 31
0.0
  0
LINE
  5
248
330
1F
100
AcDbEntity
  8
0
  6
Continuous
 62
     7
370
    15
100
AcDbLine
 10
765.5018023387
 20
577.7662914561
 30
0.0
 11
767.9977239562
 21
569.8984359414
 31
0.0
  0
LINE
  5
249
330
1F
100
AcDbEntity
  8
0
  6
Continuous
 62
     7
370
    15
100
AcDbLine
 10
765.3181832712
 20
577.6602904247
 30
0.0
 11
765.5018023387
 21
577.7662914561
 31
0.0
  0
LINE
  5
24A
330
1F
100
AcDbEntity
  8
0
  6
Continuous
 62
     7
370
    15
100
AcDbLine
 10
742.3343498472
 20
576.8034269708
 30
0.0
 11
747.8984587764
 21
580.0155186843
 31
0.0
  0
LINE
  5
24B
330
1F
100
AcDbEntity
  8
0
  6
Continuous
 62
     7
370
    15
100
AcDbLine
 10
737.950289456
 20
561.8611416196
 30
0.0
 11
742.3343498472
 21
576.8034269708
 31
0.0
  0
LINE
  5
24C
330
1F
100
AcDbEntity
  8
0
  6
Continuous
 62
     7
370
    15
100
AcDbLine
 10
732.2750182138
 20
558.5848772687
 30
0.0
 11
737.950289456
 21
561.8611416196
 31
0.0
  0
LINE
  5
24D
330
1F
100
AcDbEntity
  8
0
  6
Continuous
 62
     7
370
    15
100
AcDbLine
 10
721.8098377174
 20
513.5128051287
 30
0.0
 11
732.2750182138
 21
558.5848772687
 31
0.0
  0
LINE
  5
24E
330
1F
100
AcDbEntity
  8
0
  6
Continuous
 62
     7
370
    15
100
AcDbLine
 10
716.6869683599
 20
510.555435598
 30
0.0
 11
721.8098377174
 21
513.5128051287
 31
0.0
  0
LINE
  5
24F
330
1F
100
AcDbEntity
  8
0
  6
Continuous
 62
     7
370
    15
100
AcDbLine
 10
722.2780428428
 20
559.6232984125
 30
0.0
 11
716.6869683599
 21
510.555435598
 31
0.0
  0
LINE
  5
250
330
1F
100
AcDbEntity
  8
0
  6
Continuous
 62
     7
370
    15
100
AcDbLine
 10
730.7330462583
 20
569.5487578179
 30
0.0
 11
722.2780428428
 21
559.6232984125
 31
0.0
  0
LINE
  5
251
330
1F
100
AcDbEntity
  8
0
  6
Continuous
 62
     7
370
    15
100
AcDbLine
 10
733.3825994605
 20
579.7471999268
 30
0.0
 11
730.7330462583
 21
569.5487578179
 31
0.0
  0
LINE
  5
252
330
1F
100
AcDbEntity
  8
0
  6
Continuous
 62
     7
370
    15
100
AcDbLine
 10
727.5012343438
 20
581.8183571881
 30
0.0
 11
733.3825994605
 21
579.7471999268
 31
0.0
  0
LINE
  5
253
330
1F
100
AcDbEntity
  8
0
  6
Continuous
 62
     7
370
    15
100
AcDbLine
 10
727.073582916
 20
583.4762672559
 30
0.0
 11
727.5012343438
 21
581.8183571881
 31
0.0
  0
LINE
  5
254
330
1F
100
AcDbEntity
  8
0
  6
Continuous
 62
     7
370
    15
100
AcDbLine
 10
726.9680998909
 20
581.6505084149
 30
0.0
 11
726.4948961493
 21
583.4850350923
 31
0.0
  0
LINE
  5
255
330
1F
100
AcDbEntity
  8
0
  6
Continuous
 62
     7
370
    15
100
AcDbLine
 10
726.9680998909
 20
581.6505084149
 30
0.0
 11
727.5012343438
 21
581.8183571881
 31
0.0
  0
LINE
  5
256
330
1F
100
AcDbEntity
  8
0
  6
Continuous
 62
     7
370
    15
100
AcDbLine
 10
724.7918916222
 20
583.5545340507
 30
0.0
 11
724.9881989986
 21
582.7934808712
 31
0.0
  0
LINE
  5
257
330
1F
100
AcDbEntity
  8
0
  6
Continuous
 62
     7
370
    15
100
AcDbLine
 10
724.9881989986
 20
582.7934808712
 30
0.0
 11
726.9680998909
 21
581.6505084149
 31
0.0
  0
LINE
  5
258
330
1F
100
AcDbEntity
  8
0
  6
Continuous
 62
     7
370
    15
100
AcDbLine
 10
732.7663767105
 20
579.6086142616
 30
0.0
 11
726.9680998909
 21
581.6505084149
 31
0.0
  0
LINE
  5
259
330
1F
100
AcDbEntity
  8
0
  6
Continuous
 62
     7
370
    15
100
AcDbLine
 10
732.7663767105
 20
579.6086142616
 30
0.0
 11
733.3825994605
 21
579.7471999268
 31
0.0
  0
LINE
  5
25A
330
1F
100
AcDbEntity
  8
0
  6
Continuous
 62
     7
370
    15
100
AcDbLine
 10
716.0786565733
 20
510.2042097737
 30
0.0
 11
721.7355096427
 21
559.8493581315
 31
0.0
  0
LINE
  5
25B
330
1F
100
AcDbEntity
  8
0
  6
Continuous
 62
     7
370
    15
100
AcDbLine
 10
721.7355096427
 20
559.8493581315
 30
0.0
 11
722.2780428428
 21
559.6232984125
 31
0.0
  0
LINE
  5
25C
330
1F
100
AcDbEntity
  8
0
  6
Continuous
 62
     7
370
    15
100
AcDbLine
 10
716.0786565733
 20
510.2042097737
 30
0.0
 11
716.6869683599
 21
510.555435598
 31
0.0
  0
LINE
  5
25D
330
1F
100
AcDbEntity
  8
0
  6
Continuous
 62
     7
370
    15
100
AcDbLine
 10
719.7556087503
 20
560.9923305878
 30
0.0
 11
714.098755681
 21
511.34718223
 31
0.0
  0
LINE
  5
25E
330
1F
100
AcDbEntity
  8
0
  6
Continuous
 62
     7
370
    15
100
AcDbLine
 10
719.7556087503
 20
560.9923305878
 30
0.0
 11
721.7355096427
 21
559.8493581315
 31
0.0
  0
LINE
  5
25F
330
1F
100
AcDbEntity
  8
0
  6
Continuous
 62
     7
370
    15
100
AcDbLine
 10
714.098755681
 20
511.34718223
 30
0.0
 11
716.0786565733
 21
510.2042097737
 31
0.0
  0
LINE
  5
260
330
1F
100
AcDbEntity
  8
0
  6
Continuous
 62
     7
370
    15
100
AcDbLine
 10
721.7355096427
 20
559.8493581315
 30
0.0
 11
730.2207913541
 21
569.8103629899
 31
0.0
  0
LINE
  5
261
330
1F
100
AcDbEntity
  8
0
  6
Continuous
 62
     7
370
    15
100
AcDbLine
 10
730.2207913541
 20
569.8103629899
 30
0.0
 11
730.7330462583
 21
569.5487578179
 31
0.0
  0
LINE
  5
262
330
1F
100
AcDbEntity
  8
0
  6
Continuous
 62
     7
370
    15
100
AcDbLine
 10
728.2408904618
 20
570.9533354462
 30
0.0
 11
719.7556087503
 21
560.9923305878
 31
0.0
  0
LINE
  5
263
330
1F
100
AcDbEntity
  8
0
  6
Continuous
 62
     7
370
    15
100
AcDbLine
 10
728.2408904618
 20
570.9533354462
 30
0.0
 11
730.2207913541
 21
569.8103629899
 31
0.0
  0
LINE
  5
264
330
1F
100
AcDbEntity
  8
0
  6
Continuous
 62
     7
370
    15
100
AcDbLine
 10
719.7324595938
 20
561.0928323423
 30
0.0
 11
719.7556087503
 21
560.9923305878
 31
0.0
  0
LINE
  5
265
330
1F
100
AcDbEntity
  8
0
  6
Continuous
 62
     7
370
    15
100
AcDbLine
 10
714.1413851109
 20
512.0249695278
 30
0.0
 11
714.098755681
 21
511.34718223
 31
0.0
  0
LINE
  5
266
330
1F
100
AcDbEntity
  8
0
  6
Continuous
 62
     7
370
    15
100
AcDbLine
 10
714.1413851109
 20
512.0249695278
 30
0.0
 11
719.7324595938
 21
561.0928323423
 31
0.0
  0
LINE
  5
267
330
1F
100
AcDbEntity
  8
0
  6
Continuous
 62
     7
370
    15
100
AcDbLine
 10
730.2207913541
 20
569.8103629899
 30
0.0
 11
732.7663767105
 21
579.6086142616
 31
0.0
  0
LINE
  5
268
330
1F
100
AcDbEntity
  8
0
  6
Continuous
 62
     7
370
    15
100
AcDbLine
 10
730.6803795564
 20
580.3432074161
 30
0.0
 11
728.2408904618
 21
570.9533354462
 31
0.0
  0
LINE
  5
269
330
1F
100
AcDbEntity
  8
0
  6
Continuous
 62
     7
370
    15
100
AcDbLine
 10
728.1874630092
 20
571.0182917476
 30
0.0
 11
728.2408904618
 21
570.9533354462
 31
0.0
  0
LINE
  5
26A
330
1F
100
AcDbEntity
  8
0
  6
Continuous
 62
     7
370
    15
100
AcDbLine
 10
719.7324595938
 20
561.0928323423
 30
0.0
 11
728.1874630092
 21
571.0182917476
 31
0.0
  0
LINE
  5
26B
330
1F
100
AcDbEntity
  8
0
  6
Continuous
 62
     7
370
    15
100
AcDbLine
 10
728.1874630092
 20
571.0182917476
 30
0.0
 11
730.6159686351
 21
580.3658903119
 31
0.0
  0
LINE
  5
26C
330
1F
100
AcDbEntity
  8
0
  6
Continuous
 62
     7
370
    15
100
AcDbLine
 10
746.7797444397
 20
590.6379072696
 30
0.0
 11
747.3327785271
 21
590.9571670527
 31
0.0
  0
LINE
  5
26D
330
1F
100
AcDbEntity
  8
0
  6
Continuous
 62
     7
370
    15
100
AcDbLine
 10
747.3327764198
 20
590.303987376
 30
0.0
 11
747.3327785271
 21
590.9571670527
 31
0.0
  0
LINE
  5
26E
330
1F
100
AcDbEntity
  8
0
  6
Continuous
 62
     7
370
    15
100
AcDbLine
 10
746.7676735823
 20
591.2833951934
 30
0.0
 11
747.3327785271
 21
590.9571670527
 31
0.0
  0
LINE
  5
26F
330
1F
100
AcDbEntity
  8
0
  6
Continuous
 62
     7
370
    15
100
AcDbLine
 10
747.8984587764
 20
593.5696722222
 30
0.0
 11
747.8984587764
 21
593.2431087721
 31
0.0
  0
LINE
  5
270
330
1F
100
AcDbEntity
  8
0
  6
Continuous
 62
     7
370
    15
100
AcDbLine
 10
747.8984587764
 20
593.5696722222
 30
0.0
 11
748.4473392919
 21
593.2528102452
 31
0.0
  0
LINE
  5
271
330
1F
100
AcDbEntity
  8
0
  6
Continuous
 62
     7
370
    15
100
AcDbLine
 10
748.4593174263
 20
593.893449029
 30
0.0
 11
747.8984587764
 21
593.5696722222
 31
0.0
  0
LINE
  5
272
330
1F
100
AcDbEntity
  8
0
  6
Continuous
 62
     7
370
    15
100
AcDbLine
 10
747.8984608838
 20
580.0154643876
 30
0.0
 11
742.3343350958
 21
576.8033629417
 31
0.0
  0
LINE
  5
273
330
1F
100
AcDbEntity
  8
0
  6
Continuous
 62
     7
370
    15
100
AcDbLine
 10
747.3327785271
 20
585.2413770865
 30
0.0
 11
747.7570624217
 21
585.4863109653
 31
0.0
  0
LINE
  5
274
330
1F
100
AcDbEntity
  8
0
  6
Continuous
 62
     7
370
    15
100
AcDbLine
 10
737.8575474232
 20
561.8075472704
 30
0.0
 11
732.2750034624
 21
558.5848132397
 31
0.0
  0
LINE
  5
275
330
1F
100
AcDbEntity
  8
0
  6
Continuous
 62
     7
370
    15
100
AcDbLine
 10
737.8575474232
 20
561.8075472704
 30
0.0
 11
737.950289456
 21
561.8611416196
 31
0.0
  0
LINE
  5
276
330
1F
100
AcDbEntity
  8
0
  6
Continuous
 62
     7
370
    15
100
AcDbLine
 10
721.7355096427
 20
513.4698415397
 30
0.0
 11
716.0786565733
 21
510.2042097737
 31
0.0
  0
LINE
  5
277
330
1F
100
AcDbEntity
  8
0
  6
Continuous
 62
     7
370
    15
100
AcDbLine
 10
721.7355096427
 20
513.4698415397
 30
0.0
 11
721.8098377174
 21
513.5128051287
 31
0.0
  0
LINE
  5
278
330
1F
100
AcDbEntity
  8
0
  6
Continuous
 62
     7
370
    15
100
AcDbLine
 10
773.7093668749
 20
590.9070268496
 30
0.0
 11
775.4756264459
 21
590.872867208
 31
0.0
  0
LINE
  5
279
330
1F
100
AcDbEntity
  8
0
  6
Continuous
 62
     7
370
    15
100
AcDbLine
 10
775.4756264459
 20
590.872867208
 30
0.0
 11
775.4987756024
 21
590.3469734628
 31
0.0
  0
LINE
  5
27A
330
1F
100
AcDbEntity
  8
0
  6
Continuous
 62
     7
370
    15
100
AcDbLine
 10
773.4957255535
 20
592.0158396643
 30
0.0
 11
773.2082440072
 21
592.0214015927
 31
0.0
  0
LINE
  5
27B
330
1F
100
AcDbEntity
  8
0
  6
Continuous
 62
     7
370
    15
100
AcDbLine
 10
773.4957255535
 20
592.0158396643
 30
0.0
 11
775.4756264459
 21
590.872867208
 31
0.0
  0
LINE
  5
27C
330
1F
100
AcDbEntity
  8
0
  6
Continuous
 62
     7
370
    15
100
AcDbLine
 10
765.3181895932
 20
577.6602718057
 30
0.0
 11
765.5018023387
 21
577.7662914561
 31
0.0
  0
LINE
  5
27D
330
1F
100
AcDbEntity
  8
0
  6
Continuous
 62
     7
370
    15
100
AcDbLine
 10
767.0714036609
 20
570.9858587112
 30
0.0
 11
766.9653369019
 21
571.3202046529
 31
0.0
  0
LINE
  5
27E
330
1F
100
AcDbEntity
  8
0
  6
Continuous
 62
     7
370
    15
100
AcDbLine
 10
775.4756264459
 20
590.872867208
 30
0.0
 11
781.1324805689
 21
547.7589829905
 31
0.0
  0
LINE
  5
27F
330
1F
100
AcDbEntity
  8
0
  6
Continuous
 62
     7
370
    15
100
AcDbLine
 10
781.1324805689
 20
547.7589829905
 30
0.0
 11
781.0898506122
 21
547.7344281452
 31
0.0
  0
LINE
  5
280
330
1F
100
AcDbEntity
  8
0
  6
Continuous
 62
     7
370
    15
100
AcDbLine
 10
781.1324805689
 20
547.7589829905
 30
0.0
 11
777.2720499894
 21
545.5304038536
 31
0.0
  0
LINE
  5
281
330
1F
100
AcDbEntity
  8
0
  6
Continuous
 62
     7
370
    15
100
AcDbLine
 10
733.4107893801
 20
583.3802313674
 30
0.0
 11
733.1136793863
 21
581.393195263
 31
0.0
  0
LINE
  5
282
330
1F
100
AcDbEntity
  8
0
  6
Continuous
 62
     7
370
    15
100
AcDbLine
 10
738.4604433397
 20
582.7478401132
 30
0.0
 11
738.7513071707
 21
583.2992951435
 31
0.0
  0
LINE
  5
283
330
1F
100
AcDbEntity
  8
0
  6
Continuous
 62
     7
370
    15
100
AcDbLine
 10
733.1136793863
 20
581.393195263
 30
0.0
 11
738.4604433397
 21
582.7478401132
 31
0.0
  0
LINE
  5
284
330
1F
100
AcDbEntity
  8
0
  6
Continuous
 62
     7
370
    15
100
AcDbLine
 10
739.3638209981
 20
583.2900157743
 30
0.0
 11
738.9403926845
 21
582.4872292636
 31
0.0
  0
LINE
  5
285
330
1F
100
AcDbEntity
  8
0
  6
Continuous
 62
     7
370
    15
100
AcDbLine
 10
738.4604433397
 20
582.7478401132
 30
0.0
 11
738.9403926845
 21
582.4872292636
 31
0.0
  0
LINE
  5
286
330
1F
100
AcDbEntity
  8
0
  6
Continuous
 62
     7
370
    15
100
AcDbLine
 10
740.8858574943
 20
583.1857770534
 30
0.0
 11
740.9283288735
 21
583.2663046537
 31
0.0
  0
LINE
  5
287
330
1F
100
AcDbEntity
  8
0
  6
Continuous
 62
     7
370
    15
100
AcDbLine
 10
738.9403926845
 20
582.4872292636
 30
0.0
 11
740.8858574943
 21
583.1857770534
 31
0.0
  0
LINE
  5
288
330
1F
100
AcDbEntity
  8
0
  6
Continuous
 62
     7
370
    15
100
AcDbLine
 10
738.9403926845
 20
582.4872292636
 30
0.0
 11
733.3276378627
 21
581.065193017
 31
0.0
  0
LINE
  5
289
330
1F
100
AcDbEntity
  8
0
  6
Continuous
 62
     7
370
    15
100
AcDbLine
 10
733.3276378627
 20
581.065193017
 30
0.0
 11
733.1136793863
 21
581.393195263
 31
0.0
  0
LINE
  5
28A
330
1F
100
AcDbEntity
  8
0
  6
Continuous
 62
     7
370
    15
100
AcDbLine
 10
746.8701536444
 20
585.8026807811
 30
0.0
 11
725.6252570432
 21
586.1246374078
 31
0.0
  0
LINE
  5
28B
330
1F
100
AcDbEntity
  8
0
  6
Continuous
 62
     7
370
    15
100
AcDbLine
 10
746.8701536444
 20
585.8026807811
 30
0.0
 11
746.5025066849
 21
583.3438917529
 31
0.0
  0
LINE
  5
28C
330
1F
100
AcDbEntity
  8
0
  6
Continuous
 62
     7
370
    15
100
AcDbLine
 10
725.2576100836
 20
583.6658483797
 30
0.0
 11
746.5025066849
 21
583.3438917529
 31
0.0
  0
LINE
  5
28D
330
1F
100
AcDbEntity
  8
0
  6
Continuous
 62
     7
370
    15
100
AcDbLine
 10
725.5932191163
 20
586.6671637568
 30
0.0
 11
746.5233251207
 21
586.3499802477
 31
0.0
  0
LINE
  5
28E
330
1F
100
AcDbEntity
  8
0
  6
Continuous
 62
     7
370
    15
100
AcDbLine
 10
746.8701536444
 20
585.8026807811
 30
0.0
 11
746.5233251207
 21
586.3499802477
 31
0.0
  0
LINE
  5
28F
330
1F
100
AcDbEntity
  8
0
  6
Continuous
 62
     7
370
    15
100
AcDbLine
 10
744.5879924133
 20
596.4421628391
 30
0.0
 11
725.2483393574
 21
598.6317681036
 31
0.0
  0
LINE
  5
290
330
1F
100
AcDbEntity
  8
0
  6
Continuous
 62
     7
370
    15
100
AcDbLine
 10
746.3536777334
 20
595.4228544004
 30
0.0
 11
744.5879924133
 21
596.4421628391
 31
0.0
  0
LINE
  5
291
330
1F
100
AcDbEntity
  8
0
  6
Continuous
 62
     7
370
    15
100
AcDbLine
 10
746.5233251207
 20
586.3499802477
 30
0.0
 11
746.3536777334
 21
595.4228544004
 31
0.0
  0
ARC
  5
292
330
1F
100
AcDbEntity
  8
0
  6
Continuous
 62
     7
370
    15
100
AcDbCircle
 10
725.5987762849
 20
587.8350216498
 30
0.0
 40
1.16787111454333
100
AcDbArc
 50
241.9444917992
 51
269.7273641698
  0
LINE
  5
293
330
1F
100
AcDbEntity
  8
0
  6
Continuous
 62
     7
370
    15
100
AcDbLine
 10
721.214315392
 20
589.0183865365
 30
0.0
 11
725.0494952677
 21
586.8043843206
 31
0.0
  0
LWPOLYLINE
  5
294
330
1F
100
AcDbEntity
  8
0
  6
Continuous
 62
     7
370
    15
100
AcDbPolyline
 90
        9
 70
   128
 43
0.0
 10
721.0479407075
 20
589.2910971302
 10
721.0379961586
 20
589.2580950063
 10
721.0371542753
 20
589.2237113507
 10
721.0454277016
 20
589.1884692565
 10
721.0626815678
 20
589.1529185851
 10
721.0886619388
 20
589.1176000733
 10
721.1229631515
 20
589.0830544634
 10
721.1650657458
 20
589.0498152006
 10
721.214315392
 20
589.0183865365
  0
LINE
  5
295
330
1F
100
AcDbEntity
  8
0
  6
Continuous
 62
     7
370
    15
100
AcDbLine
 10
725.2483393574
 20
598.6317681036
 30
0.0
 11
721.0479407075
 21
589.2910971302
 31
0.0
  0
LINE
  5
296
330
1F
100
AcDbEntity
  8
0
  6
Continuous
 62
     7
370
    15
100
AcDbLine
 10
746.0506355706
 20
583.1886769399
 30
0.0
 11
725.1205295662
 21
583.505865316
 31
0.0
  0
LINE
  5
297
330
1F
100
AcDbEntity
  8
0
  6
Continuous
 62
     7
370
    15
100
AcDbLine
 10
746.0506355706
 20
583.1886769399
 30
0.0
 11
746.5025066849
 21
583.3438917529
 31
0.0
  0
ARC
  5
298
330
1F
100
AcDbEntity
  8
0
  6
Continuous
 62
     7
370
    15
100
AcDbCircle
 10
725.6344949244
 20
588.070972102
 30
0.0
 40
1.946356616903082
100
AcDbArc
 50
241.9438238093
 51
269.7280592925
  0
ARC
  5
299
330
1F
100
AcDbEntity
  8
0
  6
Continuous
 62
     7
370
    15
100
AcDbCircle
 10
725.2668128302
 20
585.6120438558
 30
0.0
 40
1.94621723403076
100
AcDbArc
 50
241.9428089246
 51
269.7290741772
  0
LINE
  5
29A
330
1F
100
AcDbEntity
  8
0
  6
Continuous
 62
     7
370
    15
100
AcDbLine
 10
724.7190513313
 20
586.3533379419
 30
0.0
 11
720.8838714556
 21
588.5673401578
 31
0.0
  0
LINE
  5
29B
330
1F
100
AcDbEntity
  8
0
  6
Continuous
 62
     7
370
    15
100
AcDbLine
 10
720.516224496
 20
586.1085511296
 30
0.0
 11
724.3514043717
 21
583.8945489137
 31
0.0
  0
ARC
  5
29C
330
1F
100
AcDbEntity
  8
0
  6
Continuous
 62
     7
370
    15
100
AcDbCircle
 10
725.1260617815
 20
584.6736243338
 30
0.0
 40
1.167772121994177
100
AcDbArc
 50
241.9432905835
 51
269.7285653855
  0
LINE
  5
29D
330
1F
100
AcDbEntity
  8
0
  6
Continuous
 62
     7
370
    15
100
AcDbLine
 10
724.5768057176
 20
583.6430858798
 30
0.0
 11
720.7416258419
 21
585.8570880957
 31
0.0
  0
LWPOLYLINE
  5
29E
330
1F
100
AcDbEntity
  8
0
  6
Continuous
 62
     7
370
    15
100
AcDbPolyline
 90
        9
 70
   128
 43
0.0
 10
720.8838714556
 20
588.5673401578
 10
720.8017883608
 20
588.6197182227
 10
720.7316212337
 20
588.6751196302
 10
720.6744500874
 20
588.7326921996
 10
720.6311494689
 20
588.7915563857
 10
720.6023874058
 20
588.8508107498
 10
720.588603279
 20
588.9095447341
 10
720.590006769
 20
588.9668490013
 10
720.6065810172
 20
589.0218574085
  0
ARC
  5
29F
330
1F
100
AcDbEntity
  8
0
  6
Continuous
 62
     7
370
    15
100
AcDbCircle
 10
720.6966604542
 20
586.54973148
 30
0.0
 40
0.4766521127124814
100
AcDbArc
 50
185.2747936015
 51
247.7561955821
  0
LINE
  5
2A0
330
1F
100
AcDbEntity
  8
0
  6
Continuous
 62
     7
370
    15
100
AcDbLine
 10
720.6065810172
 20
589.0218574085
 30
0.0
 11
724.8701541052
 21
598.5030101809
 31
0.0
  0
LINE
  5
2A1
330
1F
100
AcDbEntity
  8
0
  6
Continuous
 62
     7
370
    15
100
AcDbLine
 10
725.2483393574
 20
598.6317681036
 30
0.0
 11
724.8701541052
 21
598.5030101809
 31
0.0
  0
ARC
  5
2A2
330
1F
100
AcDbEntity
  8
0
  6
Continuous
 62
     7
370
    15
100
AcDbCircle
 10
720.9880649403
 20
586.3009132202
 30
0.0
 40
0.5076543808851814
100
AcDbArc
 50
225.1150782448
 51
240.9582627561
  0
LINE
  5
2A3
330
1F
100
AcDbEntity
  8
0
  6
Continuous
 62
     7
370
    15
100
AcDbLine
 10
746.3536777334
 20
595.4228544004
 30
0.0
 11
746.6962367814
 21
595.1037576647
 31
0.0
  0
LINE
  5
2A4
330
1F
100
AcDbEntity
  8
0
  6
Continuous
 62
     7
370
    15
100
AcDbLine
 10
746.6962367814
 20
595.1037576647
 30
0.0
 11
746.8701536444
 21
585.8026807811
 31
0.0
  0
LINE
  5
2A5
330
1F
100
AcDbEntity
  8
0
  6
Continuous
 62
     7
370
    15
100
AcDbLine
 10
714.1413872182
 20
547.7344290576
 30
0.0
 11
717.9591952166
 21
545.530455413
 31
0.0
  0
LINE
  5
2A6
330
1F
100
AcDbEntity
  8
0
  6
Continuous
 62
     7
370
    15
100
AcDbLine
 10
719.7324627548
 20
590.3469740711
 30
0.0
 11
714.1413872182
 21
547.7344290576
 31
0.0
  0
LINE
  5
2A7
330
1F
100
AcDbEntity
  8
0
  6
Continuous
 62
     7
370
    15
100
AcDbLine
 10
721.21536959
 20
590.3756558226
 30
0.0
 11
719.7324627548
 21
590.3469740711
 31
0.0
  0
LINE
  5
2A8
330
1F
100
AcDbEntity
  8
0
  6
Continuous
 62
     7
370
    15
100
AcDbLine
 10
748.3869323213
 20
590.022000034
 30
0.0
 11
747.3327785271
 21
590.630550066
 31
0.0
  0
LINE
  5
2A9
330
1F
100
AcDbEntity
  8
0
  6
Continuous
 62
     7
370
    15
100
AcDbLine
 10
767.7300029597
 20
581.8183584047
 30
0.0
 11
768.1498487912
 21
583.4460049671
 31
0.0
  0
LINE
  5
2AA
330
1F
100
AcDbEntity
  8
0
  6
Continuous
 62
     7
370
    15
100
AcDbLine
 10
761.848637843
 20
579.7472011433
 30
0.0
 11
767.7300029597
 21
581.8183584047
 31
0.0
  0
LINE
  5
2AB
330
1F
100
AcDbEntity
  8
0
  6
Continuous
 62
     7
370
    15
100
AcDbLine
 10
764.4981910453
 20
569.5487590344
 30
0.0
 11
761.848637843
 21
579.7472011433
 31
0.0
  0
LINE
  5
2AC
330
1F
100
AcDbEntity
  8
0
  6
Continuous
 62
     7
370
    15
100
AcDbLine
 10
772.9531944607
 20
559.6232996291
 30
0.0
 11
764.4981910453
 21
569.5487590344
 31
0.0
  0
LINE
  5
2AD
330
1F
100
AcDbEntity
  8
0
  6
Continuous
 62
     7
370
    15
100
AcDbLine
 10
778.5442689436
 20
510.5554368146
 30
0.0
 11
772.9531944607
 21
559.6232996291
 31
0.0
  0
LINE
  5
2AE
330
1F
100
AcDbEntity
  8
0
  6
Continuous
 62
     7
370
    15
100
AcDbLine
 10
773.4213995862
 20
513.5128063453
 30
0.0
 11
778.5442689436
 21
510.5554368146
 31
0.0
  0
LINE
  5
2AF
330
1F
100
AcDbEntity
  8
0
  6
Continuous
 62
     7
370
    15
100
AcDbLine
 10
762.9562190897
 20
558.5848784852
 30
0.0
 11
773.4213995862
 21
513.5128063453
 31
0.0
  0
LINE
  5
2B0
330
1F
100
AcDbEntity
  8
0
  6
Continuous
 62
     7
370
    15
100
AcDbLine
 10
757.2809478475
 20
561.8611428361
 30
0.0
 11
762.9562190897
 21
558.5848784852
 31
0.0
  0
LINE
  5
2B1
330
1F
100
AcDbEntity
  8
0
  6
Continuous
 62
     7
370
    15
100
AcDbLine
 10
752.896885349
 20
576.8034294038
 30
0.0
 11
757.2809478475
 21
561.8611428361
 31
0.0
  0
LINE
  5
2B2
330
1F
100
AcDbEntity
  8
0
  6
Continuous
 62
     7
370
    15
100
AcDbLine
 10
747.8984629911
 20
579.6889572109
 30
0.0
 11
752.896885349
 21
576.8034294038
 31
0.0
  0
LINE
  5
2B3
330
1F
100
AcDbEntity
  8
0
  6
Continuous
 62
     7
370
    15
100
AcDbLine
 10
747.8984629911
 20
585.40474231
 30
0.0
 11
747.8984629911
 21
579.6889572109
 31
0.0
  0
LINE
  5
2B4
330
1F
100
AcDbEntity
  8
0
  6
Continuous
 62
     7
370
    15
100
AcDbLine
 10
747.3327785271
 20
585.731305
 30
0.0
 11
747.8984629911
 21
585.40474231
 31
0.0
  0
LINE
  5
2B5
330
1F
100
AcDbEntity
  8
0
  6
Continuous
 62
     7
370
    15
100
AcDbLine
 10
729.7294354916
 20
577.7662923685
 30
0.0
 11
729.9130545592
 21
577.6602913371
 31
0.0
  0
LINE
  5
2B6
330
1F
100
AcDbEntity
  8
0
  6
Continuous
 62
     7
370
    15
100
AcDbLine
 10
727.2335143023
 20
569.8984366067
 30
0.0
 11
729.7294354916
 21
577.7662923685
 31
0.0
  0
LINE
  5
2B7
330
1F
100
AcDbEntity
  8
0
  6
Continuous
 62
     7
370
    15
100
AcDbLine
 10
768.7285334506
 20
583.454771587
 30
0.0
 11
768.2631353053
 21
581.6505084149
 31
0.0
  0
LINE
  5
2B8
330
1F
100
AcDbEntity
  8
0
  6
Continuous
 62
     7
370
    15
100
AcDbLine
 10
768.2631353053
 20
581.6505084149
 30
0.0
 11
767.7300029597
 21
581.8183584047
 31
0.0
  0
LINE
  5
2B9
330
1F
100
AcDbEntity
  8
0
  6
Continuous
 62
     7
370
    15
100
AcDbLine
 10
770.2430340903
 20
582.7934796547
 30
0.0
 11
770.4353290866
 21
583.5389776455
 31
0.0
  0
LINE
  5
2BA
330
1F
100
AcDbEntity
  8
0
  6
Continuous
 62
     7
370
    15
100
AcDbLine
 10
768.2631353053
 20
581.6505084149
 30
0.0
 11
770.2430340903
 21
582.7934796547
 31
0.0
  0
LINE
  5
2BB
330
1F
100
AcDbEntity
  8
0
  6
Continuous
 62
     7
370
    15
100
AcDbLine
 10
768.2631353053
 20
581.6505084149
 30
0.0
 11
762.4648584857
 21
579.6086142616
 31
0.0
  0
LINE
  5
2BC
330
1F
100
AcDbEntity
  8
0
  6
Continuous
 62
     7
370
    15
100
AcDbLine
 10
762.4648584857
 20
579.6086142616
 30
0.0
 11
761.848637843
 21
579.7472011433
 31
0.0
  0
LINE
  5
2BD
330
1F
100
AcDbEntity
  8
0
  6
Continuous
 62
     7
370
    15
100
AcDbLine
 10
773.4957255535
 20
559.8493581315
 30
0.0
 11
779.1525786229
 21
510.2042097737
 31
0.0
  0
LINE
  5
2BE
330
1F
100
AcDbEntity
  8
0
  6
Continuous
 62
     7
370
    15
100
AcDbLine
 10
779.1525786229
 20
510.2042097737
 30
0.0
 11
778.5442689436
 21
510.5554368146
 31
0.0
  0
LINE
  5
2BF
330
1F
100
AcDbEntity
  8
0
  6
Continuous
 62
     7
370
    15
100
AcDbLine
 10
773.4957255535
 20
559.8493581315
 30
0.0
 11
772.9531944607
 21
559.6232996291
 31
0.0
  0
LINE
  5
2C0
330
1F
100
AcDbEntity
  8
0
  6
Continuous
 62
     7
370
    15
100
AcDbLine
 10
773.4957255535
 20
559.8493581315
 30
0.0
 11
775.4756243385
 21
560.9923293712
 31
0.0
  0
LINE
  5
2C1
330
1F
100
AcDbEntity
  8
0
  6
Continuous
 62
     7
370
    15
100
AcDbLine
 10
781.1324774079
 20
511.3471810134
 30
0.0
 11
775.4756243385
 21
560.9923293712
 31
0.0
  0
LINE
  5
2C2
330
1F
100
AcDbEntity
  8
0
  6
Continuous
 62
     7
370
    15
100
AcDbLine
 10
779.1525786229
 20
510.2042097737
 30
0.0
 11
781.1324774079
 21
511.3471810134
 31
0.0
  0
LINE
  5
2C3
330
1F
100
AcDbEntity
  8
0
  6
Continuous
 62
     7
370
    15
100
AcDbLine
 10
765.0104438421
 20
569.8103629899
 30
0.0
 11
773.4957255535
 21
559.8493581315
 31
0.0
  0
LINE
  5
2C4
330
1F
100
AcDbEntity
  8
0
  6
Continuous
 62
     7
370
    15
100
AcDbLine
 10
765.0104438421
 20
569.8103629899
 30
0.0
 11
764.4981910453
 21
569.5487590344
 31
0.0
  0
LINE
  5
2C5
330
1F
100
AcDbEntity
  8
0
  6
Continuous
 62
     7
370
    15
100
AcDbLine
 10
765.0104438421
 20
569.8103629899
 30
0.0
 11
766.9903426271
 21
570.9533342296
 31
0.0
  0
LINE
  5
2C6
330
1F
100
AcDbEntity
  8
0
  6
Continuous
 62
     7
370
    15
100
AcDbLine
 10
775.4756243385
 20
560.9923293712
 30
0.0
 11
766.9903426271
 21
570.9533342296
 31
0.0
  0
LINE
  5
2C7
330
1F
100
AcDbEntity
  8
0
  6
Continuous
 62
     7
370
    15
100
AcDbLine
 10
781.0898500853
 20
512.0249695278
 30
0.0
 11
781.1324774079
 21
511.3471810134
 31
0.0
  0
LINE
  5
2C8
330
1F
100
AcDbEntity
  8
0
  6
Continuous
 62
     7
370
    15
100
AcDbLine
 10
775.4987756024
 20
561.0928323423
 30
0.0
 11
775.4756243385
 21
560.9923293712
 31
0.0
  0
LINE
  5
2C9
330
1F
100
AcDbEntity
  8
0
  6
Continuous
 62
     7
370
    15
100
AcDbLine
 10
775.4987756024
 20
561.0928323423
 30
0.0
 11
781.0898500853
 21
512.0249695278
 31
0.0
  0
LINE
  5
2CA
330
1F
100
AcDbEntity
  8
0
  6
Continuous
 62
     7
370
    15
100
AcDbLine
 10
762.4648584857
 20
579.6086142616
 30
0.0
 11
765.0104438421
 21
569.8103629899
 31
0.0
  0
LINE
  5
2CB
330
1F
100
AcDbEntity
  8
0
  6
Continuous
 62
     7
370
    15
100
AcDbLine
 10
766.9903426271
 20
570.9533342296
 30
0.0
 11
764.5508535325
 21
580.3432061996
 31
0.0
  0
LINE
  5
2CC
330
1F
100
AcDbEntity
  8
0
  6
Continuous
 62
     7
370
    15
100
AcDbLine
 10
767.043772187
 20
571.0182917476
 30
0.0
 11
766.9903426271
 21
570.9533342296
 31
0.0
  0
LINE
  5
2CD
330
1F
100
AcDbEntity
  8
0
  6
Continuous
 62
     7
370
    15
100
AcDbLine
 10
767.043772187
 20
571.0182917476
 30
0.0
 11
775.4987756024
 21
561.0928323423
 31
0.0
  0
LINE
  5
2CE
330
1F
100
AcDbEntity
  8
0
  6
Continuous
 62
     7
370
    15
100
AcDbLine
 10
764.6152665611
 20
580.3658903119
 30
0.0
 11
767.043772187
 21
571.0182917476
 31
0.0
  0
LINE
  5
2CF
330
1F
100
AcDbEntity
  8
0
  6
Continuous
 62
     7
370
    15
100
AcDbLine
 10
746.7614969616
 20
591.6135199209
 30
0.0
 11
748.3990116081
 21
590.6682028372
 31
0.0
  0
LINE
  5
2D0
330
1F
100
AcDbEntity
  8
0
  6
Continuous
 62
     7
370
    15
100
AcDbLine
 10
748.4412975412
 20
592.9297341671
 30
0.0
 11
746.7182880125
 21
593.9244063958
 31
0.0
  0
LINE
  5
2D1
330
1F
100
AcDbEntity
  8
0
  6
Continuous
 62
     7
370
    15
100
AcDbLine
 10
752.8969022077
 20
576.8033617252
 30
0.0
 11
747.8984587764
 21
579.6889016976
 31
0.0
  0
LINE
  5
2D2
330
1F
100
AcDbEntity
  8
0
  6
Continuous
 62
     7
370
    15
100
AcDbLine
 10
747.8984587764
 20
579.6889016976
 30
0.0
 11
747.8984629911
 21
579.6889572109
 31
0.0
  0
LINE
  5
2D3
330
1F
100
AcDbEntity
  8
0
  6
Continuous
 62
     7
370
    15
100
AcDbLine
 10
747.8984587764
 20
585.4046867968
 30
0.0
 11
747.3327743124
 21
585.7312494868
 31
0.0
  0
LINE
  5
2D4
330
1F
100
AcDbEntity
  8
0
  6
Continuous
 62
     7
370
    15
100
AcDbLine
 10
762.9562317338
 20
558.5848132397
 30
0.0
 11
757.3736898804
 21
561.8075460539
 31
0.0
  0
LINE
  5
2D5
330
1F
100
AcDbEntity
  8
0
  6
Continuous
 62
     7
370
    15
100
AcDbLine
 10
757.3736898804
 20
561.8075460539
 30
0.0
 11
757.2809478475
 21
561.8611428361
 31
0.0
  0
LINE
  5
2D6
330
1F
100
AcDbEntity
  8
0
  6
Continuous
 62
     7
370
    15
100
AcDbLine
 10
779.1525786229
 20
510.2042097737
 30
0.0
 11
773.4957255535
 21
513.4698415397
 31
0.0
  0
LINE
  5
2D7
330
1F
100
AcDbEntity
  8
0
  6
Continuous
 62
     7
370
    15
100
AcDbLine
 10
773.4957255535
 20
513.4698415397
 30
0.0
 11
773.4213995862
 21
513.5128063453
 31
0.0
  0
LINE
  5
2D8
330
1F
100
AcDbEntity
  8
0
  6
Continuous
 62
     7
370
    15
100
AcDbLine
 10
719.7324627548
 20
590.3469740711
 30
0.0
 11
719.7556092772
 21
590.8728669038
 31
0.0
  0
LINE
  5
2D9
330
1F
100
AcDbEntity
  8
0
  6
Continuous
 62
     7
370
    15
100
AcDbLine
 10
719.7556092772
 20
590.8728669038
 30
0.0
 11
721.4537268771
 21
590.9057103302
 31
0.0
  0
LINE
  5
2DA
330
1F
100
AcDbEntity
  8
0
  6
Continuous
 62
     7
370
    15
100
AcDbLine
 10
719.7556092772
 20
590.8728669038
 30
0.0
 11
721.7355080622
 21
592.0158381436
 31
0.0
  0
LINE
  5
2DB
330
1F
100
AcDbEntity
  8
0
  6
Continuous
 62
     7
370
    15
100
AcDbLine
 10
721.9548476375
 20
592.0200838567
 30
0.0
 11
721.7355080622
 21
592.0158381436
 31
0.0
  0
LINE
  5
2DC
330
1F
100
AcDbEntity
  8
0
  6
Continuous
 62
     7
370
    15
100
AcDbLine
 10
729.7294354916
 20
577.7662923685
 30
0.0
 11
729.9130469201
 21
577.6602710454
 31
0.0
  0
LINE
  5
2DD
330
1F
100
AcDbEntity
  8
0
  6
Continuous
 62
     7
370
    15
100
AcDbLine
 10
728.2658980968
 20
571.320204767
 30
0.0
 11
728.1598333134
 21
570.9858576847
 31
0.0
  0
LINE
  5
2DE
330
1F
100
AcDbEntity
  8
0
  6
Continuous
 62
     7
370
    15
100
AcDbLine
 10
714.1413872182
 20
547.7344290576
 30
0.0
 11
714.098755681
 21
547.7589823823
 31
0.0
  0
LINE
  5
2DF
330
1F
100
AcDbEntity
  8
0
  6
Continuous
 62
     7
370
    15
100
AcDbLine
 10
714.098755681
 20
547.7589823823
 30
0.0
 11
719.7556092772
 21
590.8728669038
 31
0.0
  0
LINE
  5
2E0
330
1F
100
AcDbEntity
  8
0
  6
Continuous
 62
     7
370
    15
100
AcDbLine
 10
717.9591857336
 20
545.5304035495
 30
0.0
 11
714.098755681
 21
547.7589823823
 31
0.0
  0
LINE
  5
2E1
330
1F
100
AcDbEntity
  8
0
  6
Continuous
 62
     7
370
    15
100
AcDbLine
 10
762.1882697924
 20
581.4340175761
 30
0.0
 11
761.9015890362
 21
583.3513147367
 31
0.0
  0
LINE
  5
2E2
330
1F
100
AcDbEntity
  8
0
  6
Continuous
 62
     7
370
    15
100
AcDbLine
 10
756.8415037316
 20
582.7886612098
 30
0.0
 11
762.1882697924
 21
581.4340175761
 31
0.0
  0
LINE
  5
2E3
330
1F
100
AcDbEntity
  8
0
  6
Continuous
 62
     7
370
    15
100
AcDbLine
 10
756.5872149357
 20
583.2707755298
 30
0.0
 11
756.8415037316
 21
582.7886612098
 31
0.0
  0
LINE
  5
2E4
330
1F
100
AcDbEntity
  8
0
  6
Continuous
 62
     7
370
    15
100
AcDbLine
 10
756.8415037316
 20
582.7886612098
 30
0.0
 11
756.3615543868
 21
582.5280479271
 31
0.0
  0
LINE
  5
2E5
330
1F
100
AcDbEntity
  8
0
  6
Continuous
 62
     7
370
    15
100
AcDbLine
 10
756.3615543868
 20
582.5280479271
 30
0.0
 11
755.9747011084
 21
583.2614937275
 31
0.0
  0
LINE
  5
2E6
330
1F
100
AcDbEntity
  8
0
  6
Continuous
 62
     7
370
    15
100
AcDbLine
 10
756.3615543868
 20
582.5280479271
 30
0.0
 11
754.416089577
 21
583.2265957169
 31
0.0
  0
LINE
  5
2E7
330
1F
100
AcDbEntity
  8
0
  6
Continuous
 62
     7
370
    15
100
AcDbLine
 10
754.4101911256
 20
583.2377838235
 30
0.0
 11
754.416089577
 21
583.2265957169
 31
0.0
  0
LINE
  5
2E8
330
1F
100
AcDbEntity
  8
0
  6
Continuous
 62
     7
370
    15
100
AcDbLine
 10
762.1882697924
 20
581.4340175761
 30
0.0
 11
761.9743134233
 21
581.1060141136
 31
0.0
  0
LINE
  5
2E9
330
1F
100
AcDbEntity
  8
0
  6
Continuous
 62
     7
370
    15
100
AcDbLine
 10
761.9743134233
 20
581.1060141136
 30
0.0
 11
756.3615543868
 21
582.5280479271
 31
0.0
  0
LINE
  5
2EA
330
1F
100
AcDbEntity
  8
0
  6
Continuous
 62
     7
370
    15
100
AcDbLine
 10
750.6432448903
 20
597.8372516434
 30
0.0
 11
769.9828953119
 21
599.8309846831
 31
0.0
  0
LINE
  5
2EB
330
1F
100
AcDbEntity
  8
0
  6
Continuous
 62
     7
370
    15
100
AcDbLine
 10
748.8775595701
 20
598.8565600822
 30
0.0
 11
750.6432448903
 21
597.8372516434
 31
0.0
  0
LINE
  5
2EC
330
1F
100
AcDbEntity
  8
0
  6
Continuous
 62
     7
370
    15
100
AcDbLine
 10
748.7079095487
 20
612.112772539
 30
0.0
 11
748.8775595701
 21
598.8565600822
 31
0.0
  0
LINE
  5
2ED
330
1F
100
AcDbEntity
  8
0
  6
Continuous
 62
     7
370
    15
100
AcDbLine
 10
769.6380171336
 20
617.2796340135
 30
0.0
 11
748.7079095487
 21
612.112772539
 31
0.0
  0
ARC
  5
2EE
330
1F
100
AcDbEntity
  8
0
  6
Continuous
 62
     7
370
    15
100
AcDbCircle
 10
769.8393315654
 20
616.553141102
 30
0.0
 40
0.7538696511775398
100
AcDbArc
 50
62.9863720057
 51
105.4882904313
  0
LINE
  5
2EF
330
1F
100
AcDbEntity
  8
0
  6
Continuous
 62
     7
370
    15
100
AcDbLine
 10
774.0169208579
 20
615.0107602395
 30
0.0
 11
770.1817409822
 21
617.2247624554
 31
0.0
  0
ARC
  5
2F0
330
1F
100
AcDbEntity
  8
0
  6
Continuous
 62
     7
370
    15
100
AcDbCircle
 10
773.8846161195
 20
614.7322546403
 30
0.0
 40
0.3083340924755914
100
AcDbArc
 50
345.6240895382
 51
64.5898348422
  0
LINE
  5
2F1
330
1F
100
AcDbEntity
  8
0
  6
Continuous
 62
     7
370
    15
100
AcDbLine
 10
769.9828953119
 20
599.8309846831
 30
0.0
 11
774.1832955424
 21
614.6557006401
 31
0.0
  0
LINE
  5
2F2
330
1F
100
AcDbEntity
  8
0
  6
Continuous
 62
     7
370
    15
100
AcDbLine
 10
769.9828953119
 20
599.8309846831
 30
0.0
 11
770.3610831983
 21
599.3017885912
 31
0.0
  0
LINE
  5
2F3
330
1F
100
AcDbEntity
  8
0
  6
Continuous
 62
     7
370
    15
100
AcDbLine
 10
770.3610831983
 20
599.3017885912
 30
0.0
 11
750.5349991392
 21
597.2579108367
 31
0.0
  0
LINE
  5
2F4
330
1F
100
AcDbEntity
  8
0
  6
Continuous
 62
     7
370
    15
100
AcDbLine
 10
750.6432448903
 20
597.8372516434
 30
0.0
 11
750.5349991392
 21
597.2579108367
 31
0.0
  0
LINE
  5
2F5
330
1F
100
AcDbEntity
  8
0
  6
Continuous
 62
     7
370
    15
100
AcDbLine
 10
770.3610831983
 20
599.3017885912
 30
0.0
 11
770.6478250675
 21
597.715151377
 31
0.0
  0
LINE
  5
2F6
330
1F
100
AcDbEntity
  8
0
  6
Continuous
 62
     7
370
    15
100
AcDbLine
 10
750.5349991392
 20
597.2579108367
 30
0.0
 11
750.6860450149
 21
596.4221223946
 31
0.0
  0
LINE
  5
2F7
330
1F
100
AcDbEntity
  8
0
  6
Continuous
 62
     7
370
    15
100
AcDbLine
 10
774.6246562863
 20
614.3494713237
 30
0.0
 11
770.3610831983
 21
599.3017885912
 31
0.0
  0
LINE
  5
2F8
330
1F
100
AcDbEntity
  8
0
  6
Continuous
 62
     7
370
    15
100
AcDbLine
 10
770.7752729227
 20
597.431735832
 30
0.0
 11
774.9923032459
 21
612.3151584398
 31
0.0
  0
LINE
  5
2F9
330
1F
100
AcDbEntity
  8
0
  6
Continuous
 62
     7
370
    15
100
AcDbLine
 10
750.5349991392
 20
597.2579108367
 30
0.0
 11
748.5349984148
 21
598.412486679
 31
0.0
  0
LINE
  5
2FA
330
1F
100
AcDbEntity
  8
0
  6
Continuous
 62
     7
370
    15
100
AcDbLine
 10
748.8775595701
 20
598.8565600822
 30
0.0
 11
748.5349984148
 21
598.412486679
 31
0.0
  0
LINE
  5
2FB
330
1F
100
AcDbEntity
  8
0
  6
Continuous
 62
     7
370
    15
100
AcDbLine
 10
748.5349984148
 20
598.412486679
 30
0.0
 11
748.3610836591
 21
612.0021179911
 31
0.0
  0
LINE
  5
2FC
330
1F
100
AcDbEntity
  8
0
  6
Continuous
 62
     7
370
    15
100
AcDbLine
 10
748.3610836591
 20
612.0021179911
 30
0.0
 11
748.7079095487
 21
612.112772539
 31
0.0
  0
LINE
  5
2FD
330
1F
100
AcDbEntity
  8
0
  6
Continuous
 62
     7
370
    15
100
AcDbLine
 10
748.9026453744
 20
596.3781737952
 30
0.0
 11
749.7175209728
 21
595.9077561253
 31
0.0
  0
LINE
  5
2FE
330
1F
100
AcDbEntity
  8
0
  6
Continuous
 62
     7
370
    15
100
AcDbLine
 10
748.5349984148
 20
598.412486679
 30
0.0
 11
748.9026453744
 21
596.3781737952
 31
0.0
  0
ARC
  5
2FF
330
1F
100
AcDbEntity
  8
0
  6
Continuous
 62
     7
370
    15
100
AcDbCircle
 10
774.1268618114
 20
614.477062536
 30
0.0
 40
0.5138860347974046
100
AcDbArc
 50
345.6238323023
 51
64.5902232728
  0
ARC
  5
300
330
1F
100
AcDbEntity
  8
0
  6
Continuous
 62
     7
370
    15
100
AcDbCircle
 10
774.534474357
 20
612.4491702983
 30
0.0
 40
0.4770392748325487
100
AcDbArc
 50
343.6846306805
 51
10.0034389861
  0
LINE
  5
301
330
1F
100
AcDbEntity
  8
0
  6
Continuous
 62
     7
370
    15
100
AcDbLine
 10
770.5121849186
 20
617.1552385247
 30
0.0
 11
774.3473647943
 21
614.9412363088
 31
0.0
  0
ARC
  5
302
330
1F
100
AcDbEntity
  8
0
  6
Continuous
 62
     7
370
    15
100
AcDbCircle
 10
770.0043566983
 20
616.2369939713
 30
0.0
 40
1.049315282018676
100
AcDbArc
 50
61.0555435043
 51
84.3255763073
  0
LINE
  5
303
330
1F
100
AcDbEntity
  8
0
  6
Continuous
 62
     7
370
    15
100
AcDbLine
 10
769.5523526103
 20
586.093680041
 30
0.0
 11
748.3074560091
 21
585.7717209811
 31
0.0
  0
LINE
  5
304
330
1F
100
AcDbEntity
  8
0
  6
Continuous
 62
     7
370
    15
100
AcDbLine
 10
748.6751029686
 20
583.312931953
 30
0.0
 11
769.9199995699
 21
583.6348910128
 31
0.0
  0
LINE
  5
305
330
1F
100
AcDbEntity
  8
0
  6
Continuous
 62
     7
370
    15
100
AcDbLine
 10
748.3074560091
 20
585.7717209811
 30
0.0
 11
748.6751029686
 21
583.312931953
 31
0.0
  0
LINE
  5
306
330
1F
100
AcDbEntity
  8
0
  6
Continuous
 62
     7
370
    15
100
AcDbLine
 10
748.6542845328
 20
586.3190228808
 30
0.0
 11
769.5843884299
 21
586.6362051734
 31
0.0
  0
LINE
  5
307
330
1F
100
AcDbEntity
  8
0
  6
Continuous
 62
     7
370
    15
100
AcDbLine
 10
748.6542845328
 20
586.3190228808
 30
0.0
 11
748.3074560091
 21
585.7717209811
 31
0.0
  0
LINE
  5
308
330
1F
100
AcDbEntity
  8
0
  6
Continuous
 62
     7
370
    15
100
AcDbLine
 10
748.8239298127
 20
595.391895817
 30
0.0
 11
748.6542845328
 21
586.3190228808
 31
0.0
  0
LINE
  5
309
330
1F
100
AcDbEntity
  8
0
  6
Continuous
 62
     7
370
    15
100
AcDbLine
 10
750.5896172402
 20
596.4112054723
 30
0.0
 11
748.8239298127
 21
595.391895817
 31
0.0
  0
LINE
  5
30A
330
1F
100
AcDbEntity
  8
0
  6
Continuous
 62
     7
370
    15
100
AcDbLine
 10
769.9292697692
 20
598.6008104326
 30
0.0
 11
750.5896172402
 21
596.4112054723
 31
0.0
  0
LINE
  5
30B
330
1F
100
AcDbEntity
  8
0
  6
Continuous
 62
     7
370
    15
100
AcDbLine
 10
774.1296668387
 20
589.2601385468
 30
0.0
 11
769.9292697692
 21
598.6008104326
 31
0.0
  0
LWPOLYLINE
  5
30C
330
1F
100
AcDbEntity
  8
0
  6
Continuous
 62
     7
370
    15
100
AcDbPolyline
 90
        9
 70
   128
 43
0.0
 10
773.9632921542
 20
588.9874279531
 10
774.012542854
 20
589.0188572255
 10
774.0546454483
 20
589.0520964882
 10
774.088946661
 20
589.0866420982
 10
774.1149259784
 20
589.1219600017
 10
774.1321851129
 20
589.1575088483
 10
774.1404543245
 20
589.1927533756
 10
774.1396113876
 20
589.2271364229
 10
774.1296668387
 20
589.2601385468
  0
LINE
  5
30D
330
1F
100
AcDbEntity
  8
0
  6
Continuous
 62
     7
370
    15
100
AcDbLine
 10
770.1281122785
 20
586.7734257372
 30
0.0
 11
773.9632921542
 21
588.9874279531
 31
0.0
  0
ARC
  5
30E
330
1F
100
AcDbEntity
  8
0
  6
Continuous
 62
     7
370
    15
100
AcDbCircle
 10
769.5788306501
 20
587.8040654881
 30
0.0
 40
1.167873539191582
100
AcDbArc
 50
270.2726652492
 51
298.0554787818
  0
LINE
  5
30F
330
1F
100
AcDbEntity
  8
0
  6
Continuous
 62
     7
370
    15
100
AcDbLine
 10
770.05707798
 20
583.4749067326
 30
0.0
 11
749.1269740829
 21
583.1577195731
 31
0.0
  0
LINE
  5
310
330
1F
100
AcDbEntity
  8
0
  6
Continuous
 62
     7
370
    15
100
AcDbLine
 10
748.6751029686
 20
583.312931953
 30
0.0
 11
749.1269740829
 21
583.1577195731
 31
0.0
  0
ARC
  5
311
330
1F
100
AcDbEntity
  8
0
  6
Continuous
 62
     7
370
    15
100
AcDbCircle
 10
769.5431211473
 20
588.0399900047
 30
0.0
 40
1.946331856273181
100
AcDbArc
 50
270.2717552249
 51
298.0562802746
  0
ARC
  5
312
330
1F
100
AcDbEntity
  8
0
  6
Continuous
 62
     7
370
    15
100
AcDbCircle
 10
769.9108032407
 20
585.5810617616
 30
0.0
 40
1.946192476531123
100
AcDbArc
 50
270.270740339
 51
298.0572951604
  0
LINE
  5
313
330
1F
100
AcDbEntity
  8
0
  6
Continuous
 62
     7
370
    15
100
AcDbLine
 10
774.2937360906
 20
588.5363815744
 30
0.0
 11
770.4585562149
 21
586.3223793585
 31
0.0
  0
LINE
  5
314
330
1F
100
AcDbEntity
  8
0
  6
Continuous
 62
     7
370
    15
100
AcDbLine
 10
770.8262031744
 20
583.8635903303
 30
0.0
 11
774.6613830501
 21
586.0775925462
 31
0.0
  0
ARC
  5
315
330
1F
100
AcDbEntity
  8
0
  6
Continuous
 62
     7
370
    15
100
AcDbCircle
 10
770.0515686911
 20
584.6425749065
 30
0.0
 40
1.167681170743393
100
AcDbArc
 50
270.2703307901
 51
298.0578132409
  0
LINE
  5
316
330
1F
100
AcDbEntity
  8
0
  6
Continuous
 62
     7
370
    15
100
AcDbLine
 10
774.4359817043
 20
585.8261295123
 30
0.0
 11
770.6008018286
 21
583.6121272964
 31
0.0
  0
LWPOLYLINE
  5
317
330
1F
100
AcDbEntity
  8
0
  6
Continuous
 62
     7
370
    15
100
AcDbPolyline
 90
        9
 70
   128
 43
0.0
 10
774.5710286363
 20
588.9909000417
 10
774.5876007771
 20
588.9358904179
 10
774.5890042672
 20
588.8785861507
 10
774.5752201404
 20
588.8198521664
 10
774.5464591309
 20
588.7605984105
 10
774.5031574588
 20
588.7017336162
 10
774.4459873661
 20
588.644161655
 10
774.3758234001
 20
588.5887572063
 10
774.2937360906
 20
588.5363815744
  0
ARC
  5
318
330
1F
100
AcDbEntity
  8
0
  6
Continuous
 62
     7
370
    15
100
AcDbCircle
 10
774.5184051287
 20
586.4910419972
 30
0.0
 40
0.4374735815196004
100
AcDbArc
 50
289.0762644484
 51
357.892521604
  0
LINE
  5
319
330
1F
100
AcDbEntity
  8
0
  6
Continuous
 62
     7
370
    15
100
AcDbLine
 10
770.3074555483
 20
598.472050381
 30
0.0
 11
774.5710286363
 21
588.9909000417
 31
0.0
  0
LINE
  5
31A
330
1F
100
AcDbEntity
  8
0
  6
Continuous
 62
     7
370
    15
100
AcDbLine
 10
770.3074555483
 20
598.472050381
 30
0.0
 11
769.9292697692
 21
598.6008104326
 31
0.0
  0
ARC
  5
31B
330
1F
100
AcDbEntity
  8
0
  6
Continuous
 62
     7
370
    15
100
AcDbCircle
 10
774.1897347599
 20
586.2697030708
 30
0.0
 40
0.5073411667189162
100
AcDbArc
 50
299.0365567707
 51
314.8898605567
  0
LINE
  5
31C
330
1F
100
AcDbEntity
  8
0
  6
Continuous
 62
     7
370
    15
100
AcDbLine
 10
748.8239298127
 20
595.391895817
 30
0.0
 11
748.4813728721
 21
595.0728002978
 31
0.0
  0
LINE
  5
31D
330
1F
100
AcDbEntity
  8
0
  6
Continuous
 62
     7
370
    15
100
AcDbLine
 10
748.3074560091
 20
585.7717209811
 30
0.0
 11
748.4813728721
 21
595.0728002978
 31
0.0
  0
LINE
  5
31E
330
1F
100
AcDbEntity
  8
0
  6
Continuous
 62
     7
370
    15
100
AcDbLine
 10
746.4073064371
 20
598.8875192738
 30
0.0
 11
746.5769548781
 21
612.1437320348
 31
0.0
  0
LINE
  5
31F
330
1F
100
AcDbEntity
  8
0
  6
Continuous
 62
     7
370
    15
100
AcDbLine
 10
744.6416190097
 20
597.8682096186
 30
0.0
 11
746.4073064371
 21
598.8875192738
 31
0.0
  0
LINE
  5
320
330
1F
100
AcDbEntity
  8
0
  6
Continuous
 62
     7
370
    15
100
AcDbLine
 10
725.3019696417
 20
599.861944483
 30
0.0
 11
744.6416190097
 21
597.8682096186
 31
0.0
  0
LINE
  5
321
330
1F
100
AcDbEntity
  8
0
  6
Continuous
 62
     7
370
    15
100
AcDbLine
 10
721.1015683575
 20
614.6866586153
 30
0.0
 11
725.3019696417
 21
599.861944483
 31
0.0
  0
ARC
  5
322
330
1F
100
AcDbEntity
  8
0
  6
Continuous
 62
     7
370
    15
100
AcDbCircle
 10
721.4002502577
 20
614.7632114546
 30
0.0
 40
0.3083362039812776
100
AcDbArc
 50
115.410488401
 51
194.3755872186
  0
LINE
  5
323
330
1F
100
AcDbEntity
  8
0
  6
Continuous
 62
     7
370
    15
100
AcDbLine
 10
725.1031229177
 20
617.2557204305
 30
0.0
 11
721.267943042
 21
615.0417182146
 31
0.0
  0
ARC
  5
324
330
1F
100
AcDbEntity
  8
0
  6
Continuous
 62
     7
370
    15
100
AcDbCircle
 10
725.4455315239
 20
616.5841071094
 30
0.0
 40
0.7538621270340188
100
AcDbArc
 50
74.5114871743
 51
117.0138503887
  0
LINE
  5
325
330
1F
100
AcDbEntity
  8
0
  6
Continuous
 62
     7
370
    15
100
AcDbLine
 10
746.5769548781
 20
612.1437320348
 30
0.0
 11
725.6468467663
 21
617.3105919887
 31
0.0
  0
LINE
  5
326
330
1F
100
AcDbEntity
  8
0
  6
Continuous
 62
     7
370
    15
100
AcDbLine
 10
744.6416190097
 20
597.8682096186
 30
0.0
 11
744.7498658144
 21
597.2888706366
 31
0.0
  0
LINE
  5
327
330
1F
100
AcDbEntity
  8
0
  6
Continuous
 62
     7
370
    15
100
AcDbLine
 10
744.7498658144
 20
597.2888706366
 30
0.0
 11
724.9237807016
 21
599.3327465663
 31
0.0
  0
LINE
  5
328
330
1F
100
AcDbEntity
  8
0
  6
Continuous
 62
     7
370
    15
100
AcDbLine
 10
724.9237807016
 20
599.3327465663
 30
0.0
 11
725.3019696417
 21
599.861944483
 31
0.0
  0
LINE
  5
329
330
1F
100
AcDbEntity
  8
0
  6
Continuous
 62
     7
370
    15
100
AcDbLine
 10
744.7498658144
 20
597.2888706366
 30
0.0
 11
744.5960108512
 21
596.4375332025
 31
0.0
  0
LINE
  5
32A
330
1F
100
AcDbEntity
  8
0
  6
Continuous
 62
     7
370
    15
100
AcDbLine
 10
724.9237807016
 20
599.3327465663
 30
0.0
 11
724.7091057287
 21
598.1448785197
 31
0.0
  0
LINE
  5
32B
330
1F
100
AcDbEntity
  8
0
  6
Continuous
 62
     7
370
    15
100
AcDbLine
 10
724.9237807016
 20
599.3327465663
 30
0.0
 11
720.6602097209
 21
614.3804305153
 31
0.0
  0
LINE
  5
32C
330
1F
100
AcDbEntity
  8
0
  6
Continuous
 62
     7
370
    15
100
AcDbLine
 10
720.2925627614
 20
612.3461176315
 30
0.0
 11
724.4681332297
 21
597.6090154684
 31
0.0
  0
LINE
  5
32D
330
1F
100
AcDbEntity
  8
0
  6
Continuous
 62
     7
370
    15
100
AcDbLine
 10
746.4073064371
 20
598.8875192738
 30
0.0
 11
746.7498644314
 21
598.4434452624
 31
0.0
  0
LINE
  5
32E
330
1F
100
AcDbEntity
  8
0
  6
Continuous
 62
     7
370
    15
100
AcDbLine
 10
746.7498644314
 20
598.4434452624
 30
0.0
 11
744.7498658144
 21
597.2888706366
 31
0.0
  0
LINE
  5
32F
330
1F
100
AcDbEntity
  8
0
  6
Continuous
 62
     7
370
    15
100
AcDbLine
 10
746.5769548781
 20
612.1437320348
 30
0.0
 11
746.9237802408
 21
612.0330759662
 31
0.0
  0
LINE
  5
330
330
1F
100
AcDbEntity
  8
0
  6
Continuous
 62
     7
370
    15
100
AcDbLine
 10
746.9237802408
 20
612.0330759662
 30
0.0
 11
746.7498644314
 21
598.4434452624
 31
0.0
  0
LINE
  5
331
330
1F
100
AcDbEntity
  8
0
  6
Continuous
 62
     7
370
    15
100
AcDbLine
 10
746.7498644314
 20
598.4434452624
 30
0.0
 11
746.3822174719
 21
596.4091323785
 31
0.0
  0
LINE
  5
332
330
1F
100
AcDbEntity
  8
0
  6
Continuous
 62
     7
370
    15
100
AcDbLine
 10
745.5137142234
 20
595.9077561253
 30
0.0
 11
746.3822174719
 21
596.4091323785
 31
0.0
  0
ARC
  5
333
330
1F
100
AcDbEntity
  8
0
  6
Continuous
 62
     7
370
    15
100
AcDbCircle
 10
721.1579991936
 20
614.5080243375
 30
0.0
 40
0.5138818371850647
100
AcDbArc
 50
115.4097067481
 51
194.3765880483
  0
ARC
  5
334
330
1F
100
AcDbEntity
  8
0
  6
Continuous
 62
     7
370
    15
100
AcDbCircle
 10
720.7503630742
 20
612.4801332715
 30
0.0
 40
0.4770129119700015
100
AcDbArc
 50
169.9965749727
 51
196.3167694714
  0
LINE
  5
335
330
1F
100
AcDbEntity
  8
0
  6
Continuous
 62
     7
370
    15
100
AcDbLine
 10
720.9374985788
 20
614.972194588
 30
0.0
 11
724.7726784545
 21
617.1861968039
 31
0.0
  0
ARC
  5
336
330
1F
100
AcDbEntity
  8
0
  6
Continuous
 62
     7
370
    15
100
AcDbCircle
 10
725.280514157
 20
616.2679324174
 30
0.0
 40
1.04933625892762
100
AcDbArc
 50
95.6746626252
 51
118.9442899124
  0
ENDSEC
  0
SECTION
  2
OBJECTS
  0
DICTIONARY
  5
C
330
0
100
AcDbDictionary
281
     1
  3
ACAD_GROUP
350
D
  3
ACAD_LAYOUT
350
1A
  3
ACAD_MLINESTYLE
350
17
  3
ACAD_PLOTSETTINGS
350
19
  3
ACAD_PLOTSTYLENAME
350
E
  3
ACAD_SCALELIST
350
47
  0
DICTIONARY
  5
D
102
{ACAD_REACTORS
330
C
102
}
330
C
100
AcDbDictionary
281
     1
  0
DICTIONARY
  5
1A
102
{ACAD_REACTORS
330
C
102
}
330
C
100
AcDbDictionary
281
     1
  3
Layout1
350
1E
  3
Layout2
350
26
  3
Model
350
22
  0
DICTIONARY
  5
17
102
{ACAD_REACTORS
330
C
102
}
330
C
100
AcDbDictionary
281
     1
  3
Standard
350
18
  0
DICTIONARY
  5
19
102
{ACAD_REACTORS
330
C
102
}
330
C
100
AcDbDictionary
281
     1
  0
ACDBDICTIONARYWDFLT
  5
E
102
{ACAD_REACTORS
330
C
102
}
330
C
100
AcDbDictionary
281
     1
  3
Normal
350
F
100
AcDbDictionaryWithDefault
340
F
  0
DICTIONARY
  5
47
102
{ACAD_REACTORS
330
C
102
}
330
C
100
AcDbDictionary
281
     1
  3
A0
350
48
  3
A1
350
49
  3
A2
350
4A
  3
A3
350
4B
  3
A4
350
4C
  3
A5
350
4D
  3
A6
350
4E
  3
A7
350
4F
  3
A8
350
50
  3
A9
350
51
  3
B0
350
52
  3
B1
350
53
  3
B2
350
54
  3
B3
350
55
  3
B4
350
56
  3
B5
350
57
  3
B6
350
58
  3
B7
350
59
  3
B8
350
5A
  3
B9
350
5B
  3
C0
350
5C
  3
C1
350
5D
  3
C2
350
5E
  3
C3
350
5F
  3
C4
350
60
  3
C5
350
61
  3
C6
350
62
  3
C7
350
63
  3
C8
350
64
  3
C9
350
65
  3
D0
350
66
  3
D1
350
67
  3
D2
350
68
  0
LAYOUT
  5
1E
102
{ACAD_REACTORS
330
1A
102
}
330
1A
100
AcDbPlotSettings
  1

  2
none_device
  4

  6

 40
0.0
 41
0.0
 42
0.0
 43
0.0
 44
0.0
 45
0.0
 46
0.0
 47
0.0
 48
0.0
 49
0.0
140
0.0
141
0.0
142
1.0
143
1.0
 70
   688
 72
     1
 73
     0
 74
     5
  7

 75
    16
147
1.0
148
0.0
149
0.0
100
AcDbLayout
  1
Layout1
 70
     1
 71
     1
 10
0.0
 20
0.0
 11
420.0
 21
297.0
 12
0.0
 22
0.0
 32
0.0
 14
1.0000000000E+20
 24
1.0000000000E+20
 34
1.0000000000E+20
 15
-1.0000000000E+20
 25
-1.0000000000E+20
 35
-1.0000000000E+20
146
0.0
 13
0.0
 23
0.0
 33
0.0
 16
1.0
 26
0.0
 36
0.0
 17
0.0
 27
1.0
 37
0.0
 76
     0
330
1B
  0
LAYOUT
  5
26
102
{ACAD_REACTORS
330
1A
102
}
330
1A
100
AcDbPlotSettings
  1

  2
none_device
  4

  6

 40
0.0
 41
0.0
 42
0.0
 43
0.0
 44
0.0
 45
0.0
 46
0.0
 47
0.0
 48
0.0
 49
0.0
140
0.0
141
0.0
142
1.0
143
1.0
 70
   688
 72
     1
 73
     0
 74
     5
  7

 75
    16
147
1.0
148
0.0
149
0.0
100
AcDbLayout
  1
Layout2
 70
     1
 71
     2
 10
0.0
 20
0.0
 11
0.0
 21
0.0
 12
0.0
 22
0.0
 32
0.0
 14
0.0
 24
0.0
 34
0.0
 15
0.0
 25
0.0
 35
0.0
146
0.0
 13
0.0
 23
0.0
 33
0.0
 16
1.0
 26
0.0
 36
0.0
 17
0.0
 27
1.0
 37
0.0
 76
     0
330
23
  0
LAYOUT
  5
22
102
{ACAD_REACTORS
330
1A
102
}
330
1A
100
AcDbPlotSettings
  1

  2
none_device
  4
Letter_(8.50_x_11.00_Inches)
  6

 40
6.35
 41
6.35
 42
6.35000508
 43
6.35000508
 44
215.9
 45
279.4
 46
0.0
 47
0.0
 48
0.0
 49
0.0
140
0.0
141
0.0
142
1.0
143
1.0
 70
  1712
 72
     1
 73
     0
 74
     0
  7

 75
     0
147
1.0
148
0.0
149
0.0
100
AcDbLayout
  1
Model
 70
     1
 71
     0
 10
0.0
 20
0.0
 11
1189.0
 21
841.0
 12
0.0
 22
0.0
 32
0.0
 14
0.0
 24
0.0
 34
0.0
 15
1189.0
 25
841.0
 35
0.0
146
0.0
 13
0.0
 23
0.0
 33
0.0
 16
1.0
 26
0.0
 36
0.0
 17
0.0
 27
1.0
 37
0.0
 76
     0
330
1F
331
29
  0
MLINESTYLE
  5
18
102
{ACAD_REACTORS
330
17
102
}
330
17
100
AcDbMlineStyle
  2
Standard
 70
     0
  3

 62
   256
 51
90.0
 52
90.0
 71
     2
 49
0.5
 62
   256
  6
BYLAYER
 49
-0.5
 62
   256
  6
BYLAYER
  0
ACDBPLACEHOLDER
  5
F
102
{ACAD_REACTORS
330
E
102
}
330
E
  0
SCALE
  5
48
102
{ACAD_REACTORS
330
47
102
}
330
47
100
AcDbScale
 70
     0
300
1:1
140
1.0
141
1.0
290
     1
  0
SCALE
  5
49
102
{ACAD_REACTORS
330
47
102
}
330
47
100
AcDbScale
 70
     0
300
1:2
140
1.0
141
2.0
290
     0
  0
SCALE
  5
4A
102
{ACAD_REACTORS
330
47
102
}
330
47
100
AcDbScale
 70
     0
300
1:4
140
1.0
141
4.0
290
     0
  0
SCALE
  5
4B
102
{ACAD_REACTORS
330
47
102
}
330
47
100
AcDbScale
 70
     0
300
1:5
140
1.0
141
5.0
290
     0
  0
SCALE
  5
4C
102
{ACAD_REACTORS
330
47
102
}
330
47
100
AcDbScale
 70
     0
300
1:8
140
1.0
141
8.0
290
     0
  0
SCALE
  5
4D
102
{ACAD_REACTORS
330
47
102
}
330
47
100
AcDbScale
 70
     0
300
1:10
140
1.0
141
10.0
290
     0
  0
SCALE
  5
4E
102
{ACAD_REACTORS
330
47
102
}
330
47
100
AcDbScale
 70
     0
300
1:16
140
1.0
141
16.0
290
     0
  0
SCALE
  5
4F
102
{ACAD_REACTORS
330
47
102
}
330
47
100
AcDbScale
 70
     0
300
1:20
140
1.0
141
20.0
290
     0
  0
SCALE
  5
50
102
{ACAD_REACTORS
330
47
102
}
330
47
100
AcDbScale
 70
     0
300
1:30
140
1.0
141
30.0
290
     0
  0
SCALE
  5
51
102
{ACAD_REACTORS
330
47
102
}
330
47
100
AcDbScale
 70
     0
300
1:40
140
1.0
141
40.0
290
     0
  0
SCALE
  5
52
102
{ACAD_REACTORS
330
47
102
}
330
47
100
AcDbScale
 70
     0
300
1:50
140
1.0
141
50.0
290
     0
  0
SCALE
  5
53
102
{ACAD_REACTORS
330
47
102
}
330
47
100
AcDbScale
 70
     0
300
1:100
140
1.0
141
100.0
290
     0
  0
SCALE
  5
54
102
{ACAD_REACTORS
330
47
102
}
330
47
100
AcDbScale
 70
     0
300
2:1
140
2.0
141
1.0
290
     0
  0
SCALE
  5
55
102
{ACAD_REACTORS
330
47
102
}
330
47
100
AcDbScale
 70
     0
300
4:1
140
4.0
141
1.0
290
     0
  0
SCALE
  5
56
102
{ACAD_REACTORS
330
47
102
}
330
47
100
AcDbScale
 70
     0
300
8:1
140
8.0
141
1.0
290
     0
  0
SCALE
  5
57
102
{ACAD_REACTORS
330
47
102
}
330
47
100
AcDbScale
 70
     0
300
10:1
140
10.0
141
1.0
290
     0
  0
SCALE
  5
58
102
{ACAD_REACTORS
330
47
102
}
330
47
100
AcDbScale
 70
     0
300
100:1
140
100.0
141
1.0
290
     0
  0
SCALE
  5
59
102
{ACAD_REACTORS
330
47
102
}
330
47
100
AcDbScale
 70
     0
300
1/128" = 1'-0"
140
0.0078125
141
12.0
290
     0
  0
SCALE
  5
5A
102
{ACAD_REACTORS
330
47
102
}
330
47
100
AcDbScale
 70
     0
300
1/64" = 1'-0"
140
0.015625
141
12.0
290
     0
  0
SCALE
  5
5B
102
{ACAD_REACTORS
330
47
102
}
330
47
100
AcDbScale
 70
     0
300
1/32" = 1'-0"
140
0.03125
141
12.0
290
     0
  0
SCALE
  5
5C
102
{ACAD_REACTORS
330
47
102
}
330
47
100
AcDbScale
 70
     0
300
1/16" = 1'-0"
140
0.0625
141
12.0
290
     0
  0
SCALE
  5
5D
102
{ACAD_REACTORS
330
47
102
}
330
47
100
AcDbScale
 70
     0
300
3/32" = 1'-0"
140
0.09375
141
12.0
290
     0
  0
SCALE
  5
5E
102
{ACAD_REACTORS
330
47
102
}
330
47
100
AcDbScale
 70
     0
300
1/8" = 1'-0"
140
0.125
141
12.0
290
     0
  0
SCALE
  5
5F
102
{ACAD_REACTORS
330
47
102
}
330
47
100
AcDbScale
 70
     0
300
3/16" = 1'-0"
140
0.1875
141
12.0
290
     0
  0
SCALE
  5
60
102
{ACAD_REACTORS
330
47
102
}
330
47
100
AcDbScale
 70
     0
300
1/4" = 1'-0"
140
0.25
141
12.0
290
     0
  0
SCALE
  5
61
102
{ACAD_REACTORS
330
47
102
}
330
47
100
AcDbScale
 70
     0
300
3/8" = 1'-0"
140
0.375
141
12.0
290
     0
  0
SCALE
  5
62
102
{ACAD_REACTORS
330
47
102
}
330
47
100
AcDbScale
 70
     0
300
1/2" = 1'-0"
140
0.5
141
12.0
290
     0
  0
SCALE
  5
63
102
{ACAD_REACTORS
330
47
102
}
330
47
100
AcDbScale
 70
     0
300
3/4" = 1'-0"
140
0.75
141
12.0
290
     0
  0
SCALE
  5
64
102
{ACAD_REACTORS
330
47
102
}
330
47
100
AcDbScale
 70
     0
300
1" = 1'-0"
140
1.0
141
12.0
290
     0
  0
SCALE
  5
65
102
{ACAD_REACTORS
330
47
102
}
330
47
100
AcDbScale
 70
     0
300
1-1/2" = 1'-0"
140
1.5
141
12.0
290
     0
  0
SCALE
  5
66
102
{ACAD_REACTORS
330
47
102
}
330
47
100
AcDbScale
 70
     0
300
3" = 1'-0"
140
3.0
141
12.0
290
     0
  0
SCALE
  5
67
102
{ACAD_REACTORS
330
47
102
}
330
47
100
AcDbScale
 70
     0
300
6" = 1'-0"
140
6.0
141
12.0
290
     0
  0
SCALE
  5
68
102
{ACAD_REACTORS
330
47
102
}
330
47
100
AcDbScale
 70
     0
300
1'-0" = 1'-0"
140
12.0
141
12.0
290
     0
  0
ENDSEC
  0
EOF
