  0
SECTION
  2
HEADER
  9
$ACADVER
  1
AC1015
  9
$ACADMAINTVER
 70
     6
  9
$DWGCODEPAGE
  3
ANSI_1252
  9
$INSBASE
 10
0.0
 20
0.0
 30
0.0
  9
$EXTMIN
 10
0.0
 20
0.0
 30
0.0
  9
$EXTMAX
 10
1189.0
 20
841.0
 30
0.0
  9
$LIMMIN
 10
0.0
 20
0.0
  9
$LIMMAX
 10
1189.0
 20
841.0
  9
$ORTHOMODE
 70
     0
  9
$REGENMODE
 70
     1
  9
$FILLMODE
 70
     1
  9
$QTEXTMODE
 70
     0
  9
$MIRRTEXT
 70
     1
  9
$LTSCALE
 40
1.0
  9
$ATTMODE
 70
     1
  9
$TEXTSIZE
 40
3.5
  9
$TRACEWID
 40
1.0
  9
$TEXTSTYLE
  7
Standard
  9
$CLAYER
  8
0
  9
$CELTYPE
  6
ByLayer
  9
$CECOLOR
 62
   256
  9
$CELTSCALE
 40
1.0
  9
$DISPSILH
 70
     0
  9
$DIMSCALE
 40
1.0
  9
$DIMASZ
 40
3.302
  9
$DIMEXO
 40
1.0
  9
$DIMDLI
 40
3.75
  9
$DIMRND
 40
0.0
  9
$DIMDLE
 40
0.0
  9
$DIMEXE
 40
1.0
  9
$DIMTP
 40
0.0
  9
$DIMTM
 40
0.0
  9
$DIMTXT
 40
3.5
  9
$DIMCEN
 40
2.5
  9
$DIMTSZ
 40
0.0
  9
$DIMTOL
 70
     0
  9
$DIMLIM
 70
     0
  9
$DIMTIH
 70
     1
  9
$DIMTOH
 70
     1
  9
$DIMSE1
 70
     0
  9
$DIMSE2
 70
     0
  9
$DIMTAD
 70
     1
  9
$DIMZIN
 70
     0
  9
$DIMBLK
  1

  9
$DIMASO
 70
     1
  9
$DIMSHO
 70
     1
  9
$DIMPOST
  1

  9
$DIMAPOST
  1

  9
$DIMALT
 70
     0
  9
$DIMALTD
 70
     3
  9
$DIMALTF
 40
0.0393700787
  9
$DIMLFAC
 40
5.0
  9
$DIMTOFL
 70
     1
  9
$DIMTVP
 40
0.0
  9
$DIMTIX
 70
     0
  9
$DIMSOXD
 70
     0
  9
$DIMSAH
 70
     0
  9
$DIMBLK1
  1

  9
$DIMBLK2
  1

  9
$DIMSTYLE
  2
ISO-25
  9
$DIMCLRD
 70
     0
  9
$DIMCLRE
 70
     0
  9
$DIMCLRT
 70
     0
  9
$DIMTFAC
 40
1.0
  9
$DIMGAP
 40
1.524
  9
$DIMJUST
 70
     0
  9
$DIMSD1
 70
     0
  9
$DIMSD2
 70
     0
  9
$DIMTOLJ
 70
     0
  9
$DIMTZIN
 70
     0
  9
$DIMALTZ
 70
     0
  9
$DIMALTTZ
 70
     0
  9
$DIMUPT
 70
     0
  9
$DIMDEC
 70
     2
  9
$DIMTDEC
 70
     2
  9
$DIMALTU
 70
     2
  9
$DIMALTTD
 70
     3
  9
$DIMTXSTY
  7
Standard
  9
$DIMAUNIT
 70
     0
  9
$DIMADEC
 70
     2
  9
$DIMALTRND
 40
0.0
  9
$DIMAZIN
 70
     0
  9
$DIMDSEP
 70
    44
  9
$DIMATFIT
 70
     3
  9
$DIMFRAC
 70
     0
  9
$DIMLDRBLK
  1

  9
$DIMLUNIT
 70
     2
  9
$DIMLWD
 70
    -2
  9
$DIMLWE
 70
    -2
  9
$DIMTMOVE
 70
     0
  9
$LUNITS
 70
     2
  9
$LUPREC
 70
     2
  9
$SKETCHINC
 40
1.0
  9
$FILLETRAD
 40
10.0
  9
$AUNITS
 70
     0
  9
$AUPREC
 70
     2
  9
$MENU
  1
.
  9
$ELEVATION
 40
0.0
  9
$PELEVATION
 40
0.0
  9
$THICKNESS
 40
0.0
  9
$LIMCHECK
 70
     0
  9
$CHAMFERA
 40
0.0
  9
$CHAMFERB
 40
0.0
  9
$CHAMFERC
 40
0.0
  9
$CHAMFERD
 40
0.0
  9
$SKPOLY
 70
     0
  9
$TDCREATE
 40
2458054.727158576
  9
$TDUCREATE
 40
2458054.68549191
  9
$TDUPDATE
 40
2458054.727158704
  9
$TDUUPDATE
 40
2458054.685492037
  9
$TDINDWG
 40
0.0000000116
  9
$TDUSRTIMER
 40
0.0000000116
  9
$USRTIMER
 70
     1
  9
$ANGBASE
 50
0.0
  9
$ANGDIR
 70
     0
  9
$PDMODE
 70
     0
  9
$PDSIZE
 40
-1.0
  9
$PLINEWID
 40
0.0
  9
$SPLFRAME
 70
     0
  9
$SPLINETYPE
 70
     6
  9
$SPLINESEGS
 70
     8
  9
$HANDSEED
  5
D9
  9
$SURFTAB1
 70
     6
  9
$SURFTAB2
 70
     6
  9
$SURFTYPE
 70
     6
  9
$SURFU
 70
     6
  9
$SURFV
 70
     6
  9
$UCSBASE
  2

  9
$UCSNAME
  2

  9
$UCSORG
 10
0.0
 20
0.0
 30
0.0
  9
$UCSXDIR
 10
1.0
 20
0.0
 30
0.0
  9
$UCSYDIR
 10
0.0
 20
1.0
 30
0.0
  9
$UCSORTHOREF
  2

  9
$UCSORTHOVIEW
 70
     0
  9
$UCSORGTOP
 10
0.0
 20
0.0
 30
0.0
  9
$UCSORGBOTTOM
 10
0.0
 20
0.0
 30
0.0
  9
$UCSORGLEFT
 10
0.0
 20
0.0
 30
0.0
  9
$UCSORGRIGHT
 10
0.0
 20
0.0
 30
0.0
  9
$UCSORGFRONT
 10
0.0
 20
0.0
 30
0.0
  9
$UCSORGBACK
 10
0.0
 20
0.0
 30
0.0
  9
$PUCSBASE
  2

  9
$PUCSNAME
  2

  9
$PUCSORG
 10
0.0
 20
0.0
 30
0.0
  9
$PUCSXDIR
 10
1.0
 20
0.0
 30
0.0
  9
$PUCSYDIR
 10
0.0
 20
1.0
 30
0.0
  9
$PUCSORTHOREF
  2

  9
$PUCSORTHOVIEW
 70
     0
  9
$PUCSORGTOP
 10
0.0
 20
0.0
 30
0.0
  9
$PUCSORGBOTTOM
 10
0.0
 20
0.0
 30
0.0
  9
$PUCSORGLEFT
 10
0.0
 20
0.0
 30
0.0
  9
$PUCSORGRIGHT
 10
0.0
 20
0.0
 30
0.0
  9
$PUCSORGFRONT
 10
0.0
 20
0.0
 30
0.0
  9
$PUCSORGBACK
 10
0.0
 20
0.0
 30
0.0
  9
$USERI1
 70
     0
  9
$USERI2
 70
     0
  9
$USERI3
 70
     0
  9
$USERI4
 70
     0
  9
$USERI5
 70
     0
  9
$USERR1
 40
0.0
  9
$USERR2
 40
0.0
  9
$USERR3
 40
0.0
  9
$USERR4
 40
0.0
  9
$USERR5
 40
0.0
  9
$WORLDVIEW
 70
     1
  9
$SHADEDGE
 70
     3
  9
$SHADEDIF
 70
    70
  9
$TILEMODE
 70
     1
  9
$MAXACTVP
 70
    64
  9
$PINSBASE
 10
0.0
 20
0.0
 30
0.0
  9
$PLIMCHECK
 70
     0
  9
$PEXTMIN
 10
1.0000000000E+20
 20
1.0000000000E+20
 30
1.0000000000E+20
  9
$PEXTMAX
 10
-1.0000000000E+20
 20
-1.0000000000E+20
 30
-1.0000000000E+20
  9
$PLIMMIN
 10
0.0
 20
0.0
  9
$PLIMMAX
 10
420.0
 20
297.0
  9
$UNITMODE
 70
     0
  9
$VISRETAIN
 70
     1
  9
$PLINEGEN
 70
     0
  9
$PSLTSCALE
 70
     1
  9
$TREEDEPTH
 70
  3020
  9
$CMLSTYLE
  2
Standard
  9
$CMLJUST
 70
     0
  9
$CMLSCALE
 40
20.0
  9
$PROXYGRAPHICS
 70
     1
  9
$MEASUREMENT
 70
     1
  9
$CELWEIGHT
370
    -1
  9
$ENDCAPS
280
     0
  9
$JOINSTYLE
280
     0
  9
$LWDISPLAY
290
     1
  9
$INSUNITS
 70
     4
  9
$HYPERLINKBASE
  1

  9
$STYLESHEET
  1

  9
$XEDIT
290
     1
  9
$CEPSNTYPE
380
     0
  9
$PSTYLEMODE
290
     1
  9
$FINGERPRINTGUID
  2
{3ACD2D00-34ED-4C00-97CA-4BC8379E77D5}
  9
$VERSIONGUID
  2
{FAEB1C32-E019-11D5-929B-00C0DF256EC4}
  9
$EXTNAMES
290
     1
  9
$PSVPSCALE
 40
0.0
  9
$OLESTARTUP
290
     0
  0
ENDSEC
  0
SECTION
  2
CLASSES
  0
CLASS
  1
ACDBDICTIONARYWDFLT
  2
AcDbDictionaryWithDefault
  3
ObjectDBX Classes
 90
        0
280
     0
281
     0
  0
CLASS
  1
VISUALSTYLE
  2
AcDbVisualStyle
  3
ObjectDBX Classes
 90
     4095
280
     0
281
     0
  0
CLASS
  1
MATERIAL
  2
AcDbMaterial
  3
ObjectDBX Classes
 90
     1153
280
     0
281
     0
  0
CLASS
  1
SCALE
  2
AcDbScale
  3
ObjectDBX Classes
 90
     1153
280
     0
281
     0
  0
CLASS
  1
TABLESTYLE
  2
AcDbTableStyle
  3
ObjectDBX Classes
 90
     4095
280
     0
281
     0
  0
CLASS
  1
MLEADERSTYLE
  2
AcDbMLeaderStyle
  3
ACDB_MLEADERSTYLE_CLASS
 90
     4095
280
     0
281
     0
  0
CLASS
  1
SUN
  2
AcDbSun
  3
SCENEOE
 90
     1153
280
     0
281
     0
  0
CLASS
  1
ACDBPLACEHOLDER
  2
AcDbPlaceHolder
  3
ObjectDBX Classes
 90
        0
280
     0
281
     0
  0
CLASS
  1
LAYOUT
  2
AcDbLayout
  3
ObjectDBX Classes
 90
        0
280
     0
281
     0
  0
ENDSEC
  0
SECTION
  2
TABLES
  0
TABLE
  2
VPORT
  5
8
330
0
100
AcDbSymbolTable
 70
     1
  0
VPORT
  5
29
330
8
100
AcDbSymbolTableRecord
100
AcDbViewportTableRecord
  2
*Active
 70
     0
 10
0.0
 20
0.0
 11
1.0
 21
1.0
 12
594.5
 22
420.5
 13
0.0
 23
0.0
 14
10.0
 24
10.0
 15
10.0
 25
10.0
 16
0.0
 26
0.0
 36
1.0
 17
0.0
 27
0.0
 37
0.0
 40
841.0
 41
1.4137931034
 42
50.0
 43
0.0
 44
0.0
 50
0.0
 51
0.0
 71
     0
 72
  2000
 73
     1
 74
     3
 75
     0
 76
     0
 77
     0
 78
     0
281
     0
 65
     1
110
0.0
120
0.0
130
0.0
111
1.0
121
0.0
131
0.0
112
0.0
122
1.0
132
0.0
 79
     0
146
0.0
  0
ENDTAB
  0
TABLE
  2
LTYPE
  5
5
330
0
100
AcDbSymbolTable
 70
     6
  0
LTYPE
  5
14
330
5
100
AcDbSymbolTableRecord
100
AcDbLinetypeTableRecord
  2
ByBlock
 70
     0
  3

 72
    65
 73
     0
 40
0.0
  0
LTYPE
  5
15
330
5
100
AcDbSymbolTableRecord
100
AcDbLinetypeTableRecord
  2
ByLayer
 70
     0
  3

 72
    65
 73
     0
 40
0.0
  0
LTYPE
  5
16
330
5
100
AcDbSymbolTableRecord
100
AcDbLinetypeTableRecord
  2
Continuous
 70
     0
  3
Solid line
 72
    65
 73
     0
 40
0.0
  0
LTYPE
  5
6E
330
5
100
AcDbSymbolTableRecord
100
AcDbLinetypeTableRecord
  2
HIDDEN
 70
     0
  3
Hidden __ __ __ __ __ __ __ __ __ __ __ __ __ __
 72
    65
 73
     2
 40
1.905
 49
1.27
 74
     0
 49
-0.635
 74
     0
  0
LTYPE
  5
6F
330
5
100
AcDbSymbolTableRecord
100
AcDbLinetypeTableRecord
  2
PHANTOM
 70
     0
  3
Phantom ______  __  __  ______  __  __  ______
 72
    65
 73
     6
 40
12.7
 49
6.35
 74
     0
 49
-1.27
 74
     0
 49
1.27
 74
     0
 49
-1.27
 74
     0
 49
1.27
 74
     0
 49
-1.27
 74
     0
  0
LTYPE
  5
70
330
5
100
AcDbSymbolTableRecord
100
AcDbLinetypeTableRecord
  2
CENTER
 70
     0
  3
Center ____ _ ____ _ ____ _ ____ _ ____ _ ____
 72
    65
 73
     4
 40
10.16
 49
6.35
 74
     0
 49
-1.27
 74
     0
 49
1.27
 74
     0
 49
-1.27
 74
     0
  0
LTYPE
  5
71
330
5
100
AcDbSymbolTableRecord
100
AcDbLinetypeTableRecord
  2
CENTERX2
 70
     0
  3
Center (2x) ________  __  ________  __  _____
 72
    65
 73
     4
 40
20.32
 49
12.7
 74
     0
 49
-2.54
 74
     0
 49
2.54
 74
     0
 49
-2.54
 74
     0
  0
LTYPE
  5
72
330
5
100
AcDbSymbolTableRecord
100
AcDbLinetypeTableRecord
  2
DOT2
 70
     0
  3
Dot (.5x) ........................................
 72
    65
 73
     2
 40
0.635
 49
0.0
 74
     0
 49
-0.635
 74
     0
  0
ENDTAB
  0
TABLE
  2
LAYER
  5
2
330
0
100
AcDbSymbolTable
 70
     2
  0
LAYER
  5
10
330
2
100
AcDbSymbolTableRecord
100
AcDbLayerTableRecord
  2
0
 70
     0
 62
     7
  6
Continuous
370
    -3
390
F
  0
LAYER
  5
73
330
2
100
AcDbSymbolTableRecord
100
AcDbLayerTableRecord
  2
FORMAT
 70
     0
 62
     7
  6
Continuous
370
    -3
390
F
  0
ENDTAB
  0
TABLE
  2
STYLE
  5
3
330
0
100
AcDbSymbolTable
 70
     1
  0
STYLE
  5
11
330
3
100
AcDbSymbolTableRecord
100
AcDbTextStyleTableRecord
  2
Standard
 70
     0
 40
0.0
 41
1.0
 50
0.0
 71
     0
 42
3.5
  3
txt
  4

  0
ENDTAB
  0
TABLE
  2
VIEW
  5
6
330
0
100
AcDbSymbolTable
 70
     0
  0
ENDTAB
  0
TABLE
  2
UCS
  5
7
330
0
100
AcDbSymbolTable
 70
     0
  0
ENDTAB
  0
TABLE
  2
APPID
  5
9
330
0
100
AcDbSymbolTable
 70
     1
  0
APPID
  5
12
330
9
100
AcDbSymbolTableRecord
100
AcDbRegAppTableRecord
  2
ACAD
 70
     0
  0
ENDTAB
  0
TABLE
  2
DIMSTYLE
  5
A
330
0
100
AcDbSymbolTable
 70
     1
100
AcDbDimStyleTable
  0
DIMSTYLE
105
27
330
A
100
AcDbSymbolTableRecord
100
AcDbDimStyleTableRecord
  2
ISO-25
 70
     0
 41
2.5
 42
0.625
 43
3.75
 44
1.25
 73
     0
 74
     0
 77
     1
 78
     8
140
2.5
141
2.5
143
0.0393700787
147
0.625
171
     3
172
     1
178
     0
271
     2
272
     2
274
     3
278
    44
283
     0
284
     8
340
11
  0
ENDTAB
  0
TABLE
  2
BLOCK_RECORD
  5
1
330
0
100
AcDbSymbolTable
 70
     2
  0
BLOCK_RECORD
  5
1F
330
1
100
AcDbSymbolTableRecord
100
AcDbBlockTableRecord
  2
*Model_Space
340
22
  0
BLOCK_RECORD
  5
1B
330
1
100
AcDbSymbolTableRecord
100
AcDbBlockTableRecord
  2
*Paper_Space
340
1E
  0
BLOCK_RECORD
  5
23
330
1
100
AcDbSymbolTableRecord
100
AcDbBlockTableRecord
  2
*Paper_Space0
340
26
  0
BLOCK_RECORD
  5
A7
330
1
100
AcDbSymbolTableRecord
100
AcDbBlockTableRecord
  2
SW_CENTERMARKSYMBOL_0
340
0
102
{BLKREFS
331
B2
102
}
  0
ENDTAB
  0
ENDSEC
  0
SECTION
  2
BLOCKS
  0
BLOCK
  5
20
330
1F
100
AcDbEntity
  8
0
100
AcDbBlockBegin
  2
*Model_Space
 70
     0
 10
0.0
 20
0.0
 30
0.0
  3
*Model_Space
  1

  0
ENDBLK
  5
21
330
1F
100
AcDbEntity
  8
0
100
AcDbBlockEnd
  0
BLOCK
  5
1C
330
1B
100
AcDbEntity
 67
     1
  8
0
100
AcDbBlockBegin
  2
*Paper_Space
 70
     0
 10
0.0
 20
0.0
 30
0.0
  3
*Paper_Space
  1

  0
ENDBLK
  5
1D
330
1B
100
AcDbEntity
 67
     1
  8
0
100
AcDbBlockEnd
  0
BLOCK
  5
24
330
23
100
AcDbEntity
  8
0
100
AcDbBlockBegin
  2
*Paper_Space0
 70
     0
 10
0.0
 20
0.0
 30
0.0
  3
*Paper_Space0
  1

  0
ENDBLK
  5
25
330
23
100
AcDbEntity
  8
0
100
AcDbBlockEnd
  0
BLOCK
  5
A8
330
A7
100
AcDbEntity
  8
0
100
AcDbBlockBegin
  2
SW_CENTERMARKSYMBOL_0
 70
     0
 10
0.0
 20
0.0
 30
0.0
  3
SW_CENTERMARKSYMBOL_0
  1

  0
LINE
  5
AA
330
A7
100
AcDbEntity
  8
0
  6
Continuous
 62
     0
370
     0
100
AcDbLine
 10
0.0
 20
0.0
 30
0.0
 11
0.0
 21
0.5
 31
0.0
  0
LINE
  5
AB
330
A7
100
AcDbEntity
  8
0
  6
Continuous
 62
     0
370
     0
100
AcDbLine
 10
0.0
 20
0.0
 30
0.0
 11
-0.5
 21
0.0
 31
0.0
  0
LINE
  5
AC
330
A7
100
AcDbEntity
  8
0
  6
Continuous
 62
     0
370
     0
100
AcDbLine
 10
0.0
 20
0.0
 30
0.0
 11
0.0
 21
-0.5
 31
0.0
  0
LINE
  5
AD
330
A7
100
AcDbEntity
  8
0
  6
Continuous
 62
     0
370
     0
100
AcDbLine
 10
0.0
 20
0.0
 30
0.0
 11
0.5
 21
0.0
 31
0.0
  0
LINE
  5
AE
330
A7
100
AcDbEntity
  8
0
  6
Continuous
 62
     0
370
     0
100
AcDbLine
 10
0.0
 20
1.0
 30
0.0
 11
0.0
 21
30.5
 31
0.0
  0
LINE
  5
AF
330
A7
100
AcDbEntity
  8
0
  6
Continuous
 62
     0
370
     0
100
AcDbLine
 10
-1.0
 20
0.0
 30
0.0
 11
-30.5
 21
0.0
 31
0.0
  0
LINE
  5
B0
330
A7
100
AcDbEntity
  8
0
  6
Continuous
 62
     0
370
     0
100
AcDbLine
 10
0.0
 20
-1.0
 30
0.0
 11
0.0
 21
-30.5
 31
0.0
  0
LINE
  5
B1
330
A7
100
AcDbEntity
  8
0
  6
Continuous
 62
     0
370
     0
100
AcDbLine
 10
1.0
 20
0.0
 30
0.0
 11
30.5
 21
0.0
 31
0.0
  0
ENDBLK
  5
A9
330
A7
100
AcDbEntity
  8
0
100
AcDbBlockEnd
  0
ENDSEC
  0
SECTION
  2
ENTITIES
  0
LINE
  5
74
330
1F
100
AcDbEntity
  8
0
  6
Continuous
 62
     7
370
    15
100
AcDbLine
 10
430.3313554798
 20
327.5282919267
 30
0.0
 11
428.3313554798
 21
329.5282919267
 31
0.0
  0
LINE
  5
75
330
1F
100
AcDbEntity
  8
0
  6
Continuous
 62
     7
370
    15
100
AcDbLine
 10
372.3313554798
 20
329.5282919267
 30
0.0
 11
370.3313554798
 21
327.5282919267
 31
0.0
  0
LINE
  5
76
330
1F
100
AcDbEntity
  8
0
  6
Continuous
 62
     7
370
    15
100
AcDbLine
 10
430.3313554798
 20
325.5282919267
 30
0.0
 11
430.3313554798
 21
327.5282919267
 31
0.0
  0
LINE
  5
77
330
1F
100
AcDbEntity
  8
0
  6
Continuous
 62
     7
370
    15
100
AcDbLine
 10
370.3313554798
 20
327.5282919267
 30
0.0
 11
370.3313554798
 21
325.5282919267
 31
0.0
  0
LINE
  5
78
330
1F
100
AcDbEntity
  8
0
  6
Continuous
 62
     7
370
    15
100
AcDbLine
 10
374.3313554798
 20
325.4282919267
 30
0.0
 11
374.3313554798
 21
325.0282919267
 31
0.0
  0
LINE
  5
79
330
1F
100
AcDbEntity
  8
0
  6
Continuous
 62
     7
370
    15
100
AcDbLine
 10
426.3313554798
 20
325.0282919267
 30
0.0
 11
426.3313554798
 21
325.4282919267
 31
0.0
  0
LINE
  5
7A
330
1F
100
AcDbEntity
  8
0
  6
Continuous
 62
     7
370
    15
100
AcDbLine
 10
430.3313554798
 20
327.5282919267
 30
0.0
 11
370.3313554798
 21
327.5282919267
 31
0.0
  0
LINE
  5
7B
330
1F
100
AcDbEntity
  8
0
  6
Continuous
 62
     7
370
    15
100
AcDbLine
 10
428.3313554798
 20
329.5282919267
 30
0.0
 11
372.3313554798
 21
329.5282919267
 31
0.0
  0
LINE
  5
7C
330
1F
100
AcDbEntity
  8
0
  6
Continuous
 62
     7
370
    15
100
AcDbLine
 10
430.3313554798
 20
325.5282919267
 30
0.0
 11
370.3313554798
 21
325.5282919267
 31
0.0
  0
LINE
  5
7D
330
1F
100
AcDbEntity
  8
0
  6
Continuous
 62
     7
370
    15
100
AcDbLine
 10
400.3313554798
 20
325.0282919267
 30
0.0
 11
426.3313554798
 21
325.0282919267
 31
0.0
  0
LINE
  5
7E
330
1F
100
AcDbEntity
  8
0
  6
Continuous
 62
     7
370
    15
100
AcDbLine
 10
374.3313554798
 20
325.0282919267
 30
0.0
 11
400.3313554798
 21
325.0282919267
 31
0.0
  0
LINE
  5
7F
330
1F
100
AcDbEntity
  8
0
  6
Continuous
 62
     7
370
    15
100
AcDbLine
 10
400.3313554798
 20
325.4282919267
 30
0.0
 11
426.3313554798
 21
325.4282919267
 31
0.0
  0
LINE
  5
80
330
1F
100
AcDbEntity
  8
0
  6
Continuous
 62
     7
370
    15
100
AcDbLine
 10
374.3313554798
 20
325.4282919267
 30
0.0
 11
400.3313554798
 21
325.4282919267
 31
0.0
  0
LINE
  5
81
330
1F
100
AcDbEntity
  8
0
  6
Continuous
 62
     7
370
    15
100
AcDbLine
 10
397.8313554798
 20
225.5282919267
 30
0.0
 11
367.1890120903
 21
225.5282919267
 31
0.0
  0
LINE
  5
82
330
1F
100
AcDbEntity
  8
0
  6
Continuous
 62
     7
370
    15
100
AcDbLine
 10
366.0954725714
 20
220.5282919267
 30
0.0
 11
397.8313554798
 21
220.5282919267
 31
0.0
  0
LINE
  5
83
330
1F
100
AcDbEntity
  8
0
  6
Continuous
 62
     7
370
    15
100
AcDbLine
 10
402.8313554798
 20
225.5282919267
 30
0.0
 11
433.4736988694
 21
225.5282919267
 31
0.0
  0
LINE
  5
84
330
1F
100
AcDbEntity
  8
0
  6
Continuous
 62
     7
370
    15
100
AcDbLine
 10
402.8313554798
 20
220.5282919267
 30
0.0
 11
434.5672383883
 21
220.5282919267
 31
0.0
  0
LINE
  5
85
330
1F
100
AcDbEntity
  8
0
  6
Continuous
 62
     7
370
    15
100
AcDbLine
 10
397.8313554798
 20
325.0282919267
 30
0.0
 11
397.8313554798
 21
185.5282919267
 31
0.0
  0
LINE
  5
86
330
1F
100
AcDbEntity
  8
0
  6
Continuous
 62
     7
370
    15
100
AcDbLine
 10
402.8313554798
 20
325.0282919267
 30
0.0
 11
402.8313554798
 21
185.5282919267
 31
0.0
  0
LINE
  5
87
330
1F
100
AcDbEntity
  8
0
  6
Continuous
 62
     7
370
    15
100
AcDbLine
 10
402.8313554798
 20
185.5282919267
 30
0.0
 11
397.8313554798
 21
185.5282919267
 31
0.0
  0
LINE
  5
88
330
1F
100
AcDbEntity
  8
0
  6
Continuous
 62
     7
370
    15
100
AcDbLine
 10
383.8322624432
 20
325.0282919267
 30
0.0
 11
353.3225098659
 21
185.5282919267
 31
0.0
  0
LINE
  5
89
330
1F
100
AcDbEntity
  8
0
  6
Continuous
 62
     7
370
    15
100
AcDbLine
 10
387.8569089975
 20
320.0282919267
 30
0.0
 11
358.4406959391
 21
185.5282919267
 31
0.0
  0
LINE
  5
8A
330
1F
100
AcDbEntity
  8
0
  6
Continuous
 62
     7
370
    15
100
AcDbLine
 10
358.4406959391
 20
185.5282919267
 30
0.0
 11
353.3225098659
 21
185.5282919267
 31
0.0
  0
LINE
  5
8B
330
1F
100
AcDbEntity
  8
0
  6
Continuous
 62
     7
370
    15
100
AcDbLine
 10
397.8313554798
 20
320.0282919267
 30
0.0
 11
387.8569089975
 21
320.0282919267
 31
0.0
  0
LINE
  5
8C
330
1F
100
AcDbEntity
  8
0
  6
Continuous
 62
     7
370
    15
100
AcDbLine
 10
412.8058019621
 20
320.0282919267
 30
0.0
 11
442.2220150206
 21
185.5282919267
 31
0.0
  0
LINE
  5
8D
330
1F
100
AcDbEntity
  8
0
  6
Continuous
 62
     7
370
    15
100
AcDbLine
 10
416.8304485164
 20
325.0282919267
 30
0.0
 11
447.3402010937
 21
185.5282919267
 31
0.0
  0
LINE
  5
8E
330
1F
100
AcDbEntity
  8
0
  6
Continuous
 62
     7
370
    15
100
AcDbLine
 10
447.3402010937
 20
185.5282919267
 30
0.0
 11
442.2220150206
 21
185.5282919267
 31
0.0
  0
LINE
  5
8F
330
1F
100
AcDbEntity
  8
0
  6
Continuous
 62
     7
370
    15
100
AcDbLine
 10
412.8058019621
 20
320.0282919267
 30
0.0
 11
402.8313554798
 21
320.0282919267
 31
0.0
  0
CIRCLE
  5
90
330
1F
100
AcDbEntity
  8
0
  6
Continuous
 62
     7
370
    15
100
AcDbCircle
 10
400.3313554798
 20
595.8215351259
 30
0.0
 40
30.0
  0
CIRCLE
  5
91
330
1F
100
AcDbEntity
  8
0
  6
Continuous
 62
     7
370
    15
100
AcDbCircle
 10
400.3313554798
 20
595.8215351259
 30
0.0
 40
28.0
  0
CIRCLE
  5
92
330
1F
100
AcDbEntity
  8
0
  6
Continuous
 62
     7
370
    15
100
AcDbCircle
 10
400.3313554798
 20
595.8215351259
 30
0.0
 40
26.0
  0
LINE
  5
93
330
1F
100
AcDbEntity
  8
0
  6
Continuous
 62
     7
370
    15
100
AcDbLine
 10
433.1866945391
 20
598.3215351259
 30
0.0
 11
429.735064409
 21
601.773165256
 31
0.0
  0
LINE
  5
94
330
1F
100
AcDbEntity
  8
0
  6
Continuous
 62
     7
370
    15
100
AcDbLine
 10
406.2829856099
 20
625.2252440551
 30
0.0
 11
402.8313554798
 21
628.6768741852
 31
0.0
  0
LINE
  5
95
330
1F
100
AcDbEntity
  8
0
  6
Continuous
 62
     7
370
    15
100
AcDbLine
 10
402.8313554798
 20
562.9661960665
 30
0.0
 11
406.2829856099
 21
566.4178261967
 31
0.0
  0
LINE
  5
96
330
1F
100
AcDbEntity
  8
0
  6
Continuous
 62
     7
370
    15
100
AcDbLine
 10
429.735064409
 20
589.8699049958
 30
0.0
 11
433.1866945391
 21
593.3215351259
 31
0.0
  0
LINE
  5
97
330
1F
100
AcDbEntity
  8
0
  6
Continuous
 62
     7
370
    15
100
AcDbLine
 10
397.8313554798
 20
562.9661960665
 30
0.0
 11
394.3797253497
 21
566.4178261967
 31
0.0
  0
LINE
  5
98
330
1F
100
AcDbEntity
  8
0
  6
Continuous
 62
     7
370
    15
100
AcDbLine
 10
370.9276465506
 20
589.8699049958
 30
0.0
 11
367.4760164205
 21
593.3215351259
 31
0.0
  0
LINE
  5
99
330
1F
100
AcDbEntity
  8
0
  6
Continuous
 62
     7
370
    15
100
AcDbLine
 10
367.4760164205
 20
598.3215351259
 30
0.0
 11
370.9276465506
 21
601.773165256
 31
0.0
  0
LINE
  5
9A
330
1F
100
AcDbEntity
  8
0
  6
Continuous
 62
     7
370
    15
100
AcDbLine
 10
394.3797253497
 20
625.2252440551
 30
0.0
 11
397.8313554798
 21
628.6768741852
 31
0.0
  0
LINE
  5
9B
330
1F
100
AcDbEntity
  8
0
  6
Continuous
 62
     7
370
    15
100
AcDbLine
 10
397.8313554798
 20
642.8303807398
 30
0.0
 11
402.8313554798
 21
642.8303807398
 31
0.0
  0
LINE
  5
9C
330
1F
100
AcDbEntity
  8
0
  6
Continuous
 62
     7
370
    15
100
AcDbLine
 10
397.8313554798
 20
625.7171869836
 30
0.0
 11
397.8313554798
 21
642.8303807398
 31
0.0
  0
LINE
  5
9D
330
1F
100
AcDbEntity
  8
0
  6
Continuous
 62
     7
370
    15
100
AcDbLine
 10
402.8313554798
 20
625.7171869836
 30
0.0
 11
402.8313554798
 21
642.8303807398
 31
0.0
  0
LINE
  5
9E
330
1F
100
AcDbEntity
  8
0
  6
Continuous
 62
     7
370
    15
100
AcDbLine
 10
447.3402010937
 20
598.3215351259
 30
0.0
 11
447.3402010937
 21
593.3215351259
 31
0.0
  0
LINE
  5
9F
330
1F
100
AcDbEntity
  8
0
  6
Continuous
 62
     7
370
    15
100
AcDbLine
 10
430.2270073376
 20
593.3215351259
 30
0.0
 11
447.3402010937
 21
593.3215351259
 31
0.0
  0
LINE
  5
A0
330
1F
100
AcDbEntity
  8
0
  6
Continuous
 62
     7
370
    15
100
AcDbLine
 10
430.2270073376
 20
598.3215351259
 30
0.0
 11
447.3402010937
 21
598.3215351259
 31
0.0
  0
LINE
  5
A1
330
1F
100
AcDbEntity
  8
0
  6
Continuous
 62
     7
370
    15
100
AcDbLine
 10
353.3225098659
 20
593.3215351259
 30
0.0
 11
353.3225098659
 21
598.3215351259
 31
0.0
  0
LINE
  5
A2
330
1F
100
AcDbEntity
  8
0
  6
Continuous
 62
     7
370
    15
100
AcDbLine
 10
370.4357036221
 20
593.3215351259
 30
0.0
 11
353.3225098659
 21
593.3215351259
 31
0.0
  0
LINE
  5
A3
330
1F
100
AcDbEntity
  8
0
  6
Continuous
 62
     7
370
    15
100
AcDbLine
 10
370.4357036221
 20
598.3215351259
 30
0.0
 11
353.3225098659
 21
598.3215351259
 31
0.0
  0
LINE
  5
A4
330
1F
100
AcDbEntity
  8
0
  6
Continuous
 62
     7
370
    15
100
AcDbLine
 10
402.8313554798
 20
548.812689512
 30
0.0
 11
397.8313554798
 21
548.812689512
 31
0.0
  0
LINE
  5
A5
330
1F
100
AcDbEntity
  8
0
  6
Continuous
 62
     7
370
    15
100
AcDbLine
 10
397.8313554798
 20
565.9258832681
 30
0.0
 11
397.8313554798
 21
548.812689512
 31
0.0
  0
LINE
  5
A6
330
1F
100
AcDbEntity
  8
0
  6
Continuous
 62
     7
370
    15
100
AcDbLine
 10
402.8313554798
 20
565.9258832681
 30
0.0
 11
402.8313554798
 21
548.812689512
 31
0.0
  0
INSERT
  5
B2
330
1F
100
AcDbEntity
  8
0
  6
Continuous
 62
     7
370
     0
100
AcDbBlockReference
  2
SW_CENTERMARKSYMBOL_0
 10
400.3313554798
 20
595.8215351259
 30
0.0
  0
LINE
  5
B3
330
1F
100
AcDbEntity
  8
0
  6
Continuous
 62
     7
370
    15
100
AcDbLine
 10
751.0380791191
 20
660.1931406593
 30
0.0
 11
749.6236357633
 21
661.0099468497
 31
0.0
  0
LINE
  5
B4
330
1F
100
AcDbEntity
  8
0
  6
Continuous
 62
     7
370
    15
100
AcDbLine
 10
710.0192218
 20
661.0099468497
 30
0.0
 11
708.6047784442
 21
660.1931406593
 31
0.0
  0
LINE
  5
B5
330
1F
100
AcDbEntity
  8
0
  6
Continuous
 62
     7
370
    15
100
AcDbLine
 10
759.8214287817
 20
646.3159275356
 30
0.0
 11
759.8214287817
 21
647.9490091594
 31
0.0
  0
LINE
  5
B6
330
1F
100
AcDbEntity
  8
0
  6
Continuous
 62
     7
370
    15
100
AcDbLine
 10
699.8214287817
 20
647.9490091594
 30
0.0
 11
699.8214287817
 21
646.3159275356
 31
0.0
  0
LWPOLYLINE
  5
B7
330
1F
100
AcDbEntity
  8
0
  6
Continuous
 62
     7
370
    15
100
AcDbPolyline
 90
       99
 70
   128
 43
0.0
 10
751.0346322172
 20
660.1951308367
 10
752.034741556
 20
659.5891786201
 10
752.9829706735
 20
658.9560402484
 10
753.8771049368
 20
658.2971944455
 10
754.7150560537
 20
657.6141799764
 10
755.4948669507
 20
656.908592053
 10
756.2147163433
 20
656.1820786087
 10
756.8729229898
 20
655.4363364491
 10
757.4679496181
 20
654.6731072898
 10
757.9984065161
 20
653.8941736877
 10
758.4630547769
 20
653.1013548783
 10
758.8608091931
 20
652.2965025268
 10
759.1907407908
 20
651.4814964031
 10
759.4520789995
 20
650.6582399918
 10
759.6442134517
 20
649.8286560463
 10
759.7666954084
 20
648.9946820985
 10
759.8192388073
 20
648.158265933
 10
759.801720931
 20
647.3213610386
 10
759.7141826932
 20
646.4859220455
 10
759.5568285436
 20
645.6539001602
 10
759.3300259901
 20
644.8272386082
 10
759.0343047404
 20
644.0078680961
 10
758.6703554654
 20
643.1977023015
 10
758.2390281854
 20
642.3986334042
 10
757.7413302852
 20
641.6125276667
 10
757.1784241614
 20
640.8412210753
 10
756.5516245073
 20
640.0865150523
 10
755.8623952425
 20
639.3501722486
 10
755.112346094
 20
638.6339124269
 10
754.3032288361
 20
637.9394084453
 10
753.4369331999
 20
637.26828235
 10
752.5154824589
 20
636.622101587
 10
751.541028704
 20
636.0023753415
 10
750.5158478171
 20
635.4105510128
 10
749.4423341556
 20
634.8480108341
 10
748.3229949605
 20
634.316068644
 10
747.1604445003
 20
633.8159668182
 10
745.9573979655
 20
633.3488733676
 10
744.716665127
 20
632.9158792107
 10
743.4411437738
 20
632.5179956253
 10
742.1338129452
 20
632.1561518871
 10
740.7977259729
 20
631.8311930987
 10
739.4360033499
 20
631.5438782166
 10
738.0518254425
 20
631.294878278
 10
736.6484250624
 20
631.0847748337
 10
735.2290799161
 20
630.9140585901
 10
733.79710495
 20
630.7831282628
 10
732.355844608
 20
630.6922896458
 10
730.9086650204
 20
630.6417548968
 10
729.4589461422
 20
630.6316420421
 10
728.010073859
 20
630.6619747007
 10
726.5654320791
 20
630.7326820292
 10
725.1283948304
 20
630.8435988875
 10
723.70231838
 20
630.9944662241
 10
722.2905333954
 20
631.1849316813
 10
720.896337166
 20
631.4145504182
 10
719.5229859016
 20
631.6827861496
 10
718.1736871277
 20
631.9890123986
 10
716.8515921941
 20
632.3325139595
 10
715.5597889148
 20
632.7124885685
 10
714.3012943563
 20
633.1280487774
 10
713.0790477909
 20
633.578224026
 10
711.895903832
 20
634.0619629091
 10
710.7546257672
 20
634.5781356322
 10
709.6578791044
 20
635.12553665
 10
708.6082253461
 20
635.702887482
 10
707.6081160073
 20
636.3088396987
 10
706.6598868898
 20
636.9419780704
 10
705.7657526265
 20
637.6008238733
 10
704.9278015096
 20
638.2838383423
 10
704.1479906126
 20
638.9894262657
 10
703.42814122
 20
639.7159397101
 10
702.7699345735
 20
640.4616818696
 10
702.1749079452
 20
641.224911029
 10
701.6444510472
 20
642.0038446311
 10
701.1798027864
 20
642.7966634404
 10
700.7820483702
 20
643.6015157919
 10
700.4521167725
 20
644.4165219156
 10
700.1907785638
 20
645.2397783269
 10
699.9986441117
 20
646.0693622724
 10
699.876162155
 20
646.9033362203
 10
699.823618756
 20
647.7397523858
 10
699.8411366323
 20
648.5766572801
 10
699.9286748701
 20
649.4120962732
 10
700.0860290197
 20
650.2441181586
 10
700.3128315732
 20
651.0707797105
 10
700.6085528229
 20
651.8901502227
 10
700.9725020979
 20
652.7003160173
 10
701.4038293779
 20
653.4993849146
 10
701.9015272781
 20
654.2854906521
 10
702.4644334019
 20
655.0567972435
 10
703.091233056
 20
655.8115032665
 10
703.7804623208
 20
656.5478460702
 10
704.5305114694
 20
657.2641058918
 10
705.3396287272
 20
657.9586098734
 10
706.2059243634
 20
658.6297359688
 10
707.1273751044
 20
659.2759167318
 10
708.1018288593
 20
659.8956429773
 10
708.6047784442
 20
660.1931406593
  0
LWPOLYLINE
  5
B8
330
1F
100
AcDbEntity
  8
0
  6
Continuous
 62
     7
370
    15
100
AcDbPolyline
 90
      126
 70
   128
 43
0.0
 10
749.6204186549
 20
661.0118043487
 10
750.5901984183
 20
660.4230899594
 10
751.5075144672
 20
659.8069902653
 10
752.3700495816
 20
659.1650615877
 10
753.1756249228
 20
658.4989254942
 10
753.9222055378
 20
657.8102647023
 10
754.607905499
 20
657.100818829
 10
755.2309926688
 20
656.3723799961
 10
755.789893075
 20
655.6267883034
 10
756.2831948867
 20
654.8659271801
 10
756.7096519806
 20
654.0917186275
 10
757.0681870892
 20
653.3061183636
 10
757.3578945215
 20
652.5111108828
 10
757.5780424516
 20
651.708704443
 10
757.7280747666
 20
650.9009259926
 10
757.8076124719
 20
650.08981605
 10
757.8164546483
 20
649.2774235492
 10
757.7545789598
 20
648.4658006644
 10
757.6221417096
 20
647.6569976253
 10
757.4194774458
 20
646.8530575385
 10
757.1470981159
 20
646.0560112266
 10
756.8056917738
 20
645.2678720977
 10
756.3961208414
 20
644.4906310596
 10
755.9194199305
 20
643.7262514906
 10
755.376793229
 20
642.9766642799
 10
754.7696114589
 20
642.2437629499
 10
754.0994084143
 20
641.5293988728
 10
753.367877086
 20
640.8353765943
 10
752.5768653858
 20
640.163449275
 10
751.7283714778
 20
639.5153142616
 10
750.8245387313
 20
638.8926087993
 10
749.8676503063
 20
638.2969058963
 10
748.8601233859
 20
637.7297103497
 10
747.8045030706
 20
637.1924549447
 10
746.7034559489
 20
636.6864968351
 10
745.5597633615
 20
636.213114115
 10
744.376314375
 20
635.7735025903
 10
743.1560984844
 20
635.3687727577
 10
741.9021980607
 20
634.999947
 10
740.6177805654
 20
634.6679570031
 10
739.3060905485
 20
634.3736414024
 10
737.9704414528
 20
634.1177436648
 10
736.6142072439
 20
633.9009102102
 10
735.2408138871
 20
633.7236887786
 10
733.8537306931
 20
633.5865270468
 10
732.4564615546
 20
633.4897714972
 10
731.0525360946
 20
633.4336665427
 10
729.6455007506
 20
633.4183539094
 10
728.2389098162
 20
633.4438722782
 10
726.8363164619
 20
633.5101571876
 10
725.4412637605
 20
633.6170411961
 10
724.0572757361
 20
633.7642543054
 10
722.6878484625
 20
633.9514246424
 10
721.3364412319
 20
634.1780793987
 10
720.0064678163
 20
634.4436460247
 10
718.7012878439
 20
634.7474536759
 10
717.4241983126
 20
635.0887349079
 10
716.1784252613
 20
635.4666276147
 10
714.9671156211
 20
635.8801772065
 10
713.793329265
 20
636.3283390212
 10
712.6600312794
 20
636.8099809631
 10
711.5700844732
 20
637.3238863629
 10
710.5262421468
 20
637.8687570509
 10
709.5311411364
 20
638.4432166365
 10
708.5872951536
 20
639.0458139849
 10
707.6970884351
 20
639.6750268829
 10
706.8627697205
 20
640.3292658841
 10
706.0864465713
 20
641.0068783241
 10
705.370080047
 20
641.7061524949
 10
704.7154797517
 20
642.4253219694
 10
704.1242992625
 20
643.1625700631
 10
703.5980319527
 20
643.9160344232
 10
703.1380072192
 20
644.6838117335
 10
702.7453871243
 20
645.4639625217
 10
702.4211634605
 20
646.2545160594
 10
702.166155245
 20
647.0534753395
 10
701.9810066505
 20
647.8588221218
 10
701.8661853786
 20
648.6685220302
 10
701.8219814777
 20
649.4805296926
 10
701.8485066107
 20
650.2927939071
 10
701.9456937728
 20
651.1032628239
 10
702.1132974608
 20
651.9098891281
 10
702.3508942932
 20
652.7106352116
 10
702.6578840799
 20
653.5034783203
 10
703.033491338
 20
654.2864156639
 10
703.4767672509
 20
655.0574694744
 10
703.9865920653
 20
655.8146920033
 10
704.5616779193
 20
656.5561704405
 10
705.2005720963
 20
657.2800317472
 10
705.9016606941
 20
657.984447387
 10
706.663172702
 20
658.6676379448
 10
707.4831844746
 20
659.3278776219
 10
708.359624591
 20
659.9634985957
 10
709.2902790874
 20
660.5728952323
 10
710.2727970498
 20
661.154528143
 10
711.3046965526
 20
661.7069280727
 10
712.383370928
 20
662.228699611
 10
713.5060953509
 20
662.7185247179
 10
714.6700337221
 20
663.1751660525
 10
715.8722458321
 20
663.5974700993
 10
717.1096947889
 20
663.9843700816
 10
718.379254689
 20
664.3348886564
 10
719.6777185139
 20
664.6481403835
 10
721.0018062313
 20
664.9233339617
 10
722.3481730807
 20
665.1597742282
 10
723.7134180226
 20
665.3568639143
 10
725.0940923297
 20
665.5141051545
 10
726.486708299
 20
665.6311007437
 10
727.8877480616
 20
665.7075551408
 10
729.2936724696
 20
665.7432752155
 10
730.7009300358
 20
665.7381707357
 10
732.1059659056
 20
665.6922545958
 10
733.5052308362
 20
665.6056427839
 10
734.8951901632
 20
665.478554089
 10
736.2723327286
 20
665.3113095482
 10
737.6331797508
 20
665.1043316357
 10
738.974293612
 20
664.8581431957
 10
740.2922865423
 20
664.5733661214
 10
741.5838291772
 20
664.2507197847
 10
742.8456589678
 20
663.8910192179
 10
744.0745884227
 20
663.4951730562
 10
745.2675131592
 20
663.0641812411
 10
746.4214197462
 20
662.5991324954
 10
747.5333933152
 20
662.1012015727
 10
748.6006249247
 20
661.5716462895
 10
749.6204186549
 20
661.0118043487
  0
LWPOLYLINE
  5
B9
330
1F
100
AcDbEntity
  8
0
  6
Continuous
 62
     7
370
    15
100
AcDbPolyline
 90
       67
 70
   128
 43
0.0
 10
759.8214287817
 20
646.3159275356
 10
759.801720931
 20
645.6882794148
 10
759.7141826932
 20
644.8528404217
 10
759.5568285436
 20
644.0208185364
 10
759.3300259901
 20
643.1941569845
 10
759.0343047404
 20
642.3747864723
 10
758.6703554654
 20
641.5646206777
 10
758.2390281854
 20
640.7655517804
 10
757.7413302852
 20
639.9794460429
 10
757.1784241614
 20
639.2081394515
 10
756.5516245073
 20
638.4534334285
 10
755.8623952425
 20
637.7170906248
 10
755.112346094
 20
637.0008308032
 10
754.3032288361
 20
636.3063268216
 10
753.4369331999
 20
635.6352007262
 10
752.5154824589
 20
634.9890199632
 10
751.541028704
 20
634.3692937177
 10
750.5158478171
 20
633.777469389
 10
749.4423341556
 20
633.2149292103
 10
748.3229949605
 20
632.6829870202
 10
747.1604445003
 20
632.1828851944
 10
745.9573979655
 20
631.7157917438
 10
744.716665127
 20
631.2827975869
 10
743.4411437738
 20
630.8849140015
 10
742.1338129452
 20
630.5230702633
 10
740.7977259729
 20
630.198111475
 10
739.4360033499
 20
629.9107965929
 10
738.0518254425
 20
629.6617966542
 10
736.6484250624
 20
629.4516932099
 10
735.2290799161
 20
629.2809769663
 10
733.79710495
 20
629.1500466391
 10
732.355844608
 20
629.059208022
 10
730.9086650204
 20
629.008673273
 10
729.4589461422
 20
628.9985604183
 10
728.010073859
 20
629.0288930769
 10
726.5654320791
 20
629.0996004054
 10
725.1283948304
 20
629.2105172637
 10
723.70231838
 20
629.3613846003
 10
722.2905333954
 20
629.5518500575
 10
720.896337166
 20
629.7814687944
 10
719.5229859016
 20
630.0497045258
 10
718.1736871277
 20
630.3559307748
 10
716.8515921941
 20
630.6994323357
 10
715.5597889148
 20
631.0794069447
 10
714.3012943563
 20
631.4949671536
 10
713.0790477909
 20
631.9451424022
 10
711.895903832
 20
632.4288812854
 10
710.7546257672
 20
632.9450540085
 10
709.6578791044
 20
633.4924550263
 10
708.6082253461
 20
634.0698058583
 10
707.6081160073
 20
634.6757580749
 10
706.6598868898
 20
635.3088964466
 10
705.7657526265
 20
635.9677422495
 10
704.9278015096
 20
636.6507567186
 10
704.1479906126
 20
637.3563446419
 10
703.42814122
 20
638.0828580863
 10
702.7699345735
 20
638.8286002459
 10
702.1749079452
 20
639.5918294052
 10
701.6444510472
 20
640.3707630073
 10
701.1798027864
 20
641.1635818166
 10
700.7820483702
 20
641.9684341681
 10
700.4521167725
 20
642.7834402918
 10
700.1907785638
 20
643.6066967032
 10
699.9986441117
 20
644.4362806486
 10
699.876162155
 20
645.2702545965
 10
699.823618756
 20
646.106670762
 10
699.8214287817
 20
646.3159275356
  0
LWPOLYLINE
  5
BA
330
1F
100
AcDbEntity
  8
0
  6
Continuous
 62
     7
370
    15
100
AcDbPolyline
 90
      122
 70
   128
 43
0.0
 10
748.2062050925
 20
660.1953962368
 10
749.1356641253
 20
659.6302193632
 10
750.0130553942
 20
659.0379545115
 10
750.8360136077
 20
658.4201983229
 10
751.6023202158
 20
657.7786161589
 10
752.3099093914
 20
657.1149376117
 10
752.9568735992
 20
656.4309518411
 10
753.5414687381
 20
655.7285027521
 10
754.0621188429
 20
655.009484023
 10
754.517420333
 20
654.2758340013
 10
754.906145796
 20
653.5295304778
 10
755.2272472969
 20
652.7725853547
 10
755.4798592028
 20
652.0070392223
 10
755.6633005166
 20
651.2349558577
 10
755.777076713
 20
650.458416661
 10
755.8208810714
 20
649.6795150447
 10
755.7945955032
 20
648.9003507899
 10
755.6982908694
 20
648.1230243855
 10
755.5322267904
 20
647.3496313661
 10
755.2968509456
 20
646.5822566627
 10
754.9927978667
 20
645.8229689817
 10
754.6208872269
 20
645.0738152284
 10
754.1821216316
 20
644.336814989
 10
753.6776839154
 20
643.6139550858
 10
753.108933953
 20
642.9071842213
 10
752.4774049939
 20
642.2184077248
 10
751.7847995284
 20
641.5494824159
 10
751.0329846984
 20
640.902211599
 10
750.2239872639
 20
640.2783402018
 10
749.3599881388
 20
639.6795500713
 10
748.4433165121
 20
639.1074554398
 10
747.4764435683
 20
638.5635985733
 10
746.461975826
 20
638.0494456138
 10
745.4026481109
 20
637.5663826267
 10
744.3013161833
 20
637.1157118644
 10
743.1609490392
 20
636.6986482557
 10
741.9846209069
 20
636.3163161302
 10
740.775502959
 20
635.9697461879
 10
739.5368547638
 20
635.65987272
 10
738.2720154978
 20
635.3875310905
 10
736.9843949441
 20
635.1534554844
 10
735.6774643
 20
634.9582769282
 10
734.3547468195
 20
634.8025215886
 10
733.0198083151
 20
634.6866093546
 10
731.6762475448
 20
634.610852705
 10
730.3276865112
 20
634.5754558664
 10
728.9777606961
 20
634.5805142625
 10
727.6301092611
 20
634.6260142565
 10
726.2883652361
 20
634.7118331887
 10
724.9561457258
 20
634.8377397063
 10
723.6370421584
 20
635.0033943877
 10
722.334610604
 20
635.2083506571
 10
721.0523621877
 20
635.4520559886
 10
719.7937536246
 20
635.7338533957
 10
718.5621779009
 20
636.0529832026
 10
717.3609551269
 20
636.4085850915
 10
716.193323587
 20
636.7997004227
 10
715.0624310092
 20
637.2252748185
 10
713.97132608
 20
637.6841610054
 10
712.9229502255
 20
638.1751219075
 10
711.9201296815
 20
638.696833981
 10
710.9655678751
 20
639.2478907823
 10
710.0618381359
 20
639.8268067597
 10
709.2113767597
 20
640.4320212582
 10
708.4164764399
 20
641.0619027264
 10
707.6792800873
 20
641.7147531152
 10
707.0017750529
 20
642.3888124555
 10
706.3857877705
 20
643.0822636024
 10
705.8329788329
 20
643.7932371342
 10
705.3448385152
 20
644.519816392
 10
704.9226827575
 20
645.2600426466
 10
704.5676496171
 20
646.0119203788
 10
704.2806962004
 20
646.7734226592
 10
704.0625960833
 20
647.5424966123
 10
703.913937225
 20
648.3170689507
 10
703.8351203835
 20
649.0950515643
 10
703.8263580352
 20
649.8743471495
 10
703.8876738018
 20
650.6528548633
 10
704.0189023867
 20
651.4284759864
 10
704.219690021
 20
652.1991195814
 10
704.4894954167
 20
652.9627081294
 10
704.8275912261
 20
653.7171831308
 10
705.2330660026
 20
654.4605106543
 10
705.7048266581
 20
655.1906868203
 10
706.2416014092
 20
655.905743203
 10
706.8419432059
 20
656.6037521368
 10
707.5042336331
 20
657.2828319129
 10
708.2266872728
 20
657.9411518525
 10
709.0073565176
 20
658.5769372413
 10
709.8441368214
 20
659.1884741142
 10
710.7347723724
 20
659.7741138762
 10
711.6768621746
 20
660.3322777457
 10
712.6678665205
 20
660.8614610119
 10
713.7051138375
 20
661.36023709
 10
714.7858078903
 20
661.8272613681
 10
715.9070353187
 20
662.2612748312
 10
717.0657734919
 20
662.6611074558
 10
718.2588986565
 20
663.0256813637
 10
719.4831943582
 20
663.3540137282
 10
720.7353601121
 20
663.6452194233
 10
722.0120203007
 20
663.89851341
 10
723.3097332739
 20
664.1132128523
 10
724.6250006269
 20
664.2887389586
 10
725.9542766316
 20
664.4246185415
 10
727.2939777947
 20
664.5204852937
 10
728.6404925188
 20
664.5760807754
 10
729.9901908383
 20
664.591255111
 10
731.3394342052
 20
664.5659673931
 10
732.6845852978
 20
664.500285793
 10
734.0220178266
 20
664.3943873767
 10
735.34812631
 20
664.2485576275
 10
736.659335794
 20
664.0631896767
 10
737.9521114896
 20
663.8387832435
 10
739.2229683022
 20
663.575943288
 10
740.4684802263
 20
663.2753783802
 10
741.6852895821
 20
662.93789879
 10
742.8701160667
 20
662.5644143026
 10
744.0197655974
 20
662.1559317664
 10
745.1311389222
 20
661.7135523778
 10
746.2012399752
 20
661.2384687136
 10
747.2271839532
 20
660.7319615153
 10
748.2062050925
 20
660.1953962368
  0
LINE
  5
BB
330
1F
100
AcDbEntity
  8
0
  6
Continuous
 62
     7
370
    15
100
AcDbLine
 10
708.1740220139
 20
550.2296535449
 30
0.0
 11
751.4688355494
 21
550.2296535449
 31
0.0
  0
LINE
  5
BC
330
1F
100
AcDbEntity
  8
0
  6
Continuous
 62
     7
370
    15
100
AcDbLine
 10
707.4769842511
 20
546.1469494855
 30
0.0
 11
752.1658733122
 21
546.1469494855
 31
0.0
  0
LINE
  5
BD
330
1F
100
AcDbEntity
  8
0
  6
Continuous
 62
     7
370
    15
100
AcDbLine
 10
754.8214287817
 20
572.4508249945
 30
0.0
 11
754.8214287817
 21
577.2873315329
 31
0.0
  0
LINE
  5
BE
330
1F
100
AcDbEntity
  8
0
  6
Continuous
 62
     7
370
    15
100
AcDbLine
 10
704.8214287817
 20
572.4508249945
 30
0.0
 11
704.8214287817
 21
577.2873315329
 31
0.0
  0
LINE
  5
BF
330
1F
100
AcDbEntity
  8
0
  6
Continuous
 62
     7
370
    15
100
AcDbLine
 10
704.8214287817
 20
577.2873315329
 30
0.0
 11
705.7374454222
 21
577.8161366836
 31
0.0
  0
LINE
  5
C0
330
1F
100
AcDbEntity
  8
0
  6
Continuous
 62
     7
370
    15
100
AcDbLine
 10
713.1020222986
 20
579.0940391492
 30
0.0
 11
746.5408352647
 21
579.0940391492
 31
0.0
  0
LINE
  5
C1
330
1F
100
AcDbEntity
  8
0
  6
Continuous
 62
     7
370
    15
100
AcDbLine
 10
753.9054121412
 20
577.8161366836
 30
0.0
 11
754.8214287817
 21
577.2873315329
 31
0.0
  0
LINE
  5
C2
330
1F
100
AcDbEntity
  8
0
  6
Continuous
 62
     7
370
    15
100
AcDbLine
 10
749.8214287817
 20
553.1160921053
 30
0.0
 11
749.8214287817
 21
559.8788786754
 31
0.0
  0
LINE
  5
C3
330
1F
100
AcDbEntity
  8
0
  6
Continuous
 62
     7
370
    15
100
AcDbLine
 10
747.0336352931
 20
576.2076005887
 30
0.0
 11
712.6092222702
 21
576.2076005887
 31
0.0
  0
LINE
  5
C4
330
1F
100
AcDbEntity
  8
0
  6
Continuous
 62
     7
370
    15
100
AcDbLine
 10
709.8214287817
 20
559.8788786754
 30
0.0
 11
709.8214287817
 21
553.1160921053
 31
0.0
  0
LINE
  5
C5
330
1F
100
AcDbEntity
  8
0
  6
Continuous
 62
     7
370
    15
100
AcDbLine
 10
709.8214287817
 20
553.1160921053
 30
0.0
 11
749.8214287817
 21
553.1160921053
 31
0.0
  0
LINE
  5
C6
330
1F
100
AcDbEntity
  8
0
  6
Continuous
 62
     7
370
    15
100
AcDbLine
 10
747.730673056
 20
572.1248965293
 30
0.0
 11
711.9121845073
 21
572.1248965293
 31
0.0
  0
LINE
  5
C7
330
1F
100
AcDbEntity
  8
0
  6
Continuous
 62
     7
370
    15
100
AcDbLine
 10
737.9113442413
 20
629.6388731745
 30
0.0
 11
757.6748312583
 21
513.8797666025
 31
0.0
  0
LINE
  5
C8
330
1F
100
AcDbEntity
  8
0
  6
Continuous
 62
     7
370
    15
100
AcDbLine
 10
741.0676625586
 20
630.2602472383
 30
0.0
 11
761.293935338
 21
511.7905022885
 31
0.0
  0
LINE
  5
C9
330
1F
100
AcDbEntity
  8
0
  6
Continuous
 62
     7
370
    15
100
AcDbLine
 10
761.293935338
 20
511.7905022885
 30
0.0
 11
757.6748312583
 21
513.8797666025
 31
0.0
  0
LINE
  5
CA
330
1F
100
AcDbEntity
  8
0
  6
Continuous
 62
     7
370
    15
100
AcDbLine
 10
718.5751950047
 20
630.2602472383
 30
0.0
 11
698.3489222253
 21
511.7905022885
 31
0.0
  0
LINE
  5
CB
330
1F
100
AcDbEntity
  8
0
  6
Continuous
 62
     7
370
    15
100
AcDbLine
 10
721.731513322
 20
629.6388731745
 30
0.0
 11
701.968026305
 21
513.8797666025
 31
0.0
  0
LINE
  5
CC
330
1F
100
AcDbEntity
  8
0
  6
Continuous
 62
     7
370
    15
100
AcDbLine
 10
701.968026305
 20
513.8797666025
 30
0.0
 11
698.3489222253
 21
511.7905022885
 31
0.0
  0
LINE
  5
CD
330
1F
100
AcDbEntity
  8
0
  6
Continuous
 62
     7
370
    15
100
AcDbLine
 10
744.7738473577
 20
631.3017275623
 30
0.0
 11
764.829469244
 21
513.8315225681
 31
0.0
  0
LINE
  5
CE
330
1F
100
AcDbEntity
  8
0
  6
Continuous
 62
     7
370
    15
100
AcDbLine
 10
764.829469244
 20
513.8315225681
 30
0.0
 11
761.293935338
 21
511.7905022885
 31
0.0
  0
LINE
  5
CF
330
1F
100
AcDbEntity
  8
0
  6
Continuous
 62
     7
370
    15
100
AcDbLine
 10
714.8690102056
 20
631.3017275623
 30
0.0
 11
694.8133883193
 21
513.8315225681
 31
0.0
  0
LINE
  5
D0
330
1F
100
AcDbEntity
  8
0
  6
Continuous
 62
     7
370
    15
100
AcDbLine
 10
698.3489222253
 20
511.7905022885
 30
0.0
 11
694.8133883193
 21
513.8315225681
 31
0.0
  0
LINE
  5
D1
330
1F
100
AcDbEntity
  8
0
  6
Continuous
 62
     7
370
    15
100
AcDbLine
 10
712.2718318062
 20
632.2697731205
 30
0.0
 11
694.8133883193
 21
550.1689051751
 31
0.0
  0
LINE
  5
D2
330
1F
100
AcDbEntity
  8
0
  6
Continuous
 62
     7
370
    15
100
AcDbLine
 10
709.7355449746
 20
601.2338884081
 30
0.0
 11
698.432492399
 21
548.0796408612
 31
0.0
  0
LINE
  5
D3
330
1F
100
AcDbEntity
  8
0
  6
Continuous
 62
     7
370
    15
100
AcDbLine
 10
698.432492399
 20
548.0796408612
 30
0.0
 11
694.8133883193
 21
550.1689051751
 31
0.0
  0
LINE
  5
D4
330
1F
100
AcDbEntity
  8
0
  6
Continuous
 62
     7
370
    15
100
AcDbLine
 10
749.9073125887
 20
601.2338884081
 30
0.0
 11
761.2103651643
 21
548.0796408612
 31
0.0
  0
LINE
  5
D5
330
1F
100
AcDbEntity
  8
0
  6
Continuous
 62
     7
370
    15
100
AcDbLine
 10
747.3710257571
 20
632.2697731205
 30
0.0
 11
764.829469244
 21
550.1689051751
 31
0.0
  0
LINE
  5
D6
330
1F
100
AcDbEntity
  8
0
  6
Continuous
 62
     7
370
    15
100
AcDbLine
 10
764.829469244
 20
550.1689051751
 30
0.0
 11
761.2103651643
 21
548.0796408612
 31
0.0
  0
LINE
  5
D7
330
1F
100
AcDbEntity
  8
0
  6
Continuous
 62
     7
370
    15
100
AcDbLine
 10
700.9041575864
 20
549.5065028022
 30
0.0
 11
698.432492399
 21
548.0796408612
 31
0.0
  0
LINE
  5
D8
330
1F
100
AcDbEntity
  8
0
  6
Continuous
 62
     7
370
    15
100
AcDbLine
 10
761.2103651643
 20
548.0796408612
 30
0.0
 11
758.7386999769
 21
549.5065028022
 31
0.0
  0
ENDSEC
  0
SECTION
  2
OBJECTS
  0
DICTIONARY
  5
C
330
0
100
AcDbDictionary
281
     1
  3
ACAD_GROUP
350
D
  3
ACAD_LAYOUT
350
1A
  3
ACAD_MLINESTYLE
350
17
  3
ACAD_PLOTSETTINGS
350
19
  3
ACAD_PLOTSTYLENAME
350
E
  3
ACAD_SCALELIST
350
47
  0
DICTIONARY
  5
D
102
{ACAD_REACTORS
330
C
102
}
330
C
100
AcDbDictionary
281
     1
  0
DICTIONARY
  5
1A
102
{ACAD_REACTORS
330
C
102
}
330
C
100
AcDbDictionary
281
     1
  3
Layout1
350
1E
  3
Layout2
350
26
  3
Model
350
22
  0
DICTIONARY
  5
17
102
{ACAD_REACTORS
330
C
102
}
330
C
100
AcDbDictionary
281
     1
  3
Standard
350
18
  0
DICTIONARY
  5
19
102
{ACAD_REACTORS
330
C
102
}
330
C
100
AcDbDictionary
281
     1
  0
ACDBDICTIONARYWDFLT
  5
E
102
{ACAD_REACTORS
330
C
102
}
330
C
100
AcDbDictionary
281
     1
  3
Normal
350
F
100
AcDbDictionaryWithDefault
340
F
  0
DICTIONARY
  5
47
102
{ACAD_REACTORS
330
C
102
}
330
C
100
AcDbDictionary
281
     1
  3
A0
350
48
  3
A1
350
49
  3
A2
350
4A
  3
A3
350
4B
  3
A4
350
4C
  3
A5
350
4D
  3
A6
350
4E
  3
A7
350
4F
  3
A8
350
50
  3
A9
350
51
  3
B0
350
52
  3
B1
350
53
  3
B2
350
54
  3
B3
350
55
  3
B4
350
56
  3
B5
350
57
  3
B6
350
58
  3
B7
350
59
  3
B8
350
5A
  3
B9
350
5B
  3
C0
350
5C
  3
C1
350
5D
  3
C2
350
5E
  3
C3
350
5F
  3
C4
350
60
  3
C5
350
61
  3
C6
350
62
  3
C7
350
63
  3
C8
350
64
  3
C9
350
65
  3
D0
350
66
  3
D1
350
67
  3
D2
350
68
  0
LAYOUT
  5
1E
102
{ACAD_REACTORS
330
1A
102
}
330
1A
100
AcDbPlotSettings
  1

  2
none_device
  4

  6

 40
0.0
 41
0.0
 42
0.0
 43
0.0
 44
0.0
 45
0.0
 46
0.0
 47
0.0
 48
0.0
 49
0.0
140
0.0
141
0.0
142
1.0
143
1.0
 70
   688
 72
     1
 73
     0
 74
     5
  7

 75
    16
147
1.0
148
0.0
149
0.0
100
AcDbLayout
  1
Layout1
 70
     1
 71
     1
 10
0.0
 20
0.0
 11
420.0
 21
297.0
 12
0.0
 22
0.0
 32
0.0
 14
1.0000000000E+20
 24
1.0000000000E+20
 34
1.0000000000E+20
 15
-1.0000000000E+20
 25
-1.0000000000E+20
 35
-1.0000000000E+20
146
0.0
 13
0.0
 23
0.0
 33
0.0
 16
1.0
 26
0.0
 36
0.0
 17
0.0
 27
1.0
 37
0.0
 76
     0
330
1B
  0
LAYOUT
  5
26
102
{ACAD_REACTORS
330
1A
102
}
330
1A
100
AcDbPlotSettings
  1

  2
none_device
  4

  6

 40
0.0
 41
0.0
 42
0.0
 43
0.0
 44
0.0
 45
0.0
 46
0.0
 47
0.0
 48
0.0
 49
0.0
140
0.0
141
0.0
142
1.0
143
1.0
 70
   688
 72
     1
 73
     0
 74
     5
  7

 75
    16
147
1.0
148
0.0
149
0.0
100
AcDbLayout
  1
Layout2
 70
     1
 71
     2
 10
0.0
 20
0.0
 11
0.0
 21
0.0
 12
0.0
 22
0.0
 32
0.0
 14
0.0
 24
0.0
 34
0.0
 15
0.0
 25
0.0
 35
0.0
146
0.0
 13
0.0
 23
0.0
 33
0.0
 16
1.0
 26
0.0
 36
0.0
 17
0.0
 27
1.0
 37
0.0
 76
     0
330
23
  0
LAYOUT
  5
22
102
{ACAD_REACTORS
330
1A
102
}
330
1A
100
AcDbPlotSettings
  1

  2
none_device
  4
Letter_(8.50_x_11.00_Inches)
  6

 40
6.35
 41
6.35
 42
6.35000508
 43
6.35000508
 44
215.9
 45
279.4
 46
0.0
 47
0.0
 48
0.0
 49
0.0
140
0.0
141
0.0
142
1.0
143
1.0
 70
  1712
 72
     1
 73
     0
 74
     0
  7

 75
     0
147
1.0
148
0.0
149
0.0
100
AcDbLayout
  1
Model
 70
     1
 71
     0
 10
0.0
 20
0.0
 11
1189.0
 21
841.0
 12
0.0
 22
0.0
 32
0.0
 14
0.0
 24
0.0
 34
0.0
 15
1189.0
 25
841.0
 35
0.0
146
0.0
 13
0.0
 23
0.0
 33
0.0
 16
1.0
 26
0.0
 36
0.0
 17
0.0
 27
1.0
 37
0.0
 76
     0
330
1F
331
29
  0
MLINESTYLE
  5
18
102
{ACAD_REACTORS
330
17
102
}
330
17
100
AcDbMlineStyle
  2
Standard
 70
     0
  3

 62
   256
 51
90.0
 52
90.0
 71
     2
 49
0.5
 62
   256
  6
BYLAYER
 49
-0.5
 62
   256
  6
BYLAYER
  0
ACDBPLACEHOLDER
  5
F
102
{ACAD_REACTORS
330
E
102
}
330
E
  0
SCALE
  5
48
102
{ACAD_REACTORS
330
47
102
}
330
47
100
AcDbScale
 70
     0
300
1:1
140
1.0
141
1.0
290
     1
  0
SCALE
  5
49
102
{ACAD_REACTORS
330
47
102
}
330
47
100
AcDbScale
 70
     0
300
1:2
140
1.0
141
2.0
290
     0
  0
SCALE
  5
4A
102
{ACAD_REACTORS
330
47
102
}
330
47
100
AcDbScale
 70
     0
300
1:4
140
1.0
141
4.0
290
     0
  0
SCALE
  5
4B
102
{ACAD_REACTORS
330
47
102
}
330
47
100
AcDbScale
 70
     0
300
1:5
140
1.0
141
5.0
290
     0
  0
SCALE
  5
4C
102
{ACAD_REACTORS
330
47
102
}
330
47
100
AcDbScale
 70
     0
300
1:8
140
1.0
141
8.0
290
     0
  0
SCALE
  5
4D
102
{ACAD_REACTORS
330
47
102
}
330
47
100
AcDbScale
 70
     0
300
1:10
140
1.0
141
10.0
290
     0
  0
SCALE
  5
4E
102
{ACAD_REACTORS
330
47
102
}
330
47
100
AcDbScale
 70
     0
300
1:16
140
1.0
141
16.0
290
     0
  0
SCALE
  5
4F
102
{ACAD_REACTORS
330
47
102
}
330
47
100
AcDbScale
 70
     0
300
1:20
140
1.0
141
20.0
290
     0
  0
SCALE
  5
50
102
{ACAD_REACTORS
330
47
102
}
330
47
100
AcDbScale
 70
     0
300
1:30
140
1.0
141
30.0
290
     0
  0
SCALE
  5
51
102
{ACAD_REACTORS
330
47
102
}
330
47
100
AcDbScale
 70
     0
300
1:40
140
1.0
141
40.0
290
     0
  0
SCALE
  5
52
102
{ACAD_REACTORS
330
47
102
}
330
47
100
AcDbScale
 70
     0
300
1:50
140
1.0
141
50.0
290
     0
  0
SCALE
  5
53
102
{ACAD_REACTORS
330
47
102
}
330
47
100
AcDbScale
 70
     0
300
1:100
140
1.0
141
100.0
290
     0
  0
SCALE
  5
54
102
{ACAD_REACTORS
330
47
102
}
330
47
100
AcDbScale
 70
     0
300
2:1
140
2.0
141
1.0
290
     0
  0
SCALE
  5
55
102
{ACAD_REACTORS
330
47
102
}
330
47
100
AcDbScale
 70
     0
300
4:1
140
4.0
141
1.0
290
     0
  0
SCALE
  5
56
102
{ACAD_REACTORS
330
47
102
}
330
47
100
AcDbScale
 70
     0
300
8:1
140
8.0
141
1.0
290
     0
  0
SCALE
  5
57
102
{ACAD_REACTORS
330
47
102
}
330
47
100
AcDbScale
 70
     0
300
10:1
140
10.0
141
1.0
290
     0
  0
SCALE
  5
58
102
{ACAD_REACTORS
330
47
102
}
330
47
100
AcDbScale
 70
     0
300
100:1
140
100.0
141
1.0
290
     0
  0
SCALE
  5
59
102
{ACAD_REACTORS
330
47
102
}
330
47
100
AcDbScale
 70
     0
300
1/128" = 1'-0"
140
0.0078125
141
12.0
290
     0
  0
SCALE
  5
5A
102
{ACAD_REACTORS
330
47
102
}
330
47
100
AcDbScale
 70
     0
300
1/64" = 1'-0"
140
0.015625
141
12.0
290
     0
  0
SCALE
  5
5B
102
{ACAD_REACTORS
330
47
102
}
330
47
100
AcDbScale
 70
     0
300
1/32" = 1'-0"
140
0.03125
141
12.0
290
     0
  0
SCALE
  5
5C
102
{ACAD_REACTORS
330
47
102
}
330
47
100
AcDbScale
 70
     0
300
1/16" = 1'-0"
140
0.0625
141
12.0
290
     0
  0
SCALE
  5
5D
102
{ACAD_REACTORS
330
47
102
}
330
47
100
AcDbScale
 70
     0
300
3/32" = 1'-0"
140
0.09375
141
12.0
290
     0
  0
SCALE
  5
5E
102
{ACAD_REACTORS
330
47
102
}
330
47
100
AcDbScale
 70
     0
300
1/8" = 1'-0"
140
0.125
141
12.0
290
     0
  0
SCALE
  5
5F
102
{ACAD_REACTORS
330
47
102
}
330
47
100
AcDbScale
 70
     0
300
3/16" = 1'-0"
140
0.1875
141
12.0
290
     0
  0
SCALE
  5
60
102
{ACAD_REACTORS
330
47
102
}
330
47
100
AcDbScale
 70
     0
300
1/4" = 1'-0"
140
0.25
141
12.0
290
     0
  0
SCALE
  5
61
102
{ACAD_REACTORS
330
47
102
}
330
47
100
AcDbScale
 70
     0
300
3/8" = 1'-0"
140
0.375
141
12.0
290
     0
  0
SCALE
  5
62
102
{ACAD_REACTORS
330
47
102
}
330
47
100
AcDbScale
 70
     0
300
1/2" = 1'-0"
140
0.5
141
12.0
290
     0
  0
SCALE
  5
63
102
{ACAD_REACTORS
330
47
102
}
330
47
100
AcDbScale
 70
     0
300
3/4" = 1'-0"
140
0.75
141
12.0
290
     0
  0
SCALE
  5
64
102
{ACAD_REACTORS
330
47
102
}
330
47
100
AcDbScale
 70
     0
300
1" = 1'-0"
140
1.0
141
12.0
290
     0
  0
SCALE
  5
65
102
{ACAD_REACTORS
330
47
102
}
330
47
100
AcDbScale
 70
     0
300
1-1/2" = 1'-0"
140
1.5
141
12.0
290
     0
  0
SCALE
  5
66
102
{ACAD_REACTORS
330
47
102
}
330
47
100
AcDbScale
 70
     0
300
3" = 1'-0"
140
3.0
141
12.0
290
     0
  0
SCALE
  5
67
102
{ACAD_REACTORS
330
47
102
}
330
47
100
AcDbScale
 70
     0
300
6" = 1'-0"
140
6.0
141
12.0
290
     0
  0
SCALE
  5
68
102
{ACAD_REACTORS
330
47
102
}
330
47
100
AcDbScale
 70
     0
300
1'-0" = 1'-0"
140
12.0
141
12.0
290
     0
  0
ENDSEC
  0
EOF
