  0
SECTION
  2
HEADER
  9
$ACADVER
  1
AC1015
  9
$ACADMAINTVER
 70
     6
  9
$DWGCODEPAGE
  3
ANSI_1252
  9
$INSBASE
 10
0.0
 20
0.0
 30
0.0
  9
$EXTMIN
 10
0.0
 20
0.0
 30
0.0
  9
$EXTMAX
 10
1189.0
 20
841.0
 30
0.0
  9
$LIMMIN
 10
0.0
 20
0.0
  9
$LIMMAX
 10
1189.0
 20
841.0
  9
$ORTHOMODE
 70
     0
  9
$REGENMODE
 70
     1
  9
$FILLMODE
 70
     1
  9
$QTEXTMODE
 70
     0
  9
$MIRRTEXT
 70
     1
  9
$LTSCALE
 40
1.0
  9
$ATTMODE
 70
     1
  9
$TEXTSIZE
 40
3.5
  9
$TRACEWID
 40
1.0
  9
$TEXTSTYLE
  7
Standard
  9
$CLAYER
  8
0
  9
$CELTYPE
  6
ByLayer
  9
$CECOLOR
 62
   256
  9
$CELTSCALE
 40
1.0
  9
$DISPSILH
 70
     0
  9
$DIMSCALE
 40
1.0
  9
$DIMASZ
 40
3.302
  9
$DIMEXO
 40
1.0
  9
$DIMDLI
 40
3.75
  9
$DIMRND
 40
0.0
  9
$DIMDLE
 40
0.0
  9
$DIMEXE
 40
1.0
  9
$DIMTP
 40
0.0
  9
$DIMTM
 40
0.0
  9
$DIMTXT
 40
3.5
  9
$DIMCEN
 40
2.5
  9
$DIMTSZ
 40
0.0
  9
$DIMTOL
 70
     0
  9
$DIMLIM
 70
     0
  9
$DIMTIH
 70
     1
  9
$DIMTOH
 70
     1
  9
$DIMSE1
 70
     0
  9
$DIMSE2
 70
     0
  9
$DIMTAD
 70
     1
  9
$DIMZIN
 70
     0
  9
$DIMBLK
  1

  9
$DIMASO
 70
     1
  9
$DIMSHO
 70
     1
  9
$DIMPOST
  1

  9
$DIMAPOST
  1

  9
$DIMALT
 70
     0
  9
$DIMALTD
 70
     3
  9
$DIMALTF
 40
0.0393700787
  9
$DIMLFAC
 40
5.0
  9
$DIMTOFL
 70
     1
  9
$DIMTVP
 40
0.0
  9
$DIMTIX
 70
     0
  9
$DIMSOXD
 70
     0
  9
$DIMSAH
 70
     0
  9
$DIMBLK1
  1

  9
$DIMBLK2
  1

  9
$DIMSTYLE
  2
ISO-25
  9
$DIMCLRD
 70
     0
  9
$DIMCLRE
 70
     0
  9
$DIMCLRT
 70
     0
  9
$DIMTFAC
 40
1.0
  9
$DIMGAP
 40
1.524
  9
$DIMJUST
 70
     0
  9
$DIMSD1
 70
     0
  9
$DIMSD2
 70
     0
  9
$DIMTOLJ
 70
     0
  9
$DIMTZIN
 70
     0
  9
$DIMALTZ
 70
     0
  9
$DIMALTTZ
 70
     0
  9
$DIMUPT
 70
     0
  9
$DIMDEC
 70
     2
  9
$DIMTDEC
 70
     2
  9
$DIMALTU
 70
     2
  9
$DIMALTTD
 70
     3
  9
$DIMTXSTY
  7
Standard
  9
$DIMAUNIT
 70
     0
  9
$DIMADEC
 70
     2
  9
$DIMALTRND
 40
0.0
  9
$DIMAZIN
 70
     0
  9
$DIMDSEP
 70
    44
  9
$DIMATFIT
 70
     3
  9
$DIMFRAC
 70
     0
  9
$DIMLDRBLK
  1

  9
$DIMLUNIT
 70
     2
  9
$DIMLWD
 70
    -2
  9
$DIMLWE
 70
    -2
  9
$DIMTMOVE
 70
     0
  9
$LUNITS
 70
     2
  9
$LUPREC
 70
     2
  9
$SKETCHINC
 40
1.0
  9
$FILLETRAD
 40
10.0
  9
$AUNITS
 70
     0
  9
$AUPREC
 70
     2
  9
$MENU
  1
.
  9
$ELEVATION
 40
0.0
  9
$PELEVATION
 40
0.0
  9
$THICKNESS
 40
0.0
  9
$LIMCHECK
 70
     0
  9
$CHAMFERA
 40
0.0
  9
$CHAMFERB
 40
0.0
  9
$CHAMFERC
 40
0.0
  9
$CHAMFERD
 40
0.0
  9
$SKPOLY
 70
     0
  9
$TDCREATE
 40
2458054.71855059
  9
$TDUCREATE
 40
2458054.676883924
  9
$TDUPDATE
 40
2458054.71855103
  9
$TDUUPDATE
 40
2458054.676884363
  9
$TDINDWG
 40
0.0000000116
  9
$TDUSRTIMER
 40
0.0000000116
  9
$USRTIMER
 70
     1
  9
$ANGBASE
 50
0.0
  9
$ANGDIR
 70
     0
  9
$PDMODE
 70
     0
  9
$PDSIZE
 40
-1.0
  9
$PLINEWID
 40
0.0
  9
$SPLFRAME
 70
     0
  9
$SPLINETYPE
 70
     6
  9
$SPLINESEGS
 70
     8
  9
$HANDSEED
  5
206
  9
$SURFTAB1
 70
     6
  9
$SURFTAB2
 70
     6
  9
$SURFTYPE
 70
     6
  9
$SURFU
 70
     6
  9
$SURFV
 70
     6
  9
$UCSBASE
  2

  9
$UCSNAME
  2

  9
$UCSORG
 10
0.0
 20
0.0
 30
0.0
  9
$UCSXDIR
 10
1.0
 20
0.0
 30
0.0
  9
$UCSYDIR
 10
0.0
 20
1.0
 30
0.0
  9
$UCSORTHOREF
  2

  9
$UCSORTHOVIEW
 70
     0
  9
$UCSORGTOP
 10
0.0
 20
0.0
 30
0.0
  9
$UCSORGBOTTOM
 10
0.0
 20
0.0
 30
0.0
  9
$UCSORGLEFT
 10
0.0
 20
0.0
 30
0.0
  9
$UCSORGRIGHT
 10
0.0
 20
0.0
 30
0.0
  9
$UCSORGFRONT
 10
0.0
 20
0.0
 30
0.0
  9
$UCSORGBACK
 10
0.0
 20
0.0
 30
0.0
  9
$PUCSBASE
  2

  9
$PUCSNAME
  2

  9
$PUCSORG
 10
0.0
 20
0.0
 30
0.0
  9
$PUCSXDIR
 10
1.0
 20
0.0
 30
0.0
  9
$PUCSYDIR
 10
0.0
 20
1.0
 30
0.0
  9
$PUCSORTHOREF
  2

  9
$PUCSORTHOVIEW
 70
     0
  9
$PUCSORGTOP
 10
0.0
 20
0.0
 30
0.0
  9
$PUCSORGBOTTOM
 10
0.0
 20
0.0
 30
0.0
  9
$PUCSORGLEFT
 10
0.0
 20
0.0
 30
0.0
  9
$PUCSORGRIGHT
 10
0.0
 20
0.0
 30
0.0
  9
$PUCSORGFRONT
 10
0.0
 20
0.0
 30
0.0
  9
$PUCSORGBACK
 10
0.0
 20
0.0
 30
0.0
  9
$USERI1
 70
     0
  9
$USERI2
 70
     0
  9
$USERI3
 70
     0
  9
$USERI4
 70
     0
  9
$USERI5
 70
     0
  9
$USERR1
 40
0.0
  9
$USERR2
 40
0.0
  9
$USERR3
 40
0.0
  9
$USERR4
 40
0.0
  9
$USERR5
 40
0.0
  9
$WORLDVIEW
 70
     1
  9
$SHADEDGE
 70
     3
  9
$SHADEDIF
 70
    70
  9
$TILEMODE
 70
     1
  9
$MAXACTVP
 70
    64
  9
$PINSBASE
 10
0.0
 20
0.0
 30
0.0
  9
$PLIMCHECK
 70
     0
  9
$PEXTMIN
 10
1.0000000000E+20
 20
1.0000000000E+20
 30
1.0000000000E+20
  9
$PEXTMAX
 10
-1.0000000000E+20
 20
-1.0000000000E+20
 30
-1.0000000000E+20
  9
$PLIMMIN
 10
0.0
 20
0.0
  9
$PLIMMAX
 10
420.0
 20
297.0
  9
$UNITMODE
 70
     0
  9
$VISRETAIN
 70
     1
  9
$PLINEGEN
 70
     0
  9
$PSLTSCALE
 70
     1
  9
$TREEDEPTH
 70
  3020
  9
$CMLSTYLE
  2
Standard
  9
$CMLJUST
 70
     0
  9
$CMLSCALE
 40
20.0
  9
$PROXYGRAPHICS
 70
     1
  9
$MEASUREMENT
 70
     1
  9
$CELWEIGHT
370
    -1
  9
$ENDCAPS
280
     0
  9
$JOINSTYLE
280
     0
  9
$LWDISPLAY
290
     1
  9
$INSUNITS
 70
     4
  9
$HYPERLINKBASE
  1

  9
$STYLESHEET
  1

  9
$XEDIT
290
     1
  9
$CEPSNTYPE
380
     0
  9
$PSTYLEMODE
290
     1
  9
$FINGERPRINTGUID
  2
{BA13E146-9E02-47DE-A9E9-8274F023A3CD}
  9
$VERSIONGUID
  2
{FAEB1C32-E019-11D5-929B-00C0DF256EC4}
  9
$EXTNAMES
290
     1
  9
$PSVPSCALE
 40
0.0
  9
$OLESTARTUP
290
     0
  0
ENDSEC
  0
SECTION
  2
CLASSES
  0
CLASS
  1
ACDBDICTIONARYWDFLT
  2
AcDbDictionaryWithDefault
  3
ObjectDBX Classes
 90
        0
280
     0
281
     0
  0
CLASS
  1
VISUALSTYLE
  2
AcDbVisualStyle
  3
ObjectDBX Classes
 90
     4095
280
     0
281
     0
  0
CLASS
  1
MATERIAL
  2
AcDbMaterial
  3
ObjectDBX Classes
 90
     1153
280
     0
281
     0
  0
CLASS
  1
SCALE
  2
AcDbScale
  3
ObjectDBX Classes
 90
     1153
280
     0
281
     0
  0
CLASS
  1
TABLESTYLE
  2
AcDbTableStyle
  3
ObjectDBX Classes
 90
     4095
280
     0
281
     0
  0
CLASS
  1
MLEADERSTYLE
  2
AcDbMLeaderStyle
  3
ACDB_MLEADERSTYLE_CLASS
 90
     4095
280
     0
281
     0
  0
CLASS
  1
SUN
  2
AcDbSun
  3
SCENEOE
 90
     1153
280
     0
281
     0
  0
CLASS
  1
ACDBPLACEHOLDER
  2
AcDbPlaceHolder
  3
ObjectDBX Classes
 90
        0
280
     0
281
     0
  0
CLASS
  1
LAYOUT
  2
AcDbLayout
  3
ObjectDBX Classes
 90
        0
280
     0
281
     0
  0
ENDSEC
  0
SECTION
  2
TABLES
  0
TABLE
  2
VPORT
  5
8
330
0
100
AcDbSymbolTable
 70
     1
  0
VPORT
  5
29
330
8
100
AcDbSymbolTableRecord
100
AcDbViewportTableRecord
  2
*Active
 70
     0
 10
0.0
 20
0.0
 11
1.0
 21
1.0
 12
594.5
 22
420.5
 13
0.0
 23
0.0
 14
10.0
 24
10.0
 15
10.0
 25
10.0
 16
0.0
 26
0.0
 36
1.0
 17
0.0
 27
0.0
 37
0.0
 40
841.0
 41
1.4137931034
 42
50.0
 43
0.0
 44
0.0
 50
0.0
 51
0.0
 71
     0
 72
  2000
 73
     1
 74
     3
 75
     0
 76
     0
 77
     0
 78
     0
281
     0
 65
     1
110
0.0
120
0.0
130
0.0
111
1.0
121
0.0
131
0.0
112
0.0
122
1.0
132
0.0
 79
     0
146
0.0
  0
ENDTAB
  0
TABLE
  2
LTYPE
  5
5
330
0
100
AcDbSymbolTable
 70
     6
  0
LTYPE
  5
14
330
5
100
AcDbSymbolTableRecord
100
AcDbLinetypeTableRecord
  2
ByBlock
 70
     0
  3

 72
    65
 73
     0
 40
0.0
  0
LTYPE
  5
15
330
5
100
AcDbSymbolTableRecord
100
AcDbLinetypeTableRecord
  2
ByLayer
 70
     0
  3

 72
    65
 73
     0
 40
0.0
  0
LTYPE
  5
16
330
5
100
AcDbSymbolTableRecord
100
AcDbLinetypeTableRecord
  2
Continuous
 70
     0
  3
Solid line
 72
    65
 73
     0
 40
0.0
  0
LTYPE
  5
6E
330
5
100
AcDbSymbolTableRecord
100
AcDbLinetypeTableRecord
  2
HIDDEN
 70
     0
  3
Hidden __ __ __ __ __ __ __ __ __ __ __ __ __ __
 72
    65
 73
     2
 40
1.905
 49
1.27
 74
     0
 49
-0.635
 74
     0
  0
LTYPE
  5
6F
330
5
100
AcDbSymbolTableRecord
100
AcDbLinetypeTableRecord
  2
PHANTOM
 70
     0
  3
Phantom ______  __  __  ______  __  __  ______
 72
    65
 73
     6
 40
12.7
 49
6.35
 74
     0
 49
-1.27
 74
     0
 49
1.27
 74
     0
 49
-1.27
 74
     0
 49
1.27
 74
     0
 49
-1.27
 74
     0
  0
LTYPE
  5
70
330
5
100
AcDbSymbolTableRecord
100
AcDbLinetypeTableRecord
  2
CENTER
 70
     0
  3
Center ____ _ ____ _ ____ _ ____ _ ____ _ ____
 72
    65
 73
     4
 40
10.16
 49
6.35
 74
     0
 49
-1.27
 74
     0
 49
1.27
 74
     0
 49
-1.27
 74
     0
  0
LTYPE
  5
71
330
5
100
AcDbSymbolTableRecord
100
AcDbLinetypeTableRecord
  2
CENTERX2
 70
     0
  3
Center (2x) ________  __  ________  __  _____
 72
    65
 73
     4
 40
20.32
 49
12.7
 74
     0
 49
-2.54
 74
     0
 49
2.54
 74
     0
 49
-2.54
 74
     0
  0
LTYPE
  5
72
330
5
100
AcDbSymbolTableRecord
100
AcDbLinetypeTableRecord
  2
DOT2
 70
     0
  3
Dot (.5x) ........................................
 72
    65
 73
     2
 40
0.635
 49
0.0
 74
     0
 49
-0.635
 74
     0
  0
ENDTAB
  0
TABLE
  2
LAYER
  5
2
330
0
100
AcDbSymbolTable
 70
     2
  0
LAYER
  5
10
330
2
100
AcDbSymbolTableRecord
100
AcDbLayerTableRecord
  2
0
 70
     0
 62
     7
  6
Continuous
370
    -3
390
F
  0
LAYER
  5
73
330
2
100
AcDbSymbolTableRecord
100
AcDbLayerTableRecord
  2
FORMAT
 70
     0
 62
     7
  6
Continuous
370
    -3
390
F
  0
ENDTAB
  0
TABLE
  2
STYLE
  5
3
330
0
100
AcDbSymbolTable
 70
     1
  0
STYLE
  5
11
330
3
100
AcDbSymbolTableRecord
100
AcDbTextStyleTableRecord
  2
Standard
 70
     0
 40
0.0
 41
1.0
 50
0.0
 71
     0
 42
3.5
  3
txt
  4

  0
ENDTAB
  0
TABLE
  2
VIEW
  5
6
330
0
100
AcDbSymbolTable
 70
     0
  0
ENDTAB
  0
TABLE
  2
UCS
  5
7
330
0
100
AcDbSymbolTable
 70
     0
  0
ENDTAB
  0
TABLE
  2
APPID
  5
9
330
0
100
AcDbSymbolTable
 70
     1
  0
APPID
  5
12
330
9
100
AcDbSymbolTableRecord
100
AcDbRegAppTableRecord
  2
ACAD
 70
     0
  0
ENDTAB
  0
TABLE
  2
DIMSTYLE
  5
A
330
0
100
AcDbSymbolTable
 70
     1
100
AcDbDimStyleTable
  0
DIMSTYLE
105
27
330
A
100
AcDbSymbolTableRecord
100
AcDbDimStyleTableRecord
  2
ISO-25
 70
     0
 41
2.5
 42
0.625
 43
3.75
 44
1.25
 73
     0
 74
     0
 77
     1
 78
     8
140
2.5
141
2.5
143
0.0393700787
147
0.625
171
     3
172
     1
178
     0
271
     2
272
     2
274
     3
278
    44
283
     0
284
     8
340
11
  0
ENDTAB
  0
TABLE
  2
BLOCK_RECORD
  5
1
330
0
100
AcDbSymbolTable
 70
     1
  0
BLOCK_RECORD
  5
1F
330
1
100
AcDbSymbolTableRecord
100
AcDbBlockTableRecord
  2
*Model_Space
340
22
  0
BLOCK_RECORD
  5
1B
330
1
100
AcDbSymbolTableRecord
100
AcDbBlockTableRecord
  2
*Paper_Space
340
1E
  0
BLOCK_RECORD
  5
23
330
1
100
AcDbSymbolTableRecord
100
AcDbBlockTableRecord
  2
*Paper_Space0
340
26
  0
ENDTAB
  0
ENDSEC
  0
SECTION
  2
BLOCKS
  0
BLOCK
  5
20
330
1F
100
AcDbEntity
  8
0
100
AcDbBlockBegin
  2
*Model_Space
 70
     0
 10
0.0
 20
0.0
 30
0.0
  3
*Model_Space
  1

  0
ENDBLK
  5
21
330
1F
100
AcDbEntity
  8
0
100
AcDbBlockEnd
  0
BLOCK
  5
1C
330
1B
100
AcDbEntity
 67
     1
  8
0
100
AcDbBlockBegin
  2
*Paper_Space
 70
     0
 10
0.0
 20
0.0
 30
0.0
  3
*Paper_Space
  1

  0
ENDBLK
  5
1D
330
1B
100
AcDbEntity
 67
     1
  8
0
100
AcDbBlockEnd
  0
BLOCK
  5
24
330
23
100
AcDbEntity
  8
0
100
AcDbBlockBegin
  2
*Paper_Space0
 70
     0
 10
0.0
 20
0.0
 30
0.0
  3
*Paper_Space0
  1

  0
ENDBLK
  5
25
330
23
100
AcDbEntity
  8
0
100
AcDbBlockEnd
  0
ENDSEC
  0
SECTION
  2
ENTITIES
  0
ARC
  5
74
330
1F
100
AcDbEntity
  8
0
  6
Continuous
 62
     7
370
    15
100
AcDbCircle
 10
406.6137169155
 20
218.7286453312
 30
0.0
 40
1.577852635296911
100
AcDbArc
 50
285.5620765276
 51
0.5282339495
  0
ARC
  5
75
330
1F
100
AcDbEntity
  8
0
  6
Continuous
 62
     7
370
    15
100
AcDbCircle
 10
285.0616916645
 20
218.7295359663
 30
0.0
 40
1.578935365023304
100
AcDbArc
 50
179.5126431282
 51
254.4173230007
  0
LINE
  5
76
330
1F
100
AcDbEntity
  8
0
  6
Continuous
 62
     7
370
    15
100
AcDbLine
 10
283.3992652749
 20
237.993486983
 30
0.0
 11
283.4747038468
 21
218.7430207592
 31
0.0
  0
LINE
  5
77
330
1F
100
AcDbEntity
  8
0
  6
Continuous
 62
     7
370
    15
100
AcDbLine
 10
408.1998673951
 20
218.7430207592
 30
0.0
 11
408.275305967
 21
237.993486983
 31
0.0
  0
ARC
  5
78
330
1F
100
AcDbEntity
  8
0
  6
Continuous
 62
     7
370
    15
100
AcDbCircle
 10
286.3992422398
 20
238.0052432686
 30
0.0
 40
3.000000000000041
100
AcDbArc
 50
90.0
 51
180.2245290898
  0
ARC
  5
79
330
1F
100
AcDbEntity
  8
0
  6
Continuous
 62
     7
370
    15
100
AcDbCircle
 10
405.2753290022
 20
238.0052432686
 30
0.0
 40
3.000000000000041
100
AcDbArc
 50
359.7754709102
 51
90.0
  0
LINE
  5
7A
330
1F
100
AcDbEntity
  8
0
  6
Continuous
 62
     7
370
    15
100
AcDbLine
 10
405.2753290022
 20
241.0052432686
 30
0.0
 11
286.3992422398
 21
241.0052432686
 31
0.0
  0
LINE
  5
7B
330
1F
100
AcDbEntity
  8
0
  6
Continuous
 62
     7
370
    15
100
AcDbLine
 10
405.7563990658
 20
216.840155649
 30
0.0
 11
407.0370267779
 21
217.2086362197
 31
0.0
  0
LINE
  5
7C
330
1F
100
AcDbEntity
  8
0
  6
Continuous
 62
     7
370
    15
100
AcDbLine
 10
284.637544464
 20
217.2086362197
 30
0.0
 11
285.9181721761
 21
216.840155649
 31
0.0
  0
ARC
  5
7D
330
1F
100
AcDbEntity
  8
0
  6
Continuous
 62
     7
370
    15
100
AcDbCircle
 10
391.6204056175
 20
251.5320097386
 30
0.0
 40
5.917424666028408
100
AcDbArc
 50
269.1951597381
 51
359.222611085
  0
LINE
  5
7E
330
1F
100
AcDbEntity
  8
0
  6
Continuous
 62
     7
370
    15
100
AcDbLine
 10
300.137285621
 20
245.6151688801
 30
0.0
 11
391.537285621
 21
245.6151688801
 31
0.0
  0
ARC
  5
7F
330
1F
100
AcDbEntity
  8
0
  6
Continuous
 62
     7
370
    15
100
AcDbCircle
 10
300.0566798318
 20
251.5345943526
 30
0.0
 40
5.919974258181316
100
AcDbArc
 50
180.8020713521
 51
270.7801578248
  0
ARC
  5
80
330
1F
100
AcDbEntity
  8
0
  6
Continuous
 62
     7
370
    15
100
AcDbCircle
 10
391.6178914102
 20
304.670536354
 30
0.0
 40
5.919974258181371
100
AcDbArc
 50
0.8020713521
 51
90.7801578248
  0
ARC
  5
81
330
1F
100
AcDbEntity
  8
0
  6
Continuous
 62
     7
370
    15
100
AcDbCircle
 10
300.0541656245
 20
304.673120968
 30
0.0
 40
5.917424666028296
100
AcDbArc
 50
89.1951597381
 51
179.222611085
  0
LINE
  5
82
330
1F
100
AcDbEntity
  8
0
  6
Continuous
 62
     7
370
    15
100
AcDbLine
 10
391.537285621
 20
310.5899618265
 30
0.0
 11
300.137285621
 21
310.5899618265
 31
0.0
  0
LINE
  5
83
330
1F
100
AcDbEntity
  8
0
  6
Continuous
 62
     7
370
    15
100
AcDbLine
 10
397.7289300332
 20
264.3959036001
 30
0.0
 11
397.7289300332
 21
269.3765864002
 31
0.0
  0
LINE
  5
84
330
1F
100
AcDbEntity
  8
0
  6
Continuous
 62
     7
370
    15
100
AcDbLine
 10
293.9456412087
 20
264.3959036001
 30
0.0
 11
294.137285621
 21
264.3959036001
 31
0.0
  0
LINE
  5
85
330
1F
100
AcDbEntity
  8
0
  6
Continuous
 62
     7
370
    15
100
AcDbLine
 10
397.537285621
 20
264.3959036001
 30
0.0
 11
397.7289300332
 21
264.3959036001
 31
0.0
  0
LINE
  5
86
330
1F
100
AcDbEntity
  8
0
  6
Continuous
 62
     7
370
    15
100
AcDbLine
 10
293.9456412087
 20
264.3959036001
 30
0.0
 11
293.9456412087
 21
269.3765864002
 31
0.0
  0
LINE
  5
87
330
1F
100
AcDbEntity
  8
0
  6
Continuous
 62
     7
370
    15
100
AcDbLine
 10
293.9456412087
 20
269.3765864002
 30
0.0
 11
294.137285621
 21
269.3765864002
 31
0.0
  0
LINE
  5
88
330
1F
100
AcDbEntity
  8
0
  6
Continuous
 62
     7
370
    15
100
AcDbLine
 10
397.537285621
 20
269.3765864002
 30
0.0
 11
397.7289300332
 21
269.3765864002
 31
0.0
  0
LINE
  5
89
330
1F
100
AcDbEntity
  8
0
  6
Continuous
 62
     7
370
    15
100
AcDbLine
 10
294.137285621
 20
264.2027922905
 30
0.0
 11
293.9456412087
 21
264.3959036001
 31
0.0
  0
LINE
  5
8A
330
1F
100
AcDbEntity
  8
0
  6
Continuous
 62
     7
370
    15
100
AcDbLine
 10
397.7289300332
 20
264.3959036001
 30
0.0
 11
397.537285621
 21
264.2027922905
 31
0.0
  0
LINE
  5
8B
330
1F
100
AcDbEntity
  8
0
  6
Continuous
 62
     7
370
    15
100
AcDbLine
 10
397.537285621
 20
304.7534060997
 30
0.0
 11
397.537285621
 21
255.5864401685
 31
0.0
  0
LINE
  5
8C
330
1F
100
AcDbEntity
  8
0
  6
Continuous
 62
     7
370
    15
100
AcDbLine
 10
294.137285621
 20
255.5864401685
 30
0.0
 11
294.137285621
 21
304.7534060997
 31
0.0
  0
LINE
  5
8D
330
1F
100
AcDbEntity
  8
0
  6
Continuous
 62
     7
370
    15
100
AcDbLine
 10
397.537285621
 20
255.5864401685
 30
0.0
 11
397.537285621
 21
251.4517246069
 31
0.0
  0
LINE
  5
8E
330
1F
100
AcDbEntity
  8
0
  6
Continuous
 62
     7
370
    15
100
AcDbLine
 10
294.137285621
 20
251.4517246069
 30
0.0
 11
294.137285621
 21
255.5864401685
 31
0.0
  0
LINE
  5
8F
330
1F
100
AcDbEntity
  8
0
  6
Continuous
 62
     7
370
    15
100
AcDbLine
 10
406.6146560235
 20
277.2883208177
 30
0.0
 11
399.4084661412
 21
270.0269728394
 31
0.0
  0
LINE
  5
90
330
1F
100
AcDbEntity
  8
0
  6
Continuous
 62
     7
370
    15
100
AcDbLine
 10
399.4084661412
 20
270.0269728394
 30
0.0
 11
399.3833039125
 21
273.3143197768
 31
0.0
  0
LINE
  5
91
330
1F
100
AcDbEntity
  8
0
  6
Continuous
 62
     7
370
    15
100
AcDbLine
 10
406.5492272767
 20
280.5350930263
 30
0.0
 11
399.3833039125
 21
273.3143197768
 31
0.0
  0
LINE
  5
92
330
1F
100
AcDbEntity
  8
0
  6
Continuous
 62
     7
370
    15
100
AcDbLine
 10
406.6146560235
 20
277.2883208177
 30
0.0
 11
406.5492272767
 21
280.5350930263
 31
0.0
  0
LINE
  5
93
330
1F
100
AcDbEntity
  8
0
  6
Continuous
 62
     7
370
    15
100
AcDbLine
 10
406.6146560235
 20
277.2883208177
 30
0.0
 11
413.9864967894
 21
277.2883208177
 31
0.0
  0
LINE
  5
94
330
1F
100
AcDbEntity
  8
0
  6
Continuous
 62
     7
370
    15
100
AcDbLine
 10
412.5914076247
 20
275.8825532691
 30
0.0
 11
413.9864967894
 21
277.2883208177
 31
0.0
  0
LINE
  5
95
330
1F
100
AcDbEntity
  8
0
  6
Continuous
 62
     7
370
    15
100
AcDbLine
 10
400.6038997789
 20
270.0269728394
 30
0.0
 11
407.5496249667
 21
277.025862457
 31
0.0
  0
LINE
  5
96
330
1F
100
AcDbEntity
  8
0
  6
Continuous
 62
     7
370
    15
100
AcDbLine
 10
399.4084661412
 20
270.0269728394
 30
0.0
 11
400.6038997789
 21
270.0269728394
 31
0.0
  0
LINE
  5
97
330
1F
100
AcDbEntity
  8
0
  6
Continuous
 62
     7
370
    15
100
AcDbLine
 10
413.9210680426
 20
280.5350930263
 30
0.0
 11
413.9181016869
 21
280.5379655139
 31
0.0
  0
LINE
  5
98
330
1F
100
AcDbEntity
  8
0
  6
Continuous
 62
     7
370
    15
100
AcDbLine
 10
413.9210680426
 20
280.5350930263
 30
0.0
 11
413.9864967894
 21
277.2883208177
 31
0.0
  0
LINE
  5
99
330
1F
100
AcDbEntity
  8
0
  6
Continuous
 62
     7
370
    15
100
AcDbLine
 10
406.55207786
 20
280.5379655139
 30
0.0
 11
406.5492272767
 21
280.5350930263
 31
0.0
  0
LINE
  5
9A
330
1F
100
AcDbEntity
  8
0
  6
Continuous
 62
     7
370
    15
100
AcDbLine
 10
413.9181016869
 20
280.5379655139
 30
0.0
 11
406.55207786
 21
280.5379655139
 31
0.0
  0
LINE
  5
9B
330
1F
100
AcDbEntity
  8
0
  6
Continuous
 62
     7
370
    15
100
AcDbLine
 10
399.3833039125
 20
273.3143197768
 30
0.0
 11
399.6798748466
 21
273.6131694983
 31
0.0
  0
LINE
  5
9C
330
1F
100
AcDbEntity
  8
0
  6
Continuous
 62
     7
370
    15
100
AcDbLine
 10
399.6798748466
 20
273.6131694983
 30
0.0
 11
406.8115341363
 21
280.7994164071
 31
0.0
  0
LINE
  5
9D
330
1F
100
AcDbEntity
  8
0
  6
Continuous
 62
     7
370
    15
100
AcDbLine
 10
406.55207786
 20
280.5379655139
 30
0.0
 11
406.8115341363
 21
280.7994164071
 31
0.0
  0
LINE
  5
9E
330
1F
100
AcDbEntity
  8
0
  6
Continuous
 62
     7
370
    15
100
AcDbLine
 10
406.8115341363
 20
280.7994164071
 30
0.0
 11
413.5856580833
 21
280.7994164071
 31
0.0
  0
LINE
  5
9F
330
1F
100
AcDbEntity
  8
0
  6
Continuous
 62
     7
370
    15
100
AcDbLine
 10
413.9181016869
 20
280.5379655139
 30
0.0
 11
413.5856580833
 21
280.7994164071
 31
0.0
  0
LINE
  5
A0
330
1F
100
AcDbEntity
  8
0
  6
Continuous
 62
     7
370
    15
100
AcDbLine
 10
290.9624168311
 20
241.0052432686
 30
0.0
 11
289.2604319526
 21
269.0404370603
 31
0.0
  0
LINE
  5
A1
330
1F
100
AcDbEntity
  8
0
  6
Continuous
 62
     7
370
    15
100
AcDbLine
 10
289.2604319526
 20
269.0404370603
 30
0.0
 11
284.4667691507
 21
273.8707918335
 31
0.0
  0
LINE
  5
A2
330
1F
100
AcDbEntity
  8
0
  6
Continuous
 62
     7
370
    15
100
AcDbLine
 10
284.4667691507
 20
273.8707918335
 30
0.0
 11
283.6608832978
 21
239.2305555982
 31
0.0
  0
LINE
  5
A3
330
1F
100
AcDbEntity
  8
0
  6
Continuous
 62
     7
370
    15
100
AcDbLine
 10
283.4328317301
 20
229.4279760507
 30
0.0
 11
283.1459373019
 21
217.0960921578
 31
0.0
  0
LINE
  5
A4
330
1F
100
AcDbEntity
  8
0
  6
Continuous
 62
     7
370
    15
100
AcDbLine
 10
283.1459373019
 20
217.0960921578
 30
0.0
 11
283.779186255
 21
216.9132974702
 31
0.0
  0
LINE
  5
A5
330
1F
100
AcDbEntity
  8
0
  6
Continuous
 62
     7
370
    15
100
AcDbLine
 10
283.779186255
 20
216.9132974702
 30
0.0
 11
283.7681666117
 21
211.9258896096
 31
0.0
  0
LINE
  5
A6
330
1F
100
AcDbEntity
  8
0
  6
Continuous
 62
     7
370
    15
100
AcDbLine
 10
283.7681666117
 20
211.9258896096
 30
0.0
 11
284.2054704962
 21
211.7996567488
 31
0.0
  0
LINE
  5
A7
330
1F
100
AcDbEntity
  8
0
  6
Continuous
 62
     7
370
    15
100
AcDbLine
 10
292.6967210591
 20
209.3485583509
 30
0.0
 11
293.1340249436
 21
209.22232549
 31
0.0
  0
LINE
  5
A8
330
1F
100
AcDbEntity
  8
0
  6
Continuous
 62
     7
370
    15
100
AcDbLine
 10
293.4216384376
 20
209.22232549
 30
0.0
 11
296.457379213
 21
159.217427082
 31
0.0
  0
LINE
  5
A9
330
1F
100
AcDbEntity
  8
0
  6
Continuous
 62
     7
370
    15
100
AcDbLine
 10
296.457379213
 20
159.217427082
 30
0.0
 11
295.9276625658
 21
159.217427082
 31
0.0
  0
LINE
  5
AA
330
1F
100
AcDbEntity
  8
0
  6
Continuous
 62
     7
370
    15
100
AcDbLine
 10
295.9276625658
 20
159.217427082
 30
0.0
 11
292.8882819739
 21
209.2822807587
 31
0.0
  0
LINE
  5
AB
330
1F
100
AcDbEntity
  8
0
  6
Continuous
 62
     7
370
    15
100
AcDbLine
 10
292.8882819739
 20
209.2822807587
 30
0.0
 11
283.0303547524
 21
212.1278862959
 31
0.0
  0
LINE
  5
AC
330
1F
100
AcDbEntity
  8
0
  6
Continuous
 62
     7
370
    15
100
AcDbLine
 10
283.0303547524
 20
212.1278862959
 30
0.0
 11
281.7994223113
 21
159.217427082
 31
0.0
  0
LINE
  5
AD
330
1F
100
AcDbEntity
  8
0
  6
Continuous
 62
     7
370
    15
100
AcDbLine
 10
281.7994223113
 20
159.217427082
 30
0.0
 11
281.349987756
 21
159.217427082
 31
0.0
  0
LINE
  5
AE
330
1F
100
AcDbEntity
  8
0
  6
Continuous
 62
     7
370
    15
100
AcDbLine
 10
281.349987756
 20
159.217427082
 30
0.0
 11
284.0915191762
 21
277.0595454161
 31
0.0
  0
LINE
  5
AF
330
1F
100
AcDbEntity
  8
0
  6
Continuous
 62
     7
370
    15
100
AcDbLine
 10
292.2737302846
 20
271.0231733283
 30
0.0
 11
293.9456412087
 21
269.3384651528
 31
0.0
  0
LINE
  5
B0
330
1F
100
AcDbEntity
  8
0
  6
Continuous
 62
     7
370
    15
100
AcDbLine
 10
294.137285621
 20
264.1262546555
 30
0.0
 11
289.8246647212
 21
268.4718855039
 31
0.0
  0
LINE
  5
B1
330
1F
100
AcDbEntity
  8
0
  6
Continuous
 62
     7
370
    15
100
AcDbLine
 10
289.8246647212
 20
268.4718855039
 30
0.0
 11
291.4921334783
 21
241.0052432686
 31
0.0
  0
LINE
  5
B2
330
1F
100
AcDbEntity
  8
0
  6
Continuous
 62
     7
370
    15
100
AcDbLine
 10
292.7021367441
 20
211.7996567488
 30
0.0
 11
292.6967210591
 21
209.3485583509
 31
0.0
  0
LINE
  5
B3
330
1F
100
AcDbEntity
  8
0
  6
Continuous
 62
     7
370
    15
100
AcDbLine
 10
276.3690142655
 20
159.217427082
 30
0.0
 11
279.1105456857
 21
277.0595454161
 31
0.0
  0
LINE
  5
B4
330
1F
100
AcDbEntity
  8
0
  6
Continuous
 62
     7
370
    15
100
AcDbLine
 10
281.349987756
 20
159.217427082
 30
0.0
 11
276.3690142655
 21
159.217427082
 31
0.0
  0
LINE
  5
B5
330
1F
100
AcDbEntity
  8
0
  6
Continuous
 62
     7
370
    15
100
AcDbLine
 10
410.3245834859
 20
159.217427082
 30
0.0
 11
407.5830520658
 21
277.0595454161
 31
0.0
  0
LINE
  5
B6
330
1F
100
AcDbEntity
  8
0
  6
Continuous
 62
     7
370
    15
100
AcDbLine
 10
415.3055569764
 20
159.217427082
 30
0.0
 11
412.5640255562
 21
277.0595454161
 31
0.0
  0
LINE
  5
B7
330
1F
100
AcDbEntity
  8
0
  6
Continuous
 62
     7
370
    15
100
AcDbLine
 10
410.3245834859
 20
159.217427082
 30
0.0
 11
415.3055569764
 21
159.217427082
 31
0.0
  0
LINE
  5
B8
330
1F
100
AcDbEntity
  8
0
  6
Continuous
 62
     7
370
    15
100
AcDbLine
 10
397.537285621
 20
264.1262546555
 30
0.0
 11
401.8499065208
 21
268.4718855039
 31
0.0
  0
LINE
  5
B9
330
1F
100
AcDbEntity
  8
0
  6
Continuous
 62
     7
370
    15
100
AcDbLine
 10
399.4008409574
 20
271.0231733283
 30
0.0
 11
397.7289300332
 21
269.3384651528
 31
0.0
  0
LINE
  5
BA
330
1F
100
AcDbEntity
  8
0
  6
Continuous
 62
     7
370
    15
100
AcDbLine
 10
408.6442164895
 20
212.1278862959
 30
0.0
 11
409.8751489307
 21
159.217427082
 31
0.0
  0
LINE
  5
BB
330
1F
100
AcDbEntity
  8
0
  6
Continuous
 62
     7
370
    15
100
AcDbLine
 10
398.7862892681
 20
209.2822807587
 30
0.0
 11
408.6442164895
 21
212.1278862959
 31
0.0
  0
LINE
  5
BC
330
1F
100
AcDbEntity
  8
0
  6
Continuous
 62
     7
370
    15
100
AcDbLine
 10
395.7469086761
 20
159.217427082
 30
0.0
 11
398.7862892681
 21
209.2822807587
 31
0.0
  0
LINE
  5
BD
330
1F
100
AcDbEntity
  8
0
  6
Continuous
 62
     7
370
    15
100
AcDbLine
 10
395.2171920289
 20
159.217427082
 30
0.0
 11
395.7469086761
 21
159.217427082
 31
0.0
  0
LINE
  5
BE
330
1F
100
AcDbEntity
  8
0
  6
Continuous
 62
     7
370
    15
100
AcDbLine
 10
398.2529328044
 20
209.22232549
 30
0.0
 11
395.2171920289
 21
159.217427082
 31
0.0
  0
LINE
  5
BF
330
1F
100
AcDbEntity
  8
0
  6
Continuous
 62
     7
370
    15
100
AcDbLine
 10
398.9778501829
 20
209.3485583509
 30
0.0
 11
398.5405462983
 21
209.22232549
 31
0.0
  0
LINE
  5
C0
330
1F
100
AcDbEntity
  8
0
  6
Continuous
 62
     7
370
    15
100
AcDbLine
 10
398.9724344978
 20
211.7996567488
 30
0.0
 11
398.9778501829
 21
209.3485583509
 31
0.0
  0
LINE
  5
C1
330
1F
100
AcDbEntity
  8
0
  6
Continuous
 62
     7
370
    15
100
AcDbLine
 10
401.8499065208
 20
268.4718855039
 30
0.0
 11
400.1824377636
 21
241.0052432686
 31
0.0
  0
LINE
  5
C2
330
1F
100
AcDbEntity
  8
0
  6
Continuous
 62
     7
370
    15
100
AcDbLine
 10
407.8953849869
 20
216.9132974702
 30
0.0
 11
407.9064046303
 21
211.9258896096
 31
0.0
  0
LINE
  5
C3
330
1F
100
AcDbEntity
  8
0
  6
Continuous
 62
     7
370
    15
100
AcDbLine
 10
408.5286339401
 20
217.0960921578
 30
0.0
 11
407.8953849869
 21
216.9132974702
 31
0.0
  0
LINE
  5
C4
330
1F
100
AcDbEntity
  8
0
  6
Continuous
 62
     7
370
    15
100
AcDbLine
 10
407.2078020912
 20
273.8707918335
 30
0.0
 11
408.0136879441
 21
239.2305555982
 31
0.0
  0
LINE
  5
C5
330
1F
100
AcDbEntity
  8
0
  6
Continuous
 62
     7
370
    15
100
AcDbLine
 10
408.2417395118
 20
229.4279760507
 30
0.0
 11
408.5286339401
 21
217.0960921578
 31
0.0
  0
LINE
  5
C6
330
1F
100
AcDbEntity
  8
0
  6
Continuous
 62
     7
370
    15
100
AcDbLine
 10
402.4141392893
 20
269.0404370603
 30
0.0
 11
407.2078020912
 21
273.8707918335
 31
0.0
  0
LINE
  5
C7
330
1F
100
AcDbEntity
  8
0
  6
Continuous
 62
     7
370
    15
100
AcDbLine
 10
400.7121544108
 20
241.0052432686
 30
0.0
 11
402.4141392893
 21
269.0404370603
 31
0.0
  0
LINE
  5
C8
330
1F
100
AcDbEntity
  8
0
  6
Continuous
 62
     7
370
    15
100
AcDbLine
 10
407.9064046303
 20
211.9258896096
 30
0.0
 11
407.4691007457
 21
211.7996567488
 31
0.0
  0
LINE
  5
C9
330
1F
100
AcDbEntity
  8
0
  6
Continuous
 62
     7
370
    15
100
AcDbLine
 10
409.8751489307
 20
159.217427082
 30
0.0
 11
410.3245834859
 21
159.217427082
 31
0.0
  0
LINE
  5
CA
330
1F
100
AcDbEntity
  8
0
  6
Continuous
 62
     7
370
    15
100
AcDbLine
 10
292.8882819739
 20
209.2822807587
 30
0.0
 11
287.9073084834
 21
209.2822807587
 31
0.0
  0
LINE
  5
CB
330
1F
100
AcDbEntity
  8
0
  6
Continuous
 62
     7
370
    15
100
AcDbLine
 10
287.9073084834
 20
209.2822807587
 30
0.0
 11
282.997127898
 21
210.6996615882
 31
0.0
  0
LINE
  5
CC
330
1F
100
AcDbEntity
  8
0
  6
Continuous
 62
     7
370
    15
100
AcDbLine
 10
398.7862892681
 20
209.2822807587
 30
0.0
 11
403.7672627585
 21
209.2822807587
 31
0.0
  0
LINE
  5
CD
330
1F
100
AcDbEntity
  8
0
  6
Continuous
 62
     7
370
    15
100
AcDbLine
 10
403.7672627585
 20
209.2822807587
 30
0.0
 11
408.677443344
 21
210.6996615882
 31
0.0
  0
LINE
  5
CE
330
1F
100
AcDbEntity
  8
0
  6
Continuous
 62
     7
370
    15
100
AcDbLine
 10
407.895360686
 20
216.9242958821
 30
0.0
 11
407.8953849869
 21
216.9132974702
 31
0.0
  0
LINE
  5
CF
330
1F
100
AcDbEntity
  8
0
  6
Continuous
 62
     7
370
    15
100
AcDbLine
 10
283.7681666117
 20
211.9258896096
 30
0.0
 11
407.9064046303
 21
211.9258896096
 31
0.0
  0
LINE
  5
D0
330
1F
100
AcDbEntity
  8
0
  6
Continuous
 62
     7
370
    15
100
AcDbLine
 10
283.779210556
 20
216.9242958821
 30
0.0
 11
283.779186255
 21
216.9132974702
 31
0.0
  0
LINE
  5
D1
330
1F
100
AcDbEntity
  8
0
  6
Continuous
 62
     7
370
    15
100
AcDbLine
 10
283.779210556
 20
216.9242958821
 30
0.0
 11
285.6257488496
 21
216.9242958821
 31
0.0
  0
LINE
  5
D2
330
1F
100
AcDbEntity
  8
0
  6
Continuous
 62
     7
370
    15
100
AcDbLine
 10
406.0488223924
 20
216.9242958821
 30
0.0
 11
407.895360686
 21
216.9242958821
 31
0.0
  0
LINE
  5
D3
330
1F
100
AcDbEntity
  8
0
  6
Continuous
 62
     7
370
    15
100
AcDbLine
 10
284.2054704962
 20
211.7996567488
 30
0.0
 11
407.4691007457
 21
211.7996567488
 31
0.0
  0
LWPOLYLINE
  5
D4
330
1F
100
AcDbEntity
  8
0
  6
Continuous
 62
     7
370
    15
100
AcDbPolyline
 90
       22
 70
   128
 43
0.0
 10
295.9978624982
 20
211.8425759215
 10
295.7620583587
 20
211.8434732289
 10
295.5472064518
 20
211.8460854217
 10
295.3723973123
 20
211.850180395
 10
295.2531634993
 20
211.8553942924
 10
295.2000994605
 20
211.8612638362
 10
295.2179201685
 20
211.8672674918
 10
295.3050421752
 20
211.8728718081
 10
295.453724308
 20
211.8775788168
 10
295.6507555069
 20
211.8809702796
 10
295.8786286853
 20
211.8827448502
 10
296.1170963112
 20
211.8827448502
 10
296.3449694895
 20
211.8809702796
 10
296.5420006884
 20
211.8775788168
 10
296.6906828213
 20
211.8728718081
 10
296.777804828
 20
211.8672674918
 10
296.795625536
 20
211.8612638362
 10
296.7425614971
 20
211.8553942924
 10
296.6233276842
 20
211.850180395
 10
296.4485185447
 20
211.8460854217
 10
296.2336666378
 20
211.8434732289
 10
295.9978624982
 20
211.8425759215
  0
LWPOLYLINE
  5
D5
330
1F
100
AcDbEntity
  8
0
  6
Continuous
 62
     7
370
    15
100
AcDbPolyline
 90
       22
 70
   128
 43
0.0
 10
395.6767087437
 20
211.8425759215
 10
395.4409046042
 20
211.8434732289
 10
395.2260526973
 20
211.8460854217
 10
395.0512435577
 20
211.850180395
 10
394.9320097448
 20
211.8553942924
 10
394.878945706
 20
211.8612638362
 10
394.896766414
 20
211.8672674918
 10
394.9838884207
 20
211.8728718081
 10
395.1325705535
 20
211.8775788168
 10
395.3296017524
 20
211.8809702796
 10
395.5574749308
 20
211.8827448502
 10
395.7959425567
 20
211.8827448502
 10
396.023815735
 20
211.8809702796
 10
396.2208469339
 20
211.8775788168
 10
396.3695290668
 20
211.8728718081
 10
396.4566510735
 20
211.8672674918
 10
396.4744717815
 20
211.8612638362
 10
396.4214077426
 20
211.8553942924
 10
396.3021739297
 20
211.850180395
 10
396.1273647902
 20
211.8460854217
 10
395.9125128833
 20
211.8434732289
 10
395.6767087437
 20
211.8425759215
  0
LINE
  5
D6
330
1F
100
AcDbEntity
  8
0
  6
Continuous
 62
     7
370
    15
100
AcDbLine
 10
289.2604319526
 20
269.0404370603
 30
0.0
 11
284.3543936303
 21
269.0404370603
 31
0.0
  0
LINE
  5
D7
330
1F
100
AcDbEntity
  8
0
  6
Continuous
 62
     7
370
    15
100
AcDbLine
 10
402.4141392893
 20
269.0404370603
 30
0.0
 11
407.3201776117
 21
269.0404370603
 31
0.0
  0
LINE
  5
D8
330
1F
100
AcDbEntity
  8
0
  6
Continuous
 62
     7
370
    15
100
AcDbLine
 10
285.9832031776
 20
240.976255133
 30
0.0
 11
284.3336331647
 21
268.1480682124
 31
0.0
  0
LINE
  5
D9
330
1F
100
AcDbEntity
  8
0
  6
Continuous
 62
     7
370
    15
100
AcDbLine
 10
405.6913680644
 20
240.976255133
 30
0.0
 11
407.3409380772
 21
268.1480682124
 31
0.0
  0
LINE
  5
DA
330
1F
100
AcDbEntity
  8
0
  6
Continuous
 62
     7
370
    15
100
AcDbLine
 10
294.137285621
 20
263.9205467731
 30
0.0
 11
290.0991092382
 21
263.9512194762
 31
0.0
  0
LINE
  5
DB
330
1F
100
AcDbEntity
  8
0
  6
Continuous
 62
     7
370
    15
100
AcDbLine
 10
401.5754620037
 20
263.9512194762
 30
0.0
 11
397.537285621
 21
263.9205467731
 31
0.0
  0
LINE
  5
DC
330
1F
100
AcDbEntity
  8
0
  6
Continuous
 62
     7
370
    15
100
AcDbLine
 10
293.1340249436
 20
209.22232549
 30
0.0
 11
398.5405462983
 21
209.22232549
 31
0.0
  0
LINE
  5
DD
330
1F
100
AcDbEntity
  8
0
  6
Continuous
 62
     7
370
    15
100
AcDbLine
 10
292.6967210591
 20
209.3485583509
 30
0.0
 11
398.9778501829
 21
209.3485583509
 31
0.0
  0
LWPOLYLINE
  5
DE
330
1F
100
AcDbEntity
  8
0
  6
Continuous
 62
     7
370
    15
100
AcDbPolyline
 90
       22
 70
   128
 43
0.0
 10
386.7481542963
 20
209.2652446627
 10
386.5123501568
 20
209.2661419702
 10
386.2974982499
 20
209.2687541629
 10
386.1226891104
 20
209.2728491362
 10
386.0034552974
 20
209.2780630336
 10
385.9503912586
 20
209.2839325775
 10
385.9682119666
 20
209.2899362331
 10
386.0553339733
 20
209.2955405493
 10
386.2040161061
 20
209.300247558
 10
386.401047305
 20
209.3036390209
 10
386.6289204834
 20
209.3054135915
 10
386.8673881093
 20
209.3054135915
 10
387.0952612876
 20
209.3036390209
 10
387.2922924865
 20
209.300247558
 10
387.4409746194
 20
209.2955405493
 10
387.5280966261
 20
209.2899362331
 10
387.5459173341
 20
209.2839325775
 10
387.4928532952
 20
209.2780630336
 10
387.3736194823
 20
209.2728491362
 10
387.1988103428
 20
209.2687541629
 10
386.9839584359
 20
209.2661419702
 10
386.7481542963
 20
209.2652446627
  0
LWPOLYLINE
  5
DF
330
1F
100
AcDbEntity
  8
0
  6
Continuous
 62
     7
370
    15
100
AcDbPolyline
 90
       22
 70
   128
 43
0.0
 10
304.9264169456
 20
209.2652446627
 10
304.6906128061
 20
209.2661419702
 10
304.4757608992
 20
209.2687541629
 10
304.3009517596
 20
209.2728491362
 10
304.1817179467
 20
209.2780630336
 10
304.1286539079
 20
209.2839325775
 10
304.1464746159
 20
209.2899362331
 10
304.2335966226
 20
209.2955405493
 10
304.3822787554
 20
209.300247558
 10
304.5793099543
 20
209.3036390209
 10
304.8071831327
 20
209.3054135915
 10
305.0456507586
 20
209.3054135915
 10
305.2735239369
 20
209.3036390209
 10
305.4705551358
 20
209.300247558
 10
305.6192372686
 20
209.2955405493
 10
305.7063592754
 20
209.2899362331
 10
305.7241799834
 20
209.2839325775
 10
305.6711159445
 20
209.2780630336
 10
305.5518821316
 20
209.2728491362
 10
305.3770729921
 20
209.2687541629
 10
305.1622210852
 20
209.2661419702
 10
304.9264169456
 20
209.2652446627
  0
LINE
  5
E0
330
1F
100
AcDbEntity
  8
0
  6
Continuous
 62
     7
370
    15
100
AcDbLine
 10
395.7469086761
 20
159.217427082
 30
0.0
 11
400.7278821666
 21
159.217427082
 31
0.0
  0
LINE
  5
E1
330
1F
100
AcDbEntity
  8
0
  6
Continuous
 62
     7
370
    15
100
AcDbLine
 10
400.7278821666
 20
159.217427082
 30
0.0
 11
403.7672627585
 21
209.2822807587
 31
0.0
  0
LINE
  5
E2
330
1F
100
AcDbEntity
  8
0
  6
Continuous
 62
     7
370
    15
100
AcDbLine
 10
295.9276625658
 20
159.217427082
 30
0.0
 11
290.9466890754
 21
159.217427082
 31
0.0
  0
LINE
  5
E3
330
1F
100
AcDbEntity
  8
0
  6
Continuous
 62
     7
370
    15
100
AcDbLine
 10
290.9466890754
 20
159.217427082
 30
0.0
 11
287.9073084834
 21
209.2822807587
 31
0.0
  0
LINE
  5
E4
330
1F
100
AcDbEntity
  8
0
  6
Continuous
 62
     7
370
    15
100
AcDbLine
 10
291.0706714631
 20
270.0269728394
 30
0.0
 11
284.1249462753
 21
277.025862457
 31
0.0
  0
LINE
  5
E5
330
1F
100
AcDbEntity
  8
0
  6
Continuous
 62
     7
370
    15
100
AcDbLine
 10
279.0831636172
 20
275.8825532691
 30
0.0
 11
277.6880744525
 21
277.2883208177
 31
0.0
  0
LINE
  5
E6
330
1F
100
AcDbEntity
  8
0
  6
Continuous
 62
     7
370
    15
100
AcDbLine
 10
285.0599152184
 20
277.2883208177
 30
0.0
 11
277.6880744525
 21
277.2883208177
 31
0.0
  0
LINE
  5
E7
330
1F
100
AcDbEntity
  8
0
  6
Continuous
 62
     7
370
    15
100
AcDbLine
 10
285.0599152184
 20
277.2883208177
 30
0.0
 11
292.2661051008
 21
270.0269728394
 31
0.0
  0
LINE
  5
E8
330
1F
100
AcDbEntity
  8
0
  6
Continuous
 62
     7
370
    15
100
AcDbLine
 10
292.2661051008
 20
270.0269728394
 30
0.0
 11
291.0706714631
 21
270.0269728394
 31
0.0
  0
LINE
  5
E9
330
1F
100
AcDbEntity
  8
0
  6
Continuous
 62
     7
370
    15
100
AcDbLine
 10
285.1253439653
 20
280.5350930263
 30
0.0
 11
292.2912673295
 21
273.3143197768
 31
0.0
  0
LINE
  5
EA
330
1F
100
AcDbEntity
  8
0
  6
Continuous
 62
     7
370
    15
100
AcDbLine
 10
292.2661051008
 20
270.0269728394
 30
0.0
 11
292.2912673295
 21
273.3143197768
 31
0.0
  0
LINE
  5
EB
330
1F
100
AcDbEntity
  8
0
  6
Continuous
 62
     7
370
    15
100
AcDbLine
 10
285.0599152184
 20
277.2883208177
 30
0.0
 11
285.1253439653
 21
280.5350930263
 31
0.0
  0
LINE
  5
EC
330
1F
100
AcDbEntity
  8
0
  6
Continuous
 62
     7
370
    15
100
AcDbLine
 10
285.122493382
 20
280.5379655139
 30
0.0
 11
285.1253439653
 21
280.5350930263
 31
0.0
  0
LINE
  5
ED
330
1F
100
AcDbEntity
  8
0
  6
Continuous
 62
     7
370
    15
100
AcDbLine
 10
277.7535031994
 20
280.5350930263
 30
0.0
 11
277.6880744525
 21
277.2883208177
 31
0.0
  0
LINE
  5
EE
330
1F
100
AcDbEntity
  8
0
  6
Continuous
 62
     7
370
    15
100
AcDbLine
 10
277.7535031994
 20
280.5350930263
 30
0.0
 11
277.7564695551
 21
280.5379655139
 31
0.0
  0
LINE
  5
EF
330
1F
100
AcDbEntity
  8
0
  6
Continuous
 62
     7
370
    15
100
AcDbLine
 10
277.7564695551
 20
280.5379655139
 30
0.0
 11
285.122493382
 21
280.5379655139
 31
0.0
  0
LINE
  5
F0
330
1F
100
AcDbEntity
  8
0
  6
Continuous
 62
     7
370
    15
100
AcDbLine
 10
291.9946963954
 20
273.6131694983
 30
0.0
 11
284.8630371056
 21
280.7994164071
 31
0.0
  0
LINE
  5
F1
330
1F
100
AcDbEntity
  8
0
  6
Continuous
 62
     7
370
    15
100
AcDbLine
 10
292.2912673295
 20
273.3143197768
 30
0.0
 11
291.9946963954
 21
273.6131694983
 31
0.0
  0
LINE
  5
F2
330
1F
100
AcDbEntity
  8
0
  6
Continuous
 62
     7
370
    15
100
AcDbLine
 10
285.122493382
 20
280.5379655139
 30
0.0
 11
284.8630371056
 21
280.7994164071
 31
0.0
  0
LINE
  5
F3
330
1F
100
AcDbEntity
  8
0
  6
Continuous
 62
     7
370
    15
100
AcDbLine
 10
284.8630371056
 20
280.7994164071
 30
0.0
 11
278.0889131586
 21
280.7994164071
 31
0.0
  0
LINE
  5
F4
330
1F
100
AcDbEntity
  8
0
  6
Continuous
 62
     7
370
    15
100
AcDbLine
 10
277.7564695551
 20
280.5379655139
 30
0.0
 11
278.0889131586
 21
280.7994164071
 31
0.0
  0
ARC
  5
F5
330
1F
100
AcDbEntity
  8
0
  6
Continuous
 62
     7
370
    15
100
AcDbCircle
 10
286.3992422398
 20
539.7525495535
 30
0.0
 40
3.000000000000038
100
AcDbArc
 50
175.0062505561
 51
188.8867554144
  0
ARC
  5
F6
330
1F
100
AcDbEntity
  8
0
  6
Continuous
 62
     7
370
    15
100
AcDbCircle
 10
405.2753290022
 20
539.7525495535
 30
0.0
 40
3.000000000000044
100
AcDbArc
 50
351.1132445856
 51
4.9937494439
  0
LINE
  5
F7
330
1F
100
AcDbEntity
  8
0
  6
Continuous
 62
     7
370
    15
100
AcDbLine
 10
293.7980606208
 20
658.8919369453
 30
0.0
 11
291.9443498786
 21
637.6772706449
 31
0.0
  0
LINE
  5
F8
330
1F
100
AcDbEntity
  8
0
  6
Continuous
 62
     7
370
    15
100
AcDbLine
 10
284.7197301794
 20
554.9956026951
 30
0.0
 11
283.4106296391
 21
540.0136907472
 31
0.0
  0
LINE
  5
F9
330
1F
100
AcDbEntity
  8
0
  6
Continuous
 62
     7
370
    15
100
AcDbLine
 10
408.2639416029
 20
540.0136907472
 30
0.0
 11
406.9548410625
 21
554.9956026951
 31
0.0
  0
LINE
  5
FA
330
1F
100
AcDbEntity
  8
0
  6
Continuous
 62
     7
370
    15
100
AcDbLine
 10
399.7302213634
 20
637.6772706449
 30
0.0
 11
397.8765106212
 21
658.8919369453
 31
0.0
  0
LINE
  5
FB
330
1F
100
AcDbEntity
  8
0
  6
Continuous
 62
     7
370
    15
100
AcDbLine
 10
283.4352554323
 20
539.2891035422
 30
0.0
 11
283.510694262
 21
538.8066316026
 31
0.0
  0
LINE
  5
FC
330
1F
100
AcDbEntity
  8
0
  6
Continuous
 62
     7
370
    15
100
AcDbLine
 10
408.1638769799
 20
538.8066316026
 30
0.0
 11
408.2393158096
 21
539.2891035422
 31
0.0
  0
LINE
  5
FD
330
1F
100
AcDbEntity
  8
0
  6
Continuous
 62
     7
370
    15
100
AcDbLine
 10
286.4747022977
 20
536.2703813408
 30
0.0
 11
405.1998689442
 21
536.2703813408
 31
0.0
  0
LWPOLYLINE
  5
FE
330
1F
100
AcDbEntity
  8
0
  6
Continuous
 62
     7
370
    15
100
AcDbPolyline
 90
       18
 70
   128
 43
0.0
 10
300.137285621
 20
681.7893986737
 10
299.834546583
 20
681.7856427472
 10
299.2706139213
 20
681.7583630465
 10
298.7111083118
 20
681.7039672864
 10
298.1550510838
 20
681.6201473855
 10
297.5983989182
 20
681.5017275783
 10
297.0327086319
 20
681.3379427666
 10
296.4469270506
 20
681.1079582623
 10
296.0020554669
 20
680.8776936322
 10
295.6153698246
 20
680.6238925836
 10
295.2728505478
 20
680.34159567
 10
294.9702627795
 20
680.0279972715
 10
294.7087786308
 20
679.6830351918
 10
294.4919319446
 20
679.3091651965
 10
294.3237730692
 20
678.9108141742
 10
294.2078760421
 20
678.4937868136
 10
294.143768421
 20
678.0200133646
 10
294.137285621
 20
677.8126942104
  0
LINE
  5
FF
330
1F
100
AcDbEntity
  8
0
  6
Continuous
 62
     7
370
    15
100
AcDbLine
 10
391.537285621
 20
681.7893986737
 30
0.0
 11
300.137285621
 21
681.7893986737
 31
0.0
  0
LWPOLYLINE
  5
100
330
1F
100
AcDbEntity
  8
0
  6
Continuous
 62
     7
370
    15
100
AcDbPolyline
 90
       18
 70
   128
 43
0.0
 10
397.537285621
 20
677.8126942104
 10
397.5083397428
 20
678.2500937367
 10
397.420241263
 20
678.6868859631
 10
397.2793455941
 20
679.0976949133
 10
397.0917697531
 20
679.4791198746
 10
396.8631626475
 20
679.8289560631
 10
396.5982922896
 20
680.1463618969
 10
396.3003048517
 20
680.4320007149
 10
395.9694721151
 20
680.688136012
 10
395.6013655773
 20
680.9184613318
 10
395.1849777241
 20
681.1272347676
 10
394.7039798083
 20
681.3167873263
 10
394.1526534809
 20
681.4823716578
 10
393.5723966332
 20
681.6104786598
 10
392.9948546835
 20
681.700059928
 10
392.4223954621
 20
681.7570153022
 10
391.8530141188
 20
681.7853131197
 10
391.537285621
 20
681.7893986737
  0
LWPOLYLINE
  5
101
330
1F
100
AcDbEntity
  8
0
  6
Continuous
 62
     7
370
    15
100
AcDbPolyline
 90
       18
 70
   128
 43
0.0
 10
294.137285621
 20
648.8750642685
 10
294.1662314991
 20
648.4376647422
 10
294.2543299789
 20
648.0008725158
 10
294.3952256479
 20
647.5900635656
 10
294.5828014888
 20
647.2086386042
 10
294.8114085944
 20
646.8588024157
 10
295.0762789524
 20
646.541396582
 10
295.3742663902
 20
646.2557577639
 10
295.7050991268
 20
645.9996224668
 10
296.0732056646
 20
645.769297147
 10
296.4895935178
 20
645.5605237113
 10
296.9705914336
 20
645.3709711525
 10
297.5219177611
 20
645.205386821
 10
298.1021746087
 20
645.0772798191
 10
298.6797165585
 20
644.9876985509
 10
299.2521757799
 20
644.9307431767
 10
299.8215571232
 20
644.9024453591
 10
300.137285621
 20
644.8983598051
  0
LWPOLYLINE
  5
102
330
1F
100
AcDbEntity
  8
0
  6
Continuous
 62
     7
370
    15
100
AcDbPolyline
 90
       18
 70
   128
 43
0.0
 10
391.537285621
 20
644.8983598051
 10
391.8400246589
 20
644.9021157317
 10
392.4039573207
 20
644.9293954323
 10
392.9634629302
 20
644.9837911924
 10
393.5195201582
 20
645.0676110933
 10
394.0761723238
 20
645.1860309006
 10
394.6418626101
 20
645.3498157122
 10
395.2276441913
 20
645.5798002165
 10
395.672515775
 20
645.8100648466
 10
396.0592014173
 20
646.0638658953
 10
396.4017206941
 20
646.3461628089
 10
396.7043084625
 20
646.6597612074
 10
396.9657926111
 20
647.004723287
 10
397.1826392973
 20
647.3785932824
 10
397.3507981728
 20
647.7769443046
 10
397.4666951998
 20
648.1939716652
 10
397.5308028209
 20
648.6677451143
 10
397.537285621
 20
648.8750642685
  0
LINE
  5
103
330
1F
100
AcDbEntity
  8
0
  6
Continuous
 62
     7
370
    15
100
AcDbLine
 10
300.137285621
 20
644.8983598051
 30
0.0
 11
391.537285621
 21
644.8983598051
 31
0.0
  0
LINE
  5
104
330
1F
100
AcDbEntity
  8
0
  6
Continuous
 62
     7
370
    15
100
AcDbLine
 10
293.9456412087
 20
669.862881125
 30
0.0
 11
294.137285621
 21
669.862881125
 31
0.0
  0
LINE
  5
105
330
1F
100
AcDbEntity
  8
0
  6
Continuous
 62
     7
370
    15
100
AcDbLine
 10
397.537285621
 20
669.862881125
 30
0.0
 11
397.7289300332
 21
669.862881125
 31
0.0
  0
LINE
  5
106
330
1F
100
AcDbEntity
  8
0
  6
Continuous
 62
     7
370
    15
100
AcDbLine
 10
293.9456412087
 20
669.862881125
 30
0.0
 11
293.9456412087
 21
670.3019697782
 31
0.0
  0
LINE
  5
107
330
1F
100
AcDbEntity
  8
0
  6
Continuous
 62
     7
370
    15
100
AcDbLine
 10
293.9456412087
 20
670.3019697782
 30
0.0
 11
294.137285621
 21
670.3019697782
 31
0.0
  0
LINE
  5
108
330
1F
100
AcDbEntity
  8
0
  6
Continuous
 62
     7
370
    15
100
AcDbLine
 10
397.537285621
 20
670.3019697782
 30
0.0
 11
397.7289300332
 21
670.3019697782
 31
0.0
  0
LINE
  5
109
330
1F
100
AcDbEntity
  8
0
  6
Continuous
 62
     7
370
    15
100
AcDbLine
 10
397.7289300332
 20
669.862881125
 30
0.0
 11
397.7289300332
 21
670.3019697782
 31
0.0
  0
LINE
  5
10A
330
1F
100
AcDbEntity
  8
0
  6
Continuous
 62
     7
370
    15
100
AcDbLine
 10
294.137285621
 20
672.4924754336
 30
0.0
 11
293.9456412087
 21
670.3019697782
 31
0.0
  0
LINE
  5
10B
330
1F
100
AcDbEntity
  8
0
  6
Continuous
 62
     7
370
    15
100
AcDbLine
 10
397.7289300332
 20
670.3019697782
 30
0.0
 11
397.537285621
 21
672.4924754336
 31
0.0
  0
ELLIPSE
  5
10C
330
1F
100
AcDbEntity
  8
0
  6
Continuous
 62
     7
370
    15
100
AcDbEllipse
 10
286.4747022977
 20
539.2699418476
 30
0.0
 11
2.989736246700545
 21
0.2480061477663184
 31
0.0
210
0.0
220
0.0
230
1.0
 40
0.9996822466
 41
3.213909858861717
 42
4.629652128464234
  0
ELLIPSE
  5
10D
330
1F
100
AcDbEntity
  8
0
  6
Continuous
 62
     7
370
    15
100
AcDbEllipse
 10
405.1998689442
 20
539.2699418476
 30
0.0
 11
2.989736246700545
 21
-0.2480061477663184
 31
0.0
210
0.0
220
0.0
230
1.0
 40
0.9996822466
 41
4.795125832305173
 42
6.210868101907687
  0
ARC
  5
10E
330
1F
100
AcDbEntity
  8
0
  6
Continuous
 62
     7
370
    15
100
AcDbCircle
 10
296.786768972
 20
658.6307984357
 30
0.0
 40
3.00003979924863
100
AcDbArc
 50
152.0246392339
 51
175.0307786767
  0
ARC
  5
10F
330
1F
100
AcDbEntity
  8
0
  6
Continuous
 62
     7
370
    15
100
AcDbCircle
 10
394.88780227
 20
658.6307984357
 30
0.0
 40
3.000039799249093
100
AcDbArc
 50
4.9692213233
 51
27.9753607661
  0
LINE
  5
110
330
1F
100
AcDbEntity
  8
0
  6
Continuous
 62
     7
370
    15
100
AcDbLine
 10
286.4747022977
 20
536.2708836187
 30
0.0
 11
286.4747022977
 21
536.2703813408
 31
0.0
  0
LINE
  5
111
330
1F
100
AcDbEntity
  8
0
  6
Continuous
 62
     7
370
    15
100
AcDbLine
 10
405.1998689442
 20
536.2708836187
 30
0.0
 11
405.1998689442
 21
536.2703813408
 31
0.0
  0
LINE
  5
112
330
1F
100
AcDbEntity
  8
0
  6
Continuous
 62
     7
370
    15
100
AcDbLine
 10
397.537285621
 20
677.8126942104
 30
0.0
 11
397.537285621
 21
665.8046083003
 31
0.0
  0
LINE
  5
113
330
1F
100
AcDbEntity
  8
0
  6
Continuous
 62
     7
370
    15
100
AcDbLine
 10
294.137285621
 20
665.8046083003
 30
0.0
 11
294.137285621
 21
677.8126942104
 31
0.0
  0
LINE
  5
114
330
1F
100
AcDbEntity
  8
0
  6
Continuous
 62
     7
370
    15
100
AcDbLine
 10
294.137285621
 20
648.8750642685
 30
0.0
 11
294.137285621
 21
665.8046083003
 31
0.0
  0
LINE
  5
115
330
1F
100
AcDbEntity
  8
0
  6
Continuous
 62
     7
370
    15
100
AcDbLine
 10
397.537285621
 20
665.8046083003
 30
0.0
 11
397.537285621
 21
648.8750642685
 31
0.0
  0
LINE
  5
116
330
1F
100
AcDbEntity
  8
0
  6
Continuous
 62
     7
370
    15
100
AcDbLine
 10
413.5856580833
 20
556.7502862588
 30
0.0
 11
406.4539987936
 21
638.2655249462
 31
0.0
  0
LINE
  5
117
330
1F
100
AcDbEntity
  8
0
  6
Continuous
 62
     7
370
    15
100
AcDbLine
 10
406.8115341363
 20
556.1576272081
 30
0.0
 11
413.5856580833
 21
556.7502862588
 31
0.0
  0
LINE
  5
118
330
1F
100
AcDbEntity
  8
0
  6
Continuous
 62
     7
370
    15
100
AcDbLine
 10
399.6798748466
 20
637.6728658955
 30
0.0
 11
406.8115341363
 21
556.1576272081
 31
0.0
  0
LINE
  5
119
330
1F
100
AcDbEntity
  8
0
  6
Continuous
 62
     7
370
    15
100
AcDbLine
 10
399.6798748466
 20
637.6728658955
 30
0.0
 11
406.4539987936
 21
638.2655249462
 31
0.0
  0
LINE
  5
11A
330
1F
100
AcDbEntity
  8
0
  6
Continuous
 62
     7
370
    15
100
AcDbLine
 10
406.7551446783
 20
638.2655257062
 30
0.0
 11
413.9210680426
 21
556.3586468555
 31
0.0
  0
LINE
  5
11B
330
1F
100
AcDbEntity
  8
0
  6
Continuous
 62
     7
370
    15
100
AcDbLine
 10
413.9210680426
 20
556.3586468555
 30
0.0
 11
413.9181016869
 21
556.3590540396
 31
0.0
  0
LINE
  5
11C
330
1F
100
AcDbEntity
  8
0
  6
Continuous
 62
     7
370
    15
100
AcDbLine
 10
413.9181016869
 20
556.3590540396
 30
0.0
 11
413.5856580833
 21
556.7502862588
 31
0.0
  0
LINE
  5
11D
330
1F
100
AcDbEntity
  8
0
  6
Continuous
 62
     7
370
    15
100
AcDbLine
 10
406.4539987936
 20
638.2655249462
 30
0.0
 11
406.7551446783
 21
638.2655257062
 31
0.0
  0
LINE
  5
11E
330
1F
100
AcDbEntity
  8
0
  6
Continuous
 62
     7
370
    15
100
AcDbLine
 10
406.55207786
 20
555.7146104595
 30
0.0
 11
406.5492272767
 21
555.7136943592
 31
0.0
  0
LINE
  5
11F
330
1F
100
AcDbEntity
  8
0
  6
Continuous
 62
     7
370
    15
100
AcDbLine
 10
406.5492272767
 20
555.7136943592
 30
0.0
 11
399.3833039125
 21
637.6205732099
 31
0.0
  0
LINE
  5
120
330
1F
100
AcDbEntity
  8
0
  6
Continuous
 62
     7
370
    15
100
AcDbLine
 10
399.3833039125
 20
637.6205732099
 30
0.0
 11
399.6798748466
 21
637.6728658955
 31
0.0
  0
LINE
  5
121
330
1F
100
AcDbEntity
  8
0
  6
Continuous
 62
     7
370
    15
100
AcDbLine
 10
406.55207786
 20
555.7146104595
 30
0.0
 11
406.8115341363
 21
556.1576272081
 31
0.0
  0
LINE
  5
122
330
1F
100
AcDbEntity
  8
0
  6
Continuous
 62
     7
370
    15
100
AcDbLine
 10
413.9181016869
 20
556.3590540396
 30
0.0
 11
406.55207786
 21
555.7146104595
 31
0.0
  0
LINE
  5
123
330
1F
100
AcDbEntity
  8
0
  6
Continuous
 62
     7
370
    15
100
AcDbLine
 10
413.9210680426
 20
556.3586468555
 30
0.0
 11
413.9864967894
 21
555.6107928571
 31
0.0
  0
LINE
  5
124
330
1F
100
AcDbEntity
  8
0
  6
Continuous
 62
     7
370
    15
100
AcDbLine
 10
406.6146560235
 20
554.9658403607
 30
0.0
 11
413.9864967894
 21
555.6107928571
 31
0.0
  0
LINE
  5
125
330
1F
100
AcDbEntity
  8
0
  6
Continuous
 62
     7
370
    15
100
AcDbLine
 10
406.6146560235
 20
554.9658403607
 30
0.0
 11
406.5492272767
 21
555.7136943592
 31
0.0
  0
LINE
  5
126
330
1F
100
AcDbEntity
  8
0
  6
Continuous
 62
     7
370
    15
100
AcDbLine
 10
397.537285621
 20
675.2794553338
 30
0.0
 11
402.3119819157
 21
675.2826525783
 31
0.0
  0
LINE
  5
127
330
1F
100
AcDbEntity
  8
0
  6
Continuous
 62
     7
370
    15
100
AcDbLine
 10
405.5574235653
 20
638.1870847777
 30
0.0
 11
402.3119819157
 21
675.2826525783
 31
0.0
  0
LINE
  5
128
330
1F
100
AcDbEntity
  8
0
  6
Continuous
 62
     7
370
    15
100
AcDbLine
 10
400.5764500748
 20
637.7513060639
 30
0.0
 11
397.7289300332
 21
670.2986090729
 31
0.0
  0
LINE
  5
129
330
1F
100
AcDbEntity
  8
0
  6
Continuous
 62
     7
370
    15
100
AcDbLine
 10
289.3625893263
 20
675.2826525783
 30
0.0
 11
294.137285621
 21
675.2794553338
 31
0.0
  0
LINE
  5
12A
330
1F
100
AcDbEntity
  8
0
  6
Continuous
 62
     7
370
    15
100
AcDbLine
 10
286.1171476767
 20
638.1870847777
 30
0.0
 11
289.3625893263
 21
675.2826525783
 31
0.0
  0
LINE
  5
12B
330
1F
100
AcDbEntity
  8
0
  6
Continuous
 62
     7
370
    15
100
AcDbLine
 10
291.0981211671
 20
637.7513060639
 30
0.0
 11
293.9456412087
 21
670.2986090729
 31
0.0
  0
LINE
  5
12C
330
1F
100
AcDbEntity
  8
0
  6
Continuous
 62
     7
370
    15
100
AcDbLine
 10
281.349987756
 20
526.3296313207
 30
0.0
 11
276.3690142655
 21
526.7654100344
 31
0.0
  0
LINE
  5
12D
330
1F
100
AcDbEntity
  8
0
  6
Continuous
 62
     7
370
    15
100
AcDbLine
 10
276.3690142655
 20
526.7654100344
 30
0.0
 11
278.8835080903
 21
555.5062059658
 31
0.0
  0
LINE
  5
12E
330
1F
100
AcDbEntity
  8
0
  6
Continuous
 62
     7
370
    15
100
AcDbLine
 10
281.349987756
 20
526.3296313207
 30
0.0
 11
283.8644815807
 21
555.070427252
 31
0.0
  0
LINE
  5
12F
330
1F
100
AcDbEntity
  8
0
  6
Continuous
 62
     7
370
    15
100
AcDbLine
 10
410.3245834859
 20
526.3296313207
 30
0.0
 11
415.3055569764
 21
526.7654100344
 31
0.0
  0
LINE
  5
130
330
1F
100
AcDbEntity
  8
0
  6
Continuous
 62
     7
370
    15
100
AcDbLine
 10
415.3055569764
 20
526.7654100344
 30
0.0
 11
412.7910631517
 21
555.5062059658
 31
0.0
  0
LINE
  5
131
330
1F
100
AcDbEntity
  8
0
  6
Continuous
 62
     7
370
    15
100
AcDbLine
 10
410.3245834859
 20
526.3296313207
 30
0.0
 11
407.8100896612
 21
555.070427252
 31
0.0
  0
LINE
  5
132
330
1F
100
AcDbEntity
  8
0
  6
Continuous
 62
     7
370
    15
100
AcDbLine
 10
395.2171920289
 20
699.0079058328
 30
0.0
 11
400.1981655194
 21
699.4436845465
 31
0.0
  0
LINE
  5
133
330
1F
100
AcDbEntity
  8
0
  6
Continuous
 62
     7
370
    15
100
AcDbLine
 10
402.3119819157
 20
675.2826525783
 30
0.0
 11
400.1981655194
 21
699.4436845465
 31
0.0
  0
LINE
  5
134
330
1F
100
AcDbEntity
  8
0
  6
Continuous
 62
     7
370
    15
100
AcDbLine
 10
396.9000746121
 20
679.7724698881
 30
0.0
 11
395.2171920289
 21
699.0079058328
 31
0.0
  0
LINE
  5
135
330
1F
100
AcDbEntity
  8
0
  6
Continuous
 62
     7
370
    15
100
AcDbLine
 10
296.457379213
 20
699.0079058328
 30
0.0
 11
291.4764057226
 21
699.4436845465
 31
0.0
  0
LINE
  5
136
330
1F
100
AcDbEntity
  8
0
  6
Continuous
 62
     7
370
    15
100
AcDbLine
 10
289.3625893263
 20
675.2826525783
 30
0.0
 11
291.4764057226
 21
699.4436845465
 31
0.0
  0
LINE
  5
137
330
1F
100
AcDbEntity
  8
0
  6
Continuous
 62
     7
370
    15
100
AcDbLine
 10
294.774225984
 20
679.7693763914
 30
0.0
 11
296.457379213
 21
699.0079058328
 31
0.0
  0
LINE
  5
138
330
1F
100
AcDbEntity
  8
0
  6
Continuous
 62
     7
370
    15
100
AcDbLine
 10
283.779210556
 20
554.0957749792
 30
0.0
 11
284.6411043703
 21
554.0957749792
 31
0.0
  0
LINE
  5
139
330
1F
100
AcDbEntity
  8
0
  6
Continuous
 62
     7
370
    15
100
AcDbLine
 10
407.0334668716
 20
554.0957749792
 30
0.0
 11
407.895360686
 21
554.0957749792
 31
0.0
  0
LINE
  5
13A
330
1F
100
AcDbEntity
  8
0
  6
Continuous
 62
     7
370
    15
100
AcDbLine
 10
283.7681666117
 20
553.9695421183
 30
0.0
 11
284.6300743024
 21
553.9695421183
 31
0.0
  0
LINE
  5
13B
330
1F
100
AcDbEntity
  8
0
  6
Continuous
 62
     7
370
    15
100
AcDbLine
 10
407.0444969396
 20
553.9695421183
 30
0.0
 11
407.9064046303
 21
553.9695421183
 31
0.0
  0
LINE
  5
13C
330
1F
100
AcDbEntity
  8
0
  6
Continuous
 62
     7
370
    15
100
AcDbLine
 10
292.7077650034
 20
656.149619301
 30
0.0
 11
293.5584403692
 21
656.149619301
 31
0.0
  0
LINE
  5
13D
330
1F
100
AcDbEntity
  8
0
  6
Continuous
 62
     7
370
    15
100
AcDbLine
 10
398.1161308727
 20
656.149619301
 30
0.0
 11
398.9668062386
 21
656.149619301
 31
0.0
  0
LINE
  5
13E
330
1F
100
AcDbEntity
  8
0
  6
Continuous
 62
     7
370
    15
100
AcDbLine
 10
293.1450688879
 20
661.1480255735
 30
0.0
 11
294.137285621
 21
661.1480255735
 31
0.0
  0
LINE
  5
13F
330
1F
100
AcDbEntity
  8
0
  6
Continuous
 62
     7
370
    15
100
AcDbLine
 10
397.537285621
 20
661.1480255735
 30
0.0
 11
398.5295023541
 21
661.1480255735
 31
0.0
  0
LINE
  5
140
330
1F
100
AcDbEntity
  8
0
  6
Continuous
 62
     7
370
    15
100
AcDbLine
 10
292.6967210591
 20
656.0233864401
 30
0.0
 11
293.5474103013
 21
656.0233864401
 31
0.0
  0
LINE
  5
141
330
1F
100
AcDbEntity
  8
0
  6
Continuous
 62
     7
370
    15
100
AcDbLine
 10
398.1271609407
 20
656.0233864401
 30
0.0
 11
398.9778501829
 21
656.0233864401
 31
0.0
  0
LINE
  5
142
330
1F
100
AcDbEntity
  8
0
  6
Continuous
 62
     7
370
    15
100
AcDbLine
 10
291.9946963954
 20
637.6728658955
 30
0.0
 11
284.8630371056
 21
556.1576272081
 31
0.0
  0
LINE
  5
143
330
1F
100
AcDbEntity
  8
0
  6
Continuous
 62
     7
370
    15
100
AcDbLine
 10
292.2912673295
 20
637.6205732099
 30
0.0
 11
291.9946963954
 21
637.6728658955
 31
0.0
  0
LINE
  5
144
330
1F
100
AcDbEntity
  8
0
  6
Continuous
 62
     7
370
    15
100
AcDbLine
 10
285.1253439653
 20
555.7136943592
 30
0.0
 11
292.2912673295
 21
637.6205732099
 31
0.0
  0
LINE
  5
145
330
1F
100
AcDbEntity
  8
0
  6
Continuous
 62
     7
370
    15
100
AcDbLine
 10
285.122493382
 20
555.7146104595
 30
0.0
 11
285.1253439653
 21
555.7136943592
 31
0.0
  0
LINE
  5
146
330
1F
100
AcDbEntity
  8
0
  6
Continuous
 62
     7
370
    15
100
AcDbLine
 10
285.122493382
 20
555.7146104595
 30
0.0
 11
284.8630371056
 21
556.1576272081
 31
0.0
  0
LINE
  5
147
330
1F
100
AcDbEntity
  8
0
  6
Continuous
 62
     7
370
    15
100
AcDbLine
 10
278.0889131586
 20
556.7502862588
 30
0.0
 11
285.2205724484
 21
638.2655249462
 31
0.0
  0
LINE
  5
148
330
1F
100
AcDbEntity
  8
0
  6
Continuous
 62
     7
370
    15
100
AcDbLine
 10
277.7564695551
 20
556.3590540396
 30
0.0
 11
278.0889131586
 21
556.7502862588
 31
0.0
  0
LINE
  5
149
330
1F
100
AcDbEntity
  8
0
  6
Continuous
 62
     7
370
    15
100
AcDbLine
 10
277.7535031994
 20
556.3586468555
 30
0.0
 11
277.7564695551
 21
556.3590540396
 31
0.0
  0
LINE
  5
14A
330
1F
100
AcDbEntity
  8
0
  6
Continuous
 62
     7
370
    15
100
AcDbLine
 10
284.9194265636
 20
638.2655257062
 30
0.0
 11
277.7535031994
 21
556.3586468555
 31
0.0
  0
LINE
  5
14B
330
1F
100
AcDbEntity
  8
0
  6
Continuous
 62
     7
370
    15
100
AcDbLine
 10
285.2205724484
 20
638.2655249462
 30
0.0
 11
284.9194265636
 21
638.2655257062
 31
0.0
  0
LINE
  5
14C
330
1F
100
AcDbEntity
  8
0
  6
Continuous
 62
     7
370
    15
100
AcDbLine
 10
284.8630371056
 20
556.1576272081
 30
0.0
 11
278.0889131586
 21
556.7502862588
 31
0.0
  0
LINE
  5
14D
330
1F
100
AcDbEntity
  8
0
  6
Continuous
 62
     7
370
    15
100
AcDbLine
 10
291.9946963954
 20
637.6728658955
 30
0.0
 11
285.2205724484
 21
638.2655249462
 31
0.0
  0
LINE
  5
14E
330
1F
100
AcDbEntity
  8
0
  6
Continuous
 62
     7
370
    15
100
AcDbLine
 10
277.7564695551
 20
556.3590540396
 30
0.0
 11
285.122493382
 21
555.7146104595
 31
0.0
  0
LINE
  5
14F
330
1F
100
AcDbEntity
  8
0
  6
Continuous
 62
     7
370
    15
100
AcDbLine
 10
285.0599152184
 20
554.9658403607
 30
0.0
 11
285.1253439653
 21
555.7136943592
 31
0.0
  0
LINE
  5
150
330
1F
100
AcDbEntity
  8
0
  6
Continuous
 62
     7
370
    15
100
AcDbLine
 10
285.0599152184
 20
554.9658403607
 30
0.0
 11
277.6880744525
 21
555.6107928571
 31
0.0
  0
LINE
  5
151
330
1F
100
AcDbEntity
  8
0
  6
Continuous
 62
     7
370
    15
100
AcDbLine
 10
277.7535031994
 20
556.3586468555
 30
0.0
 11
277.6880744525
 21
555.6107928571
 31
0.0
  0
ARC
  5
152
330
1F
100
AcDbEntity
  8
0
  6
Continuous
 62
     7
370
    15
100
AcDbCircle
 10
728.1549677767
 20
547.0782192999
 30
0.0
 40
3.717704855155695
100
AcDbArc
 50
240.8479405819
 51
301.2388397012
  0
LINE
  5
153
330
1F
100
AcDbEntity
  8
0
  6
Continuous
 62
     7
370
    15
100
AcDbLine
 10
642.3925951374
 20
592.2955307789
 30
0.0
 11
726.3439655706
 21
543.8314362151
 31
0.0
  0
LINE
  5
154
330
1F
100
AcDbEntity
  8
0
  6
Continuous
 62
     7
370
    15
100
AcDbLine
 10
730.0829945169
 20
543.8995336786
 30
0.0
 11
732.8804338091
 21
545.7339499998
 31
0.0
  0
LINE
  5
155
330
1F
100
AcDbEntity
  8
0
  6
Continuous
 62
     7
370
    15
100
AcDbLine
 10
740.9144723776
 20
551.0022578828
 30
0.0
 11
804.5786781503
 21
592.7499585293
 31
0.0
  0
LINE
  5
156
330
1F
100
AcDbEntity
  8
0
  6
Continuous
 62
     7
370
    15
100
AcDbLine
 10
734.7365679495
 20
650.4294517637
 30
0.0
 11
643.331931041
 21
612.9506723551
 31
0.0
  0
ARC
  5
157
330
1F
100
AcDbEntity
  8
0
  6
Continuous
 62
     7
370
    15
100
AcDbCircle
 10
644.4700657114
 20
610.1749473197
 30
0.0
 40
3.000000000000053
100
AcDbArc
 50
112.2951737099
 51
178.9659953563
  0
LINE
  5
158
330
1F
100
AcDbEntity
  8
0
  6
Continuous
 62
     7
370
    15
100
AcDbLine
 10
641.4705542278
 20
610.2290847375
 30
0.0
 11
641.1827159243
 21
594.2812554497
 31
0.0
  0
ARC
  5
159
330
1F
100
AcDbEntity
  8
0
  6
Continuous
 62
     7
370
    15
100
AcDbCircle
 10
805.242743918
 20
607.6084088755
 30
0.0
 40
2.999999999999949
100
AcDbArc
 50
359.6965123219
 51
60.0026882664
  0
ARC
  5
15A
330
1F
100
AcDbEntity
  8
0
  6
Continuous
 62
     7
370
    15
100
AcDbCircle
 10
643.4294036639
 20
594.2796349947
 30
0.0
 40
2.238669573527644
100
AcDbArc
 50
179.9422108444
 51
242.4103446892
  0
LINE
  5
15B
330
1F
100
AcDbEntity
  8
0
  6
Continuous
 62
     7
370
    15
100
AcDbLine
 10
806.7426220169
 20
610.2065554626
 30
0.0
 11
789.245306337
 21
620.3075407991
 31
0.0
  0
LINE
  5
15C
330
1F
100
AcDbEntity
  8
0
  6
Continuous
 62
     7
370
    15
100
AcDbLine
 10
780.5425789899
 20
625.3315183582
 30
0.0
 11
737.3745807188
 21
650.2518733154
 31
0.0
  0
LINE
  5
15D
330
1F
100
AcDbEntity
  8
0
  6
Continuous
 62
     7
370
    15
100
AcDbLine
 10
808.1932906325
 20
598.2642095997
 30
0.0
 11
808.242701833
 21
607.5925183721
 31
0.0
  0
ARC
  5
15E
330
1F
100
AcDbEntity
  8
0
  6
Continuous
 62
     7
370
    15
100
AcDbCircle
 10
735.8747026199
 20
647.6537267283
 30
0.0
 40
3.000000000000068
100
AcDbArc
 50
60.0026882663
 51
112.2951737099
  0
LINE
  5
15F
330
1F
100
AcDbEntity
  8
0
  6
Continuous
 62
     7
370
    15
100
AcDbLine
 10
809.4948777387
 20
625.7185477334
 30
0.0
 11
811.3613915765
 21
633.0557450172
 31
0.0
  0
LINE
  5
160
330
1F
100
AcDbEntity
  8
0
  6
Continuous
 62
     7
370
    15
100
AcDbLine
 10
813.7943598336
 20
642.6196538009
 30
0.0
 11
821.465873126
 21
672.7760905513
 31
0.0
  0
LWPOLYLINE
  5
161
330
1F
100
AcDbEntity
  8
0
  6
Continuous
 62
     7
370
    15
100
AcDbPolyline
 90
       15
 70
   128
 43
0.0
 10
821.465873126
 20
672.7760905513
 10
821.5530625301
 20
673.1706827581
 10
821.6381394398
 20
673.7757553071
 10
821.6680226572
 20
674.3914422941
 10
821.6424929134
 20
675.0129641114
 10
821.5615183279
 20
675.6335553243
 10
821.4254346739
 20
676.2469098298
 10
821.2348127471
 20
676.846851083
 10
820.9904501842
 20
677.4271502044
 10
820.6934746215
 20
677.9813580521
 10
820.3457461724
 20
678.5024375143
 10
819.9501487286
 20
678.983017551
 10
819.5109425332
 20
679.4156555175
 10
819.0338586595
 20
679.7934266147
 10
818.6276660936
 20
680.0533224846
  0
LINE
  5
162
330
1F
100
AcDbEntity
  8
0
  6
Continuous
 62
     7
370
    15
100
AcDbLine
 10
818.6276660936
 20
680.0533224846
 30
0.0
 11
753.9981062932
 21
717.3631731949
 31
0.0
  0
ARC
  5
163
330
1F
100
AcDbEntity
  8
0
  6
Continuous
 62
     7
370
    15
100
AcDbCircle
 10
796.1670409847
 20
624.7424079951
 30
0.0
 40
4.568582624248664
100
AcDbArc
 50
238.568866156
 51
280.9425951976
  0
LINE
  5
164
330
1F
100
AcDbEntity
  8
0
  6
Continuous
 62
     7
370
    15
100
AcDbLine
 10
797.0361946921
 20
620.251750971
 30
0.0
 11
805.5271936682
 21
621.7773363416
 31
0.0
  0
LINE
  5
165
330
1F
100
AcDbEntity
  8
0
  6
Continuous
 62
     7
370
    15
100
AcDbLine
 10
729.1550870334
 20
658.1540353531
 30
0.0
 11
783.2790980133
 21
626.9089088856
 31
0.0
  0
LINE
  5
166
330
1F
100
AcDbEntity
  8
0
  6
Continuous
 62
     7
370
    15
100
AcDbLine
 10
791.9818253605
 20
621.8849313264
 30
0.0
 11
793.7846468338
 21
620.8441846428
 31
0.0
  0
LWPOLYLINE
  5
167
330
1F
100
AcDbEntity
  8
0
  6
Continuous
 62
     7
370
    15
100
AcDbPolyline
 90
       12
 70
   128
 43
0.0
 10
805.5330168198
 20
621.7841335512
 10
805.9392440834
 20
621.8710156997
 10
806.4482694589
 20
622.0438401251
 10
806.9324354373
 20
622.2731778501
 10
807.3879052852
 20
622.5559333941
 10
807.8112855792
 20
622.8891039355
 10
808.1994869365
 20
623.26980818
 10
808.549568036
 20
623.6952200387
 10
808.8585958561
 20
624.1623886836
 10
809.1235724589
 20
624.667957281
 10
809.3414800977
 20
625.2078486274
 10
809.4948777387
 20
625.7185477334
  0
LINE
  5
168
330
1F
100
AcDbEntity
  8
0
  6
Continuous
 62
     7
370
    15
100
AcDbLine
 10
738.2878753882
 20
712.4888101043
 30
0.0
 11
726.316880001
 21
665.4312672864
 31
0.0
  0
LWPOLYLINE
  5
169
330
1F
100
AcDbEntity
  8
0
  6
Continuous
 62
     7
370
    15
100
AcDbPolyline
 90
       12
 70
   128
 43
0.0
 10
742.2574801205
 20
716.4248805001
 10
741.8435090436
 20
716.336342138
 10
741.3344836681
 20
716.1635177125
 10
740.8503176897
 20
715.9341799876
 10
740.3948478418
 20
715.6514244436
 10
739.9714675478
 20
715.3182539022
 10
739.5832661905
 20
714.9375496577
 10
739.233185091
 20
714.5121377989
 10
738.9241572709
 20
714.044969154
 10
738.6591806681
 20
713.5394005566
 10
738.4412730293
 20
712.9995092103
 10
738.2878753882
 20
712.4888101043
  0
LINE
  5
16A
330
1F
100
AcDbEntity
  8
0
  6
Continuous
 62
     7
370
    15
100
AcDbLine
 10
750.7465584349
 20
717.9556068667
 30
0.0
 11
742.2555594588
 21
716.430021496
 31
0.0
  0
ARC
  5
16B
330
1F
100
AcDbEntity
  8
0
  6
Continuous
 62
     7
370
    15
100
AcDbCircle
 10
751.6155738611
 20
713.4630162876
 30
0.0
 40
4.570304660670283
100
AcDbArc
 50
58.5800275148
 51
101.0355486343
  0
LWPOLYLINE
  5
16C
330
1F
100
AcDbEntity
  8
0
  6
Continuous
 62
     7
370
    15
100
AcDbPolyline
 90
       15
 70
   128
 43
0.0
 10
726.316880001
 20
665.4312672864
 10
726.2296905968
 20
665.0366750795
 10
726.1446136871
 20
664.4316025306
 10
726.1147304698
 20
663.8159155435
 10
726.1402602136
 20
663.1943937263
 10
726.221234799
 20
662.5738025133
 10
726.357318453
 20
661.9604480079
 10
726.5479403799
 20
661.3605067547
 10
726.7923029428
 20
660.7802076333
 10
727.0892785054
 20
660.2259997855
 10
727.4370069546
 20
659.7049203234
 10
727.8326043984
 20
659.2243402867
 10
728.2718105938
 20
658.7917023202
 10
728.7488944674
 20
658.413931223
 10
729.1550870334
 20
658.1540353531
  0
LINE
  5
16D
330
1F
100
AcDbEntity
  8
0
  6
Continuous
 62
     7
370
    15
100
AcDbLine
 10
815.5020468409
 20
643.6040026345
 30
0.0
 11
815.5044232184
 21
643.6365020423
 31
0.0
  0
LINE
  5
16E
330
1F
100
AcDbEntity
  8
0
  6
Continuous
 62
     7
370
    15
100
AcDbLine
 10
814.2388885081
 20
644.3670796797
 30
0.0
 11
815.5044232184
 21
643.6365020423
 31
0.0
  0
LINE
  5
16F
330
1F
100
AcDbEntity
  8
0
  6
Continuous
 62
     7
370
    15
100
AcDbLine
 10
818.7157973234
 20
645.4564800062
 30
0.0
 11
818.7181737009
 21
645.488979414
 31
0.0
  0
LINE
  5
170
330
1F
100
AcDbEntity
  8
0
  6
Continuous
 62
     7
370
    15
100
AcDbLine
 10
815.5044232184
 20
643.6365020423
 30
0.0
 11
818.7181737009
 21
645.488979414
 31
0.0
  0
LINE
  5
171
330
1F
100
AcDbEntity
  8
0
  6
Continuous
 62
     7
370
    15
100
AcDbLine
 10
818.7181737009
 20
645.488979414
 30
0.0
 11
815.0613218806
 21
647.6000350347
 31
0.0
  0
LINE
  5
172
330
1F
100
AcDbEntity
  8
0
  6
Continuous
 62
     7
370
    15
100
AcDbLine
 10
746.3838974972
 20
599.6260551319
 30
0.0
 11
746.3820878895
 21
599.6297777279
 31
0.0
  0
LINE
  5
173
330
1F
100
AcDbEntity
  8
0
  6
Continuous
 62
     7
370
    15
100
AcDbLine
 10
746.3838974972
 20
599.6260551319
 30
0.0
 11
745.9013499741
 21
596.6429478014
 31
0.0
  0
LINE
  5
174
330
1F
100
AcDbEntity
  8
0
  6
Continuous
 62
     7
370
    15
100
AcDbLine
 10
740.232621095
 20
599.3888908767
 30
0.0
 11
745.9013499741
 21
596.6429478014
 31
0.0
  0
LINE
  5
175
330
1F
100
AcDbEntity
  8
0
  6
Continuous
 62
     7
370
    15
100
AcDbLine
 10
740.232621095
 20
599.3888908767
 30
0.0
 11
740.7151686181
 21
602.3719982072
 31
0.0
  0
LINE
  5
176
330
1F
100
AcDbEntity
  8
0
  6
Continuous
 62
     7
370
    15
100
AcDbLine
 10
740.7178320656
 20
602.3735540467
 30
0.0
 11
740.7151686181
 21
602.3719982072
 31
0.0
  0
LINE
  5
177
330
1F
100
AcDbEntity
  8
0
  6
Continuous
 62
     7
370
    15
100
AcDbLine
 10
746.3820878895
 20
599.6297777279
 30
0.0
 11
740.7178320656
 21
602.3735540467
 31
0.0
  0
LINE
  5
178
330
1F
100
AcDbEntity
  8
0
  6
Continuous
 62
     7
370
    15
100
AcDbLine
 10
740.7178320656
 20
602.3735540467
 30
0.0
 11
741.2145555051
 21
602.6619695006
 31
0.0
  0
LINE
  5
179
330
1F
100
AcDbEntity
  8
0
  6
Continuous
 62
     7
370
    15
100
AcDbLine
 10
741.2145555051
 20
602.6619695006
 30
0.0
 11
746.4236577183
 21
600.1386704584
 31
0.0
  0
LINE
  5
17A
330
1F
100
AcDbEntity
  8
0
  6
Continuous
 62
     7
370
    15
100
AcDbLine
 10
746.3820878895
 20
599.6297777279
 30
0.0
 11
746.4236577183
 21
600.1386704584
 31
0.0
  0
LINE
  5
17B
330
1F
100
AcDbEntity
  8
0
  6
Continuous
 62
     7
370
    15
100
AcDbLine
 10
799.0481584735
 20
627.2779521864
 30
0.0
 11
745.9013499741
 21
596.6429478014
 31
0.0
  0
LINE
  5
17C
330
1F
100
AcDbEntity
  8
0
  6
Continuous
 62
     7
370
    15
100
AcDbLine
 10
799.233733954
 20
630.0898782158
 30
0.0
 11
746.3838974972
 21
599.6260551319
 31
0.0
  0
LINE
  5
17D
330
1F
100
AcDbEntity
  8
0
  6
Continuous
 62
     7
370
    15
100
AcDbLine
 10
799.0481584735
 20
627.2779521864
 30
0.0
 11
799.233733954
 21
630.0898782158
 31
0.0
  0
LINE
  5
17E
330
1F
100
AcDbEntity
  8
0
  6
Continuous
 62
     7
370
    15
100
AcDbLine
 10
746.4236577183
 20
600.1386704584
 30
0.0
 11
799.0207911193
 21
630.4568298714
 31
0.0
  0
LINE
  5
17F
330
1F
100
AcDbEntity
  8
0
  6
Continuous
 62
     7
370
    15
100
AcDbLine
 10
799.0207911193
 20
630.4568298714
 30
0.0
 11
799.233733954
 21
630.0898782158
 31
0.0
  0
LINE
  5
180
330
1F
100
AcDbEntity
  8
0
  6
Continuous
 62
     7
370
    15
100
AcDbLine
 10
793.8116889061
 20
632.9801289135
 30
0.0
 11
741.2145555051
 21
602.6619695006
 31
0.0
  0
LINE
  5
181
330
1F
100
AcDbEntity
  8
0
  6
Continuous
 62
     7
370
    15
100
AcDbLine
 10
793.8116889061
 20
632.9801289135
 30
0.0
 11
799.0207911193
 21
630.4568298714
 31
0.0
  0
LINE
  5
182
330
1F
100
AcDbEntity
  8
0
  6
Continuous
 62
     7
370
    15
100
AcDbLine
 10
722.6070783617
 20
489.7753633323
 30
0.0
 11
726.4373005773
 21
487.9199963895
 31
0.0
  0
LINE
  5
183
330
1F
100
AcDbEntity
  8
0
  6
Continuous
 62
     7
370
    15
100
AcDbLine
 10
722.6070783617
 20
489.7753633323
 30
0.0
 11
742.5268399293
 21
598.2775668999
 31
0.0
  0
LINE
  5
184
330
1F
100
AcDbEntity
  8
0
  6
Continuous
 62
     7
370
    15
100
AcDbLine
 10
726.4373005773
 20
487.9199963895
 30
0.0
 11
746.4563181664
 21
596.9628438306
 31
0.0
  0
LINE
  5
185
330
1F
100
AcDbEntity
  8
0
  6
Continuous
 62
     7
370
    15
100
AcDbLine
 10
809.25473968
 20
589.9339558323
 30
0.0
 11
784.778097826
 21
617.7325422962
 31
0.0
  0
LINE
  5
186
330
1F
100
AcDbEntity
  8
0
  6
Continuous
 62
     7
370
    15
100
AcDbLine
 10
784.778097826
 20
617.7325422962
 30
0.0
 11
749.4240642658
 21
597.3536897606
 31
0.0
  0
LINE
  5
187
330
1F
100
AcDbEntity
  8
0
  6
Continuous
 62
     7
370
    15
100
AcDbLine
 10
749.4240642658
 20
597.3536897606
 30
0.0
 11
739.6827171078
 21
544.2929325436
 31
0.0
  0
LINE
  5
188
330
1F
100
AcDbEntity
  8
0
  6
Continuous
 62
     7
370
    15
100
AcDbLine
 10
739.6827171078
 20
544.2929325436
 30
0.0
 11
809.25473968
 21
589.9339558323
 31
0.0
  0
LINE
  5
189
330
1F
100
AcDbEntity
  8
0
  6
Continuous
 62
     7
370
    15
100
AcDbLine
 10
788.9394051728
 20
620.1312125534
 30
0.0
 11
837.8567405031
 21
564.5748668801
 31
0.0
  0
LINE
  5
18A
330
1F
100
AcDbEntity
  8
0
  6
Continuous
 62
     7
370
    15
100
AcDbLine
 10
837.8567405031
 20
564.5748668801
 30
0.0
 11
833.9499950985
 21
561.8870857961
 31
0.0
  0
LINE
  5
18B
330
1F
100
AcDbEntity
  8
0
  6
Continuous
 62
     7
370
    15
100
AcDbLine
 10
833.9499950985
 20
561.8870857961
 30
0.0
 11
811.5340747696
 21
587.3452717331
 31
0.0
  0
LINE
  5
18C
330
1F
100
AcDbEntity
  8
0
  6
Continuous
 62
     7
370
    15
100
AcDbLine
 10
811.5340747696
 20
587.3452717331
 30
0.0
 11
738.83027723
 21
539.6497240977
 31
0.0
  0
LINE
  5
18D
330
1F
100
AcDbEntity
  8
0
  6
Continuous
 62
     7
370
    15
100
AcDbLine
 10
738.83027723
 20
539.6497240977
 30
0.0
 11
729.7519526517
 21
490.2004263186
 31
0.0
  0
LINE
  5
18E
330
1F
100
AcDbEntity
  8
0
  6
Continuous
 62
     7
370
    15
100
AcDbLine
 10
729.7519526517
 20
490.2004263186
 30
0.0
 11
726.4373005773
 21
487.9199963895
 31
0.0
  0
LINE
  5
18F
330
1F
100
AcDbEntity
  8
0
  6
Continuous
 62
     7
370
    15
100
AcDbLine
 10
799.2017666098
 20
630.1449656288
 30
0.0
 11
822.2670048659
 21
643.4402827902
 31
0.0
  0
LINE
  5
190
330
1F
100
AcDbEntity
  8
0
  6
Continuous
 62
     7
370
    15
100
AcDbLine
 10
821.9837025407
 20
639.1786816931
 30
0.0
 11
822.2670048659
 21
643.4402827902
 31
0.0
  0
LINE
  5
191
330
1F
100
AcDbEntity
  8
0
  6
Continuous
 62
     7
370
    15
100
AcDbLine
 10
821.9837025407
 20
639.1786816931
 30
0.0
 11
788.9394051728
 21
620.1312125534
 31
0.0
  0
LINE
  5
192
330
1F
100
AcDbEntity
  8
0
  6
Continuous
 62
     7
370
    15
100
AcDbLine
 10
818.7157973234
 20
645.4564800062
 30
0.0
 11
822.2670048659
 21
643.4402827902
 31
0.0
  0
LINE
  5
193
330
1F
100
AcDbEntity
  8
0
  6
Continuous
 62
     7
370
    15
100
AcDbLine
 10
795.5828889068
 20
632.1221562568
 30
0.0
 11
818.7157973234
 21
645.4564800062
 31
0.0
  0
LINE
  5
194
330
1F
100
AcDbEntity
  8
0
  6
Continuous
 62
     7
370
    15
100
AcDbLine
 10
740.5944573633
 20
549.2591479507
 30
0.0
 11
743.7479941202
 21
551.327948587
 31
0.0
  0
LINE
  5
195
330
1F
100
AcDbEntity
  8
0
  6
Continuous
 62
     7
370
    15
100
AcDbLine
 10
805.4245174644
 20
591.789322775
 30
0.0
 11
809.25473968
 21
589.9339558323
 31
0.0
  0
LINE
  5
196
330
1F
100
AcDbEntity
  8
0
  6
Continuous
 62
     7
370
    15
100
AcDbLine
 10
743.7479941202
 20
551.327948587
 30
0.0
 11
805.4245174644
 21
591.789322775
 31
0.0
  0
LINE
  5
197
330
1F
100
AcDbEntity
  8
0
  6
Continuous
 62
     7
370
    15
100
AcDbLine
 10
743.7481733434
 20
551.337052542
 30
0.0
 11
740.5963330672
 21
549.2693648404
 31
0.0
  0
LINE
  5
198
330
1F
100
AcDbEntity
  8
0
  6
Continuous
 62
     7
370
    15
100
AcDbLine
 10
743.7479941202
 20
551.327948587
 30
0.0
 11
743.7481733434
 21
551.337052542
 31
0.0
  0
LINE
  5
199
330
1F
100
AcDbEntity
  8
0
  6
Continuous
 62
     7
370
    15
100
AcDbLine
 10
742.5126862481
 20
552.0502840605
 30
0.0
 11
743.7481733434
 21
551.337052542
 31
0.0
  0
LINE
  5
19A
330
1F
100
AcDbEntity
  8
0
  6
Continuous
 62
     7
370
    15
100
AcDbLine
 10
805.4245174644
 20
591.789322775
 30
0.0
 11
783.3210398353
 21
616.892661611
 31
0.0
  0
LINE
  5
19B
330
1F
100
AcDbEntity
  8
0
  6
Continuous
 62
     7
370
    15
100
AcDbLine
 10
720.9976190702
 20
644.7960500921
 30
0.0
 11
700.9361218363
 21
665.7777115152
 31
0.0
  0
LINE
  5
19C
330
1F
100
AcDbEntity
  8
0
  6
Continuous
 62
     7
370
    15
100
AcDbLine
 10
700.9361218363
 20
665.7777115152
 30
0.0
 11
658.8028253281
 21
649.3124441764
 31
0.0
  0
LINE
  5
19D
330
1F
100
AcDbEntity
  8
0
  6
Continuous
 62
     7
370
    15
100
AcDbLine
 10
658.8028253281
 20
649.3124441764
 30
0.0
 11
651.4230396145
 21
616.2682816543
 31
0.0
  0
LINE
  5
19E
330
1F
100
AcDbEntity
  8
0
  6
Continuous
 62
     7
370
    15
100
AcDbLine
 10
645.6493058322
 20
590.415471713
 30
0.0
 11
635.3585156381
 21
544.3368243312
 31
0.0
  0
LINE
  5
19F
330
1F
100
AcDbEntity
  8
0
  6
Continuous
 62
     7
370
    15
100
AcDbLine
 10
635.3585156381
 20
544.3368243312
 30
0.0
 11
631.4082671203
 21
542.4233164188
 31
0.0
  0
LINE
  5
1A0
330
1F
100
AcDbEntity
  8
0
  6
Continuous
 62
     7
370
    15
100
AcDbLine
 10
631.4082671203
 20
542.4233164188
 30
0.0
 11
642.5287273855
 21
592.2169433049
 31
0.0
  0
LINE
  5
1A1
330
1F
100
AcDbEntity
  8
0
  6
Continuous
 62
     7
370
    15
100
AcDbLine
 10
647.5450154195
 20
614.6781696177
 30
0.0
 11
655.3010077063
 21
649.4068568169
 31
0.0
  0
LINE
  5
1A2
330
1F
100
AcDbEntity
  8
0
  6
Continuous
 62
     7
370
    15
100
AcDbLine
 10
717.8338137589
 20
676.479458422
 30
0.0
 11
730.3741073016
 21
681.380078663
 31
0.0
  0
LINE
  5
1A3
330
1F
100
AcDbEntity
  8
0
  6
Continuous
 62
     7
370
    15
100
AcDbLine
 10
729.2164523089
 20
676.8293794418
 30
0.0
 11
705.8953748167
 21
667.7157375632
 31
0.0
  0
LINE
  5
1A4
330
1F
100
AcDbEntity
  8
0
  6
Continuous
 62
     7
370
    15
100
AcDbLine
 10
705.8953748167
 20
667.7157375632
 30
0.0
 11
725.8913291388
 21
646.8026253201
 31
0.0
  0
LINE
  5
1A5
330
1F
100
AcDbEntity
  8
0
  6
Continuous
 62
     7
370
    15
100
AcDbLine
 10
631.4082671203
 20
542.4233164188
 30
0.0
 11
628.1943290718
 21
544.6344566384
 31
0.0
  0
LINE
  5
1A6
330
1F
100
AcDbEntity
  8
0
  6
Continuous
 62
     7
370
    15
100
AcDbLine
 10
628.1943290718
 20
544.6344566384
 30
0.0
 11
641.3498300882
 21
603.5403016742
 31
0.0
  0
LINE
  5
1A7
330
1F
100
AcDbEntity
  8
0
  6
Continuous
 62
     7
370
    15
100
AcDbLine
 10
643.4635062428
 20
613.0046223311
 30
0.0
 11
651.8739378415
 21
650.6636654812
 31
0.0
  0
LINE
  5
1A8
330
1F
100
AcDbEntity
  8
0
  6
Continuous
 62
     7
370
    15
100
AcDbLine
 10
714.9380819832
 20
678.8149504438
 30
0.0
 11
731.3534703089
 21
685.2299186435
 31
0.0
  0
LINE
  5
1A9
330
1F
100
AcDbEntity
  8
0
  6
Continuous
 62
     7
370
    15
100
AcDbLine
 10
801.7574759807
 20
590.8999597394
 30
0.0
 11
802.9869363938
 21
590.1902073505
 31
0.0
  0
LINE
  5
1AA
330
1F
100
AcDbEntity
  8
0
  6
Continuous
 62
     7
370
    15
100
AcDbLine
 10
830.1197728829
 20
563.7424527389
 30
0.0
 11
833.9499950985
 21
561.8870857961
 31
0.0
  0
LINE
  5
1AB
330
1F
100
AcDbEntity
  8
0
  6
Continuous
 62
     7
370
    15
100
AcDbLine
 10
830.1197728829
 20
563.7424527389
 30
0.0
 11
810.1417506523
 21
586.4318715599
 31
0.0
  0
LINE
  5
1AC
330
1F
100
AcDbEntity
  8
0
  6
Continuous
 62
     7
370
    15
100
AcDbLine
 10
720.2075832565
 20
644.4721105307
 30
0.0
 11
700.1355048384
 21
665.4648384671
 31
0.0
  0
LINE
  5
1AD
330
1F
100
AcDbEntity
  8
0
  6
Continuous
 62
     7
370
    15
100
AcDbLine
 10
654.8555173306
 20
651.9377198594
 30
0.0
 11
717.839499796
 21
676.55122498
 31
0.0
  0
LINE
  5
1AE
330
1F
100
AcDbEntity
  8
0
  6
Continuous
 62
     7
370
    15
100
AcDbLine
 10
717.6183395504
 20
673.7598415983
 30
0.0
 11
717.839499796
 21
676.55122498
 31
0.0
  0
LINE
  5
1AF
330
1F
100
AcDbEntity
  8
0
  6
Continuous
 62
     7
370
    15
100
AcDbLine
 10
654.2804395863
 20
649.0080290886
 30
0.0
 11
717.6183395504
 21
673.7598415983
 31
0.0
  0
LINE
  5
1B0
330
1F
100
AcDbEntity
  8
0
  6
Continuous
 62
     7
370
    15
100
AcDbLine
 10
654.2804395863
 20
649.0080290886
 30
0.0
 11
654.8555173306
 21
651.9377198594
 31
0.0
  0
LINE
  5
1B1
330
1F
100
AcDbEntity
  8
0
  6
Continuous
 62
     7
370
    15
100
AcDbLine
 10
717.66676899
 20
676.9376555188
 30
0.0
 11
654.9839462992
 21
652.4418406008
 31
0.0
  0
LINE
  5
1B2
330
1F
100
AcDbEntity
  8
0
  6
Continuous
 62
     7
370
    15
100
AcDbLine
 10
717.839499796
 20
676.55122498
 30
0.0
 11
717.66676899
 21
676.9376555188
 31
0.0
  0
LINE
  5
1B3
330
1F
100
AcDbEntity
  8
0
  6
Continuous
 62
     7
370
    15
100
AcDbLine
 10
654.8541494445
 20
651.9416029383
 30
0.0
 11
654.8555173306
 21
651.9377198594
 31
0.0
  0
LINE
  5
1B4
330
1F
100
AcDbEntity
  8
0
  6
Continuous
 62
     7
370
    15
100
AcDbLine
 10
654.8541494445
 20
651.9416029383
 30
0.0
 11
654.9839462992
 21
652.4418406008
 31
0.0
  0
LINE
  5
1B5
330
1F
100
AcDbEntity
  8
0
  6
Continuous
 62
     7
370
    15
100
AcDbLine
 10
654.9839462992
 20
652.4418406008
 30
0.0
 11
650.6129905533
 21
655.4489912995
 31
0.0
  0
LINE
  5
1B6
330
1F
100
AcDbEntity
  8
0
  6
Continuous
 62
     7
370
    15
100
AcDbLine
 10
650.6129905533
 20
655.4489912995
 30
0.0
 11
713.2958132441
 21
679.9448062175
 31
0.0
  0
LINE
  5
1B7
330
1F
100
AcDbEntity
  8
0
  6
Continuous
 62
     7
370
    15
100
AcDbLine
 10
717.66676899
 20
676.9376555188
 30
0.0
 11
713.2958132441
 21
679.9448062175
 31
0.0
  0
LINE
  5
1B8
330
1F
100
AcDbEntity
  8
0
  6
Continuous
 62
     7
370
    15
100
AcDbLine
 10
650.0988890189
 20
655.2102073844
 30
0.0
 11
649.5238112746
 21
652.2805166136
 31
0.0
  0
LINE
  5
1B9
330
1F
100
AcDbEntity
  8
0
  6
Continuous
 62
     7
370
    15
100
AcDbLine
 10
650.0988890189
 20
655.2102073844
 30
0.0
 11
650.1012744717
 21
655.2115082236
 31
0.0
  0
LINE
  5
1BA
330
1F
100
AcDbEntity
  8
0
  6
Continuous
 62
     7
370
    15
100
AcDbLine
 10
650.1012744717
 20
655.2115082236
 30
0.0
 11
654.8541494445
 21
651.9416029383
 31
0.0
  0
LINE
  5
1BB
330
1F
100
AcDbEntity
  8
0
  6
Continuous
 62
     7
370
    15
100
AcDbLine
 10
654.2804395863
 20
649.0080290886
 30
0.0
 11
649.5238112746
 21
652.2805166136
 31
0.0
  0
LINE
  5
1BC
330
1F
100
AcDbEntity
  8
0
  6
Continuous
 62
     7
370
    15
100
AcDbLine
 10
650.1012744717
 20
655.2115082236
 30
0.0
 11
650.6129905533
 21
655.4489912995
 31
0.0
  0
ARC
  5
1BD
330
1F
100
AcDbEntity
  8
0
  6
Continuous
 62
     7
370
    15
100
AcDbCircle
 10
808.1258448436
 20
238.0052432686
 30
0.0
 40
3.000000000000012
100
AcDbArc
 50
1.4356912323
 51
94.0116828924
  0
LINE
  5
1BE
330
1F
100
AcDbEntity
  8
0
  6
Continuous
 62
     7
370
    15
100
AcDbLine
 10
811.1249030725
 20
238.0804080194
 30
0.0
 11
811.6075107784
 21
218.824458973
 31
0.0
  0
LINE
  5
1BF
330
1F
100
AcDbEntity
  8
0
  6
Continuous
 62
     7
370
    15
100
AcDbLine
 10
689.0377190039
 20
232.6607571838
 30
0.0
 11
699.9273865507
 21
233.4244682648
 31
0.0
  0
LINE
  5
1C0
330
1F
100
AcDbEntity
  8
0
  6
Continuous
 62
     7
370
    15
100
AcDbLine
 10
706.7498688947
 20
233.9029406648
 30
0.0
 11
794.4799365009
 21
240.0556009256
 31
0.0
  0
LINE
  5
1C1
330
1F
100
AcDbEntity
  8
0
  6
Continuous
 62
     7
370
    15
100
AcDbLine
 10
799.9507505183
 20
240.4392785052
 30
0.0
 11
807.915965202
 21
240.9978926861
 31
0.0
  0
ARC
  5
1C2
330
1F
100
AcDbEntity
  8
0
  6
Continuous
 62
     7
370
    15
100
AcDbCircle
 10
810.0080130564
 20
218.7843711059
 30
0.0
 40
1.6
100
AcDbArc
 50
271.4356912323
 51
1.4356912323
  0
LINE
  5
1C3
330
1F
100
AcDbEntity
  8
0
  6
Continuous
 62
     7
370
    15
100
AcDbLine
 10
808.5271318393
 20
217.1467536631
 30
0.0
 11
810.0481009235
 21
217.1848733838
 31
0.0
  0
LINE
  5
1C4
330
1F
100
AcDbEntity
  8
0
  6
Continuous
 62
     7
370
    15
100
AcDbLine
 10
808.5271318393
 20
217.1467536631
 30
0.0
 11
806.1603283712
 21
217.0874349772
 31
0.0
  0
ARC
  5
1C5
330
1F
100
AcDbEntity
  8
0
  6
Continuous
 62
     7
370
    15
100
AcDbCircle
 10
689.2475986455
 20
229.6681077663
 30
0.0
 40
3.0
100
AcDbArc
 50
94.0116828924
 51
180.0
  0
LINE
  5
1C6
330
1F
100
AcDbEntity
  8
0
  6
Continuous
 62
     7
370
    15
100
AcDbLine
 10
686.2475986455
 20
215.7226909356
 30
0.0
 11
686.2475986455
 21
229.6681077663
 31
0.0
  0
ARC
  5
1C7
330
1F
100
AcDbEntity
  8
0
  6
Continuous
 62
     7
370
    15
100
AcDbCircle
 10
687.8475986455
 20
215.7226909356
 30
0.0
 40
1.600000000000136
100
AcDbArc
 50
180.0
 51
229.2427984949
  0
LINE
  5
1C8
330
1F
100
AcDbEntity
  8
0
  6
Continuous
 62
     7
370
    15
100
AcDbLine
 10
667.2291444599
 20
299.6419860747
 30
0.0
 11
666.2524399966
 21
302.4785418015
 31
0.0
  0
ARC
  5
1C9
330
1F
100
AcDbEntity
  8
0
  6
Continuous
 62
     7
370
    15
100
AcDbCircle
 10
669.0889957234
 20
303.4552462649
 30
0.0
 40
3.000000000000055
100
AcDbArc
 50
109.0
 51
199.0
  0
LINE
  5
1CA
330
1F
100
AcDbEntity
  8
0
  6
Continuous
 62
     7
370
    15
100
AcDbLine
 10
683.9336373603
 20
308.5666662899
 30
0.0
 11
684.9103418237
 21
305.7301105631
 31
0.0
  0
ARC
  5
1CB
330
1F
100
AcDbEntity
  8
0
  6
Continuous
 62
     7
370
    15
100
AcDbCircle
 10
681.0970816335
 20
307.5899618265
 30
0.0
 40
3.000000000000111
100
AcDbArc
 50
19.0
 51
109.0
  0
LINE
  5
1CC
330
1F
100
AcDbEntity
  8
0
  6
Continuous
 62
     7
370
    15
100
AcDbLine
 10
684.9103418237
 20
305.7301105631
 30
0.0
 11
696.8430198747
 21
271.0750971673
 31
0.0
  0
LINE
  5
1CD
330
1F
100
AcDbEntity
  8
0
  6
Continuous
 62
     7
370
    15
100
AcDbLine
 10
698.5331578111
 20
266.1665801877
 30
0.0
 11
701.8398858554
 21
256.5631446319
 31
0.0
  0
LINE
  5
1CE
330
1F
100
AcDbEntity
  8
0
  6
Continuous
 62
     7
370
    15
100
AcDbLine
 10
684.1586884917
 20
250.4750201436
 30
0.0
 11
679.3383170976
 21
264.4743951808
 31
0.0
  0
LINE
  5
1CF
330
1F
100
AcDbEntity
  8
0
  6
Continuous
 62
     7
370
    15
100
AcDbLine
 10
677.6481791612
 20
269.3829121604
 30
0.0
 11
667.2291444599
 21
299.6419860747
 31
0.0
  0
LINE
  5
1D0
330
1F
100
AcDbEntity
  8
0
  6
Continuous
 62
     7
370
    15
100
AcDbLine
 10
701.8398858554
 20
256.5631446319
 30
0.0
 11
702.8165903188
 21
253.7265889051
 31
0.0
  0
ARC
  5
1D1
330
1F
100
AcDbEntity
  8
0
  6
Continuous
 62
     7
370
    15
100
AcDbCircle
 10
699.980034592
 20
252.7498844417
 30
0.0
 40
2.999999999999947
100
AcDbArc
 50
289.0
 51
19.0
  0
LINE
  5
1D2
330
1F
100
AcDbEntity
  8
0
  6
Continuous
 62
     7
370
    15
100
AcDbLine
 10
668.11229126
 20
306.2918019917
 30
0.0
 11
680.1203771701
 21
310.4265175533
 31
0.0
  0
LINE
  5
1D3
330
1F
100
AcDbEntity
  8
0
  6
Continuous
 62
     7
370
    15
100
AcDbLine
 10
700.9567390554
 20
249.9133287149
 30
0.0
 11
688.9486531453
 21
245.7786131533
 31
0.0
  0
ARC
  5
1D4
330
1F
100
AcDbEntity
  8
0
  6
Continuous
 62
     7
370
    15
100
AcDbCircle
 10
687.9719486819
 20
248.6151688801
 30
0.0
 40
2.999999999999945
100
AcDbArc
 50
199.0
 51
289.0
  0
LINE
  5
1D5
330
1F
100
AcDbEntity
  8
0
  6
Continuous
 62
     7
370
    15
100
AcDbLine
 10
685.1353929551
 20
247.6384644168
 30
0.0
 11
684.1586884917
 21
250.4750201436
 31
0.0
  0
LINE
  5
1D6
330
1F
100
AcDbEntity
  8
0
  6
Continuous
 62
     7
370
    15
100
AcDbLine
 10
675.731024484
 20
274.0292675821
 30
0.0
 11
676.0146800567
 21
274.1269380284
 31
0.0
  0
LINE
  5
1D7
330
1F
100
AcDbEntity
  8
0
  6
Continuous
 62
     7
370
    15
100
AcDbLine
 10
676.7077289474
 20
271.1927118553
 30
0.0
 11
675.731024484
 21
274.0292675821
 31
0.0
  0
LINE
  5
1D8
330
1F
100
AcDbEntity
  8
0
  6
Continuous
 62
     7
370
    15
100
AcDbLine
 10
681.223770528
 20
258.9986408188
 30
0.0
 11
680.9401149553
 21
258.9009703725
 31
0.0
  0
LINE
  5
1D9
330
1F
100
AcDbEntity
  8
0
  6
Continuous
 62
     7
370
    15
100
AcDbLine
 10
680.9401149553
 20
258.9009703725
 30
0.0
 11
679.963410492
 21
261.7375260993
 31
0.0
  0
LINE
  5
1DA
330
1F
100
AcDbEntity
  8
0
  6
Continuous
 62
     7
370
    15
100
AcDbLine
 10
679.963410492
 20
261.7375260993
 30
0.0
 11
679.0303784765
 21
264.4472478277
 31
0.0
  0
LINE
  5
1DB
330
1F
100
AcDbEntity
  8
0
  6
Continuous
 62
     7
370
    15
100
AcDbLine
 10
677.3402405401
 20
269.3557648074
 30
0.0
 11
676.7077289474
 21
271.1927118553
 31
0.0
  0
LINE
  5
1DC
330
1F
100
AcDbEntity
  8
0
  6
Continuous
 62
     7
370
    15
100
AcDbLine
 10
785.4880100047
 20
273.8707918335
 30
0.0
 11
800.5851871201
 21
217.0960921578
 31
0.0
  0
LINE
  5
1DD
330
1F
100
AcDbEntity
  8
0
  6
Continuous
 62
     7
370
    15
100
AcDbLine
 10
730.6961934572
 20
269.0404370603
 30
0.0
 11
785.4880100047
 21
273.8707918335
 31
0.0
  0
LINE
  5
1DE
330
1F
100
AcDbEntity
  8
0
  6
Continuous
 62
     7
370
    15
100
AcDbLine
 10
692.762200215
 20
214.3730633841
 30
0.0
 11
730.6961934572
 21
269.0404370603
 31
0.0
  0
LINE
  5
1DF
330
1F
100
AcDbEntity
  8
0
  6
Continuous
 62
     7
370
    15
100
AcDbLine
 10
800.5851871201
 20
217.0960921578
 30
0.0
 11
692.762200215
 21
214.3730633841
 31
0.0
  0
LINE
  5
1E0
330
1F
100
AcDbEntity
  8
0
  6
Continuous
 62
     7
370
    15
100
AcDbLine
 10
821.1129843627
 20
159.217427082
 30
0.0
 11
789.7771368407
 21
277.0595454161
 31
0.0
  0
LINE
  5
1E1
330
1F
100
AcDbEntity
  8
0
  6
Continuous
 62
     7
370
    15
100
AcDbLine
 10
815.9759238892
 20
159.217427082
 30
0.0
 11
821.1129843627
 21
159.217427082
 31
0.0
  0
LINE
  5
1E2
330
1F
100
AcDbEntity
  8
0
  6
Continuous
 62
     7
370
    15
100
AcDbLine
 10
801.9063017059
 20
212.1278862959
 30
0.0
 11
815.9759238892
 21
159.217427082
 31
0.0
  0
LINE
  5
1E3
330
1F
100
AcDbEntity
  8
0
  6
Continuous
 62
     7
370
    15
100
AcDbLine
 10
689.2296779678
 20
209.2822807587
 30
0.0
 11
801.9063017059
 21
212.1278862959
 31
0.0
  0
LINE
  5
1E4
330
1F
100
AcDbEntity
  8
0
  6
Continuous
 62
     7
370
    15
100
AcDbLine
 10
654.4893988336
 20
159.217427082
 30
0.0
 11
689.2296779678
 21
209.2822807587
 31
0.0
  0
LINE
  5
1E5
330
1F
100
AcDbEntity
  8
0
  6
Continuous
 62
     7
370
    15
100
AcDbLine
 10
648.4347098506
 20
159.217427082
 30
0.0
 11
654.4893988336
 21
159.217427082
 31
0.0
  0
LINE
  5
1E6
330
1F
100
AcDbEntity
  8
0
  6
Continuous
 62
     7
370
    15
100
AcDbLine
 10
724.2469834016
 20
268.4718855039
 30
0.0
 11
648.4347098506
 21
159.217427082
 31
0.0
  0
LINE
  5
1E7
330
1F
100
AcDbEntity
  8
0
  6
Continuous
 62
     7
370
    15
100
AcDbLine
 10
673.0348048468
 20
263.9571056203
 30
0.0
 11
724.2469834016
 21
268.4718855039
 31
0.0
  0
LINE
  5
1E8
330
1F
100
AcDbEntity
  8
0
  6
Continuous
 62
     7
370
    15
100
AcDbLine
 10
672.5957418188
 20
268.9374977469
 30
0.0
 11
673.0348048468
 21
263.9571056203
 31
0.0
  0
LINE
  5
1E9
330
1F
100
AcDbEntity
  8
0
  6
Continuous
 62
     7
370
    15
100
AcDbLine
 10
709.7095377103
 20
272.2093878289
 30
0.0
 11
672.5957418188
 21
268.9374977469
 31
0.0
  0
LINE
  5
1EA
330
1F
100
AcDbEntity
  8
0
  6
Continuous
 62
     7
370
    15
100
AcDbLine
 10
821.5487630764
 20
159.217427082
 30
0.0
 11
790.2129155544
 21
277.0595454161
 31
0.0
  0
LINE
  5
1EB
330
1F
100
AcDbEntity
  8
0
  6
Continuous
 62
     7
370
    15
100
AcDbLine
 10
821.5487630764
 20
159.217427082
 30
0.0
 11
821.1129843627
 21
159.217427082
 31
0.0
  0
LINE
  5
1EC
330
1F
100
AcDbEntity
  8
0
  6
Continuous
 62
     7
370
    15
100
AcDbLine
 10
689.6654566815
 20
209.2822807587
 30
0.0
 11
801.9092086789
 21
212.1169542837
 31
0.0
  0
LINE
  5
1ED
330
1F
100
AcDbEntity
  8
0
  6
Continuous
 62
     7
370
    15
100
AcDbLine
 10
689.6654566815
 20
209.2822807587
 30
0.0
 11
689.2296779678
 21
209.2822807587
 31
0.0
  0
LINE
  5
1EE
330
1F
100
AcDbEntity
  8
0
  6
Continuous
 62
     7
370
    15
100
AcDbLine
 10
731.1319721709
 20
269.0404370603
 30
0.0
 11
785.4979917571
 21
273.8332542866
 31
0.0
  0
LINE
  5
1EF
330
1F
100
AcDbEntity
  8
0
  6
Continuous
 62
     7
370
    15
100
AcDbLine
 10
731.1319721709
 20
269.0404370603
 30
0.0
 11
730.6961934572
 21
269.0404370603
 31
0.0
  0
LINE
  5
1F0
330
1F
100
AcDbEntity
  8
0
  6
Continuous
 62
     7
370
    15
100
AcDbLine
 10
693.2057518708
 20
214.3842651134
 30
0.0
 11
731.1319721709
 21
269.0404370603
 31
0.0
  0
LINE
  5
1F1
330
1F
100
AcDbEntity
  8
0
  6
Continuous
 62
     7
370
    15
100
AcDbLine
 10
673.0381655521
 20
263.918984373
 30
0.0
 11
673.0348048468
 21
263.9571056203
 31
0.0
  0
LINE
  5
1F2
330
1F
100
AcDbEntity
  8
0
  6
Continuous
 62
     7
370
    15
100
AcDbLine
 10
673.0381655521
 20
263.918984373
 30
0.0
 11
724.2185882378
 21
268.4309647123
 31
0.0
  0
LINE
  5
1F3
330
1F
100
AcDbEntity
  8
0
  6
Continuous
 62
     7
370
    15
100
AcDbLine
 10
654.9251775474
 20
159.217427082
 30
0.0
 11
654.4893988336
 21
159.217427082
 31
0.0
  0
LINE
  5
1F4
330
1F
100
AcDbEntity
  8
0
  6
Continuous
 62
     7
370
    15
100
AcDbLine
 10
654.9251775474
 20
159.217427082
 30
0.0
 11
689.6654566815
 21
209.2822807587
 31
0.0
  0
LINE
  5
1F5
330
1F
100
AcDbEntity
  8
0
  6
Continuous
 62
     7
370
    15
100
AcDbLine
 10
792.1637839376
 20
280.5379655139
 30
0.0
 11
792.1647000379
 21
280.5350930263
 31
0.0
  0
LINE
  5
1F6
330
1F
100
AcDbEntity
  8
0
  6
Continuous
 62
     7
370
    15
100
AcDbLine
 10
792.9125540364
 20
277.2883208177
 30
0.0
 11
792.1647000379
 21
280.5350930263
 31
0.0
  0
LINE
  5
1F7
330
1F
100
AcDbEntity
  8
0
  6
Continuous
 62
     7
370
    15
100
AcDbLine
 10
792.9125540364
 20
277.2883208177
 30
0.0
 11
792.2676015401
 21
277.2883208177
 31
0.0
  0
LINE
  5
1F8
330
1F
100
AcDbEntity
  8
0
  6
Continuous
 62
     7
370
    15
100
AcDbLine
 10
791.5197475416
 20
280.5350930263
 30
0.0
 11
792.2676015401
 21
277.2883208177
 31
0.0
  0
LINE
  5
1F9
330
1F
100
AcDbEntity
  8
0
  6
Continuous
 62
     7
370
    15
100
AcDbLine
 10
791.5197475416
 20
280.5350930263
 30
0.0
 11
791.5193403575
 21
280.5379655139
 31
0.0
  0
LINE
  5
1FA
330
1F
100
AcDbEntity
  8
0
  6
Continuous
 62
     7
370
    15
100
AcDbLine
 10
791.5193403575
 20
280.5379655139
 30
0.0
 11
792.1637839376
 21
280.5379655139
 31
0.0
  0
LINE
  5
1FB
330
1F
100
AcDbEntity
  8
0
  6
Continuous
 62
     7
370
    15
100
AcDbLine
 10
789.3950633497
 20
277.025862457
 30
0.0
 11
710.0050611723
 21
270.0269728394
 31
0.0
  0
LINE
  5
1FC
330
1F
100
AcDbEntity
  8
0
  6
Continuous
 62
     7
370
    15
100
AcDbLine
 10
710.0050611723
 20
270.0269728394
 30
0.0
 11
709.900474281
 21
270.0269728394
 31
0.0
  0
LINE
  5
1FD
330
1F
100
AcDbEntity
  8
0
  6
Continuous
 62
     7
370
    15
100
AcDbLine
 10
709.900474281
 20
270.0269728394
 30
0.0
 11
792.2676015401
 21
277.2883208177
 31
0.0
  0
LINE
  5
1FE
330
1F
100
AcDbEntity
  8
0
  6
Continuous
 62
     7
370
    15
100
AcDbLine
 10
792.9125540364
 20
277.2883208177
 30
0.0
 11
790.215311175
 21
277.0505364048
 31
0.0
  0
LINE
  5
1FF
330
1F
100
AcDbEntity
  8
0
  6
Continuous
 62
     7
370
    15
100
AcDbLine
 10
709.6128686909
 20
273.3143197768
 30
0.0
 11
791.5197475416
 21
280.5350930263
 31
0.0
  0
LINE
  5
200
330
1F
100
AcDbEntity
  8
0
  6
Continuous
 62
     7
370
    15
100
AcDbLine
 10
709.900474281
 20
270.0269728394
 30
0.0
 11
709.6128686909
 21
273.3143197768
 31
0.0
  0
LINE
  5
201
330
1F
100
AcDbEntity
  8
0
  6
Continuous
 62
     7
370
    15
100
AcDbLine
 10
791.1281081383
 20
280.7994164071
 30
0.0
 11
709.612869451
 21
273.6131694983
 31
0.0
  0
LINE
  5
202
330
1F
100
AcDbEntity
  8
0
  6
Continuous
 62
     7
370
    15
100
AcDbLine
 10
791.5193403575
 20
280.5379655139
 30
0.0
 11
791.1281081383
 21
280.7994164071
 31
0.0
  0
LINE
  5
203
330
1F
100
AcDbEntity
  8
0
  6
Continuous
 62
     7
370
    15
100
AcDbLine
 10
709.612869451
 20
273.6131694983
 30
0.0
 11
709.6128686909
 21
273.3143197768
 31
0.0
  0
LINE
  5
204
330
1F
100
AcDbEntity
  8
0
  6
Continuous
 62
     7
370
    15
100
AcDbLine
 10
791.720767189
 20
280.7994164071
 30
0.0
 11
791.1281081383
 21
280.7994164071
 31
0.0
  0
LINE
  5
205
330
1F
100
AcDbEntity
  8
0
  6
Continuous
 62
     7
370
    15
100
AcDbLine
 10
792.1637839376
 20
280.5379655139
 30
0.0
 11
791.720767189
 21
280.7994164071
 31
0.0
  0
ENDSEC
  0
SECTION
  2
OBJECTS
  0
DICTIONARY
  5
C
330
0
100
AcDbDictionary
281
     1
  3
ACAD_GROUP
350
D
  3
ACAD_LAYOUT
350
1A
  3
ACAD_MLINESTYLE
350
17
  3
ACAD_PLOTSETTINGS
350
19
  3
ACAD_PLOTSTYLENAME
350
E
  3
ACAD_SCALELIST
350
47
  0
DICTIONARY
  5
D
102
{ACAD_REACTORS
330
C
102
}
330
C
100
AcDbDictionary
281
     1
  0
DICTIONARY
  5
1A
102
{ACAD_REACTORS
330
C
102
}
330
C
100
AcDbDictionary
281
     1
  3
Layout1
350
1E
  3
Layout2
350
26
  3
Model
350
22
  0
DICTIONARY
  5
17
102
{ACAD_REACTORS
330
C
102
}
330
C
100
AcDbDictionary
281
     1
  3
Standard
350
18
  0
DICTIONARY
  5
19
102
{ACAD_REACTORS
330
C
102
}
330
C
100
AcDbDictionary
281
     1
  0
ACDBDICTIONARYWDFLT
  5
E
102
{ACAD_REACTORS
330
C
102
}
330
C
100
AcDbDictionary
281
     1
  3
Normal
350
F
100
AcDbDictionaryWithDefault
340
F
  0
DICTIONARY
  5
47
102
{ACAD_REACTORS
330
C
102
}
330
C
100
AcDbDictionary
281
     1
  3
A0
350
48
  3
A1
350
49
  3
A2
350
4A
  3
A3
350
4B
  3
A4
350
4C
  3
A5
350
4D
  3
A6
350
4E
  3
A7
350
4F
  3
A8
350
50
  3
A9
350
51
  3
B0
350
52
  3
B1
350
53
  3
B2
350
54
  3
B3
350
55
  3
B4
350
56
  3
B5
350
57
  3
B6
350
58
  3
B7
350
59
  3
B8
350
5A
  3
B9
350
5B
  3
C0
350
5C
  3
C1
350
5D
  3
C2
350
5E
  3
C3
350
5F
  3
C4
350
60
  3
C5
350
61
  3
C6
350
62
  3
C7
350
63
  3
C8
350
64
  3
C9
350
65
  3
D0
350
66
  3
D1
350
67
  3
D2
350
68
  0
LAYOUT
  5
1E
102
{ACAD_REACTORS
330
1A
102
}
330
1A
100
AcDbPlotSettings
  1

  2
none_device
  4

  6

 40
0.0
 41
0.0
 42
0.0
 43
0.0
 44
0.0
 45
0.0
 46
0.0
 47
0.0
 48
0.0
 49
0.0
140
0.0
141
0.0
142
1.0
143
1.0
 70
   688
 72
     1
 73
     0
 74
     5
  7

 75
    16
147
1.0
148
0.0
149
0.0
100
AcDbLayout
  1
Layout1
 70
     1
 71
     1
 10
0.0
 20
0.0
 11
420.0
 21
297.0
 12
0.0
 22
0.0
 32
0.0
 14
1.0000000000E+20
 24
1.0000000000E+20
 34
1.0000000000E+20
 15
-1.0000000000E+20
 25
-1.0000000000E+20
 35
-1.0000000000E+20
146
0.0
 13
0.0
 23
0.0
 33
0.0
 16
1.0
 26
0.0
 36
0.0
 17
0.0
 27
1.0
 37
0.0
 76
     0
330
1B
  0
LAYOUT
  5
26
102
{ACAD_REACTORS
330
1A
102
}
330
1A
100
AcDbPlotSettings
  1

  2
none_device
  4

  6

 40
0.0
 41
0.0
 42
0.0
 43
0.0
 44
0.0
 45
0.0
 46
0.0
 47
0.0
 48
0.0
 49
0.0
140
0.0
141
0.0
142
1.0
143
1.0
 70
   688
 72
     1
 73
     0
 74
     5
  7

 75
    16
147
1.0
148
0.0
149
0.0
100
AcDbLayout
  1
Layout2
 70
     1
 71
     2
 10
0.0
 20
0.0
 11
0.0
 21
0.0
 12
0.0
 22
0.0
 32
0.0
 14
0.0
 24
0.0
 34
0.0
 15
0.0
 25
0.0
 35
0.0
146
0.0
 13
0.0
 23
0.0
 33
0.0
 16
1.0
 26
0.0
 36
0.0
 17
0.0
 27
1.0
 37
0.0
 76
     0
330
23
  0
LAYOUT
  5
22
102
{ACAD_REACTORS
330
1A
102
}
330
1A
100
AcDbPlotSettings
  1

  2
none_device
  4
Letter_(8.50_x_11.00_Inches)
  6

 40
6.35
 41
6.35
 42
6.35000508
 43
6.35000508
 44
215.9
 45
279.4
 46
0.0
 47
0.0
 48
0.0
 49
0.0
140
0.0
141
0.0
142
1.0
143
1.0
 70
  1712
 72
     1
 73
     0
 74
     0
  7

 75
     0
147
1.0
148
0.0
149
0.0
100
AcDbLayout
  1
Model
 70
     1
 71
     0
 10
0.0
 20
0.0
 11
1189.0
 21
841.0
 12
0.0
 22
0.0
 32
0.0
 14
0.0
 24
0.0
 34
0.0
 15
1189.0
 25
841.0
 35
0.0
146
0.0
 13
0.0
 23
0.0
 33
0.0
 16
1.0
 26
0.0
 36
0.0
 17
0.0
 27
1.0
 37
0.0
 76
     0
330
1F
331
29
  0
MLINESTYLE
  5
18
102
{ACAD_REACTORS
330
17
102
}
330
17
100
AcDbMlineStyle
  2
Standard
 70
     0
  3

 62
   256
 51
90.0
 52
90.0
 71
     2
 49
0.5
 62
   256
  6
BYLAYER
 49
-0.5
 62
   256
  6
BYLAYER
  0
ACDBPLACEHOLDER
  5
F
102
{ACAD_REACTORS
330
E
102
}
330
E
  0
SCALE
  5
48
102
{ACAD_REACTORS
330
47
102
}
330
47
100
AcDbScale
 70
     0
300
1:1
140
1.0
141
1.0
290
     1
  0
SCALE
  5
49
102
{ACAD_REACTORS
330
47
102
}
330
47
100
AcDbScale
 70
     0
300
1:2
140
1.0
141
2.0
290
     0
  0
SCALE
  5
4A
102
{ACAD_REACTORS
330
47
102
}
330
47
100
AcDbScale
 70
     0
300
1:4
140
1.0
141
4.0
290
     0
  0
SCALE
  5
4B
102
{ACAD_REACTORS
330
47
102
}
330
47
100
AcDbScale
 70
     0
300
1:5
140
1.0
141
5.0
290
     0
  0
SCALE
  5
4C
102
{ACAD_REACTORS
330
47
102
}
330
47
100
AcDbScale
 70
     0
300
1:8
140
1.0
141
8.0
290
     0
  0
SCALE
  5
4D
102
{ACAD_REACTORS
330
47
102
}
330
47
100
AcDbScale
 70
     0
300
1:10
140
1.0
141
10.0
290
     0
  0
SCALE
  5
4E
102
{ACAD_REACTORS
330
47
102
}
330
47
100
AcDbScale
 70
     0
300
1:16
140
1.0
141
16.0
290
     0
  0
SCALE
  5
4F
102
{ACAD_REACTORS
330
47
102
}
330
47
100
AcDbScale
 70
     0
300
1:20
140
1.0
141
20.0
290
     0
  0
SCALE
  5
50
102
{ACAD_REACTORS
330
47
102
}
330
47
100
AcDbScale
 70
     0
300
1:30
140
1.0
141
30.0
290
     0
  0
SCALE
  5
51
102
{ACAD_REACTORS
330
47
102
}
330
47
100
AcDbScale
 70
     0
300
1:40
140
1.0
141
40.0
290
     0
  0
SCALE
  5
52
102
{ACAD_REACTORS
330
47
102
}
330
47
100
AcDbScale
 70
     0
300
1:50
140
1.0
141
50.0
290
     0
  0
SCALE
  5
53
102
{ACAD_REACTORS
330
47
102
}
330
47
100
AcDbScale
 70
     0
300
1:100
140
1.0
141
100.0
290
     0
  0
SCALE
  5
54
102
{ACAD_REACTORS
330
47
102
}
330
47
100
AcDbScale
 70
     0
300
2:1
140
2.0
141
1.0
290
     0
  0
SCALE
  5
55
102
{ACAD_REACTORS
330
47
102
}
330
47
100
AcDbScale
 70
     0
300
4:1
140
4.0
141
1.0
290
     0
  0
SCALE
  5
56
102
{ACAD_REACTORS
330
47
102
}
330
47
100
AcDbScale
 70
     0
300
8:1
140
8.0
141
1.0
290
     0
  0
SCALE
  5
57
102
{ACAD_REACTORS
330
47
102
}
330
47
100
AcDbScale
 70
     0
300
10:1
140
10.0
141
1.0
290
     0
  0
SCALE
  5
58
102
{ACAD_REACTORS
330
47
102
}
330
47
100
AcDbScale
 70
     0
300
100:1
140
100.0
141
1.0
290
     0
  0
SCALE
  5
59
102
{ACAD_REACTORS
330
47
102
}
330
47
100
AcDbScale
 70
     0
300
1/128" = 1'-0"
140
0.0078125
141
12.0
290
     0
  0
SCALE
  5
5A
102
{ACAD_REACTORS
330
47
102
}
330
47
100
AcDbScale
 70
     0
300
1/64" = 1'-0"
140
0.015625
141
12.0
290
     0
  0
SCALE
  5
5B
102
{ACAD_REACTORS
330
47
102
}
330
47
100
AcDbScale
 70
     0
300
1/32" = 1'-0"
140
0.03125
141
12.0
290
     0
  0
SCALE
  5
5C
102
{ACAD_REACTORS
330
47
102
}
330
47
100
AcDbScale
 70
     0
300
1/16" = 1'-0"
140
0.0625
141
12.0
290
     0
  0
SCALE
  5
5D
102
{ACAD_REACTORS
330
47
102
}
330
47
100
AcDbScale
 70
     0
300
3/32" = 1'-0"
140
0.09375
141
12.0
290
     0
  0
SCALE
  5
5E
102
{ACAD_REACTORS
330
47
102
}
330
47
100
AcDbScale
 70
     0
300
1/8" = 1'-0"
140
0.125
141
12.0
290
     0
  0
SCALE
  5
5F
102
{ACAD_REACTORS
330
47
102
}
330
47
100
AcDbScale
 70
     0
300
3/16" = 1'-0"
140
0.1875
141
12.0
290
     0
  0
SCALE
  5
60
102
{ACAD_REACTORS
330
47
102
}
330
47
100
AcDbScale
 70
     0
300
1/4" = 1'-0"
140
0.25
141
12.0
290
     0
  0
SCALE
  5
61
102
{ACAD_REACTORS
330
47
102
}
330
47
100
AcDbScale
 70
     0
300
3/8" = 1'-0"
140
0.375
141
12.0
290
     0
  0
SCALE
  5
62
102
{ACAD_REACTORS
330
47
102
}
330
47
100
AcDbScale
 70
     0
300
1/2" = 1'-0"
140
0.5
141
12.0
290
     0
  0
SCALE
  5
63
102
{ACAD_REACTORS
330
47
102
}
330
47
100
AcDbScale
 70
     0
300
3/4" = 1'-0"
140
0.75
141
12.0
290
     0
  0
SCALE
  5
64
102
{ACAD_REACTORS
330
47
102
}
330
47
100
AcDbScale
 70
     0
300
1" = 1'-0"
140
1.0
141
12.0
290
     0
  0
SCALE
  5
65
102
{ACAD_REACTORS
330
47
102
}
330
47
100
AcDbScale
 70
     0
300
1-1/2" = 1'-0"
140
1.5
141
12.0
290
     0
  0
SCALE
  5
66
102
{ACAD_REACTORS
330
47
102
}
330
47
100
AcDbScale
 70
     0
300
3" = 1'-0"
140
3.0
141
12.0
290
     0
  0
SCALE
  5
67
102
{ACAD_REACTORS
330
47
102
}
330
47
100
AcDbScale
 70
     0
300
6" = 1'-0"
140
6.0
141
12.0
290
     0
  0
SCALE
  5
68
102
{ACAD_REACTORS
330
47
102
}
330
47
100
AcDbScale
 70
     0
300
1'-0" = 1'-0"
140
12.0
141
12.0
290
     0
  0
ENDSEC
  0
EOF
