  0
SECTION
  2
HEADER
  9
$ACADVER
  1
AC1015
  9
$ACADMAINTVER
 70
     6
  9
$DWGCODEPAGE
  3
ANSI_1252
  9
$INSBASE
 10
0.0
 20
0.0
 30
0.0
  9
$EXTMIN
 10
0.0
 20
0.0
 30
0.0
  9
$EXTMAX
 10
1189.0
 20
841.0
 30
0.0
  9
$LIMMIN
 10
0.0
 20
0.0
  9
$LIMMAX
 10
1189.0
 20
841.0
  9
$ORTHOMODE
 70
     0
  9
$REGENMODE
 70
     1
  9
$FILLMODE
 70
     1
  9
$QTEXTMODE
 70
     0
  9
$MIRRTEXT
 70
     1
  9
$LTSCALE
 40
1.0
  9
$ATTMODE
 70
     1
  9
$TEXTSIZE
 40
3.5
  9
$TRACEWID
 40
1.0
  9
$TEXTSTYLE
  7
Standard
  9
$CLAYER
  8
0
  9
$CELTYPE
  6
ByLayer
  9
$CECOLOR
 62
   256
  9
$CELTSCALE
 40
1.0
  9
$DISPSILH
 70
     0
  9
$DIMSCALE
 40
1.0
  9
$DIMASZ
 40
3.302
  9
$DIMEXO
 40
1.0
  9
$DIMDLI
 40
3.75
  9
$DIMRND
 40
0.0
  9
$DIMDLE
 40
0.0
  9
$DIMEXE
 40
1.0
  9
$DIMTP
 40
0.0
  9
$DIMTM
 40
0.0
  9
$DIMTXT
 40
3.5
  9
$DIMCEN
 40
2.5
  9
$DIMTSZ
 40
0.0
  9
$DIMTOL
 70
     0
  9
$DIMLIM
 70
     0
  9
$DIMTIH
 70
     1
  9
$DIMTOH
 70
     1
  9
$DIMSE1
 70
     0
  9
$DIMSE2
 70
     0
  9
$DIMTAD
 70
     1
  9
$DIMZIN
 70
     0
  9
$DIMBLK
  1

  9
$DIMASO
 70
     1
  9
$DIMSHO
 70
     1
  9
$DIMPOST
  1

  9
$DIMAPOST
  1

  9
$DIMALT
 70
     0
  9
$DIMALTD
 70
     3
  9
$DIMALTF
 40
0.0393700787
  9
$DIMLFAC
 40
5.0
  9
$DIMTOFL
 70
     1
  9
$DIMTVP
 40
0.0
  9
$DIMTIX
 70
     0
  9
$DIMSOXD
 70
     0
  9
$DIMSAH
 70
     0
  9
$DIMBLK1
  1

  9
$DIMBLK2
  1

  9
$DIMSTYLE
  2
ISO-25
  9
$DIMCLRD
 70
     0
  9
$DIMCLRE
 70
     0
  9
$DIMCLRT
 70
     0
  9
$DIMTFAC
 40
1.0
  9
$DIMGAP
 40
1.524
  9
$DIMJUST
 70
     0
  9
$DIMSD1
 70
     0
  9
$DIMSD2
 70
     0
  9
$DIMTOLJ
 70
     0
  9
$DIMTZIN
 70
     0
  9
$DIMALTZ
 70
     0
  9
$DIMALTTZ
 70
     0
  9
$DIMUPT
 70
     0
  9
$DIMDEC
 70
     2
  9
$DIMTDEC
 70
     2
  9
$DIMALTU
 70
     2
  9
$DIMALTTD
 70
     3
  9
$DIMTXSTY
  7
Standard
  9
$DIMAUNIT
 70
     0
  9
$DIMADEC
 70
     2
  9
$DIMALTRND
 40
0.0
  9
$DIMAZIN
 70
     0
  9
$DIMDSEP
 70
    44
  9
$DIMATFIT
 70
     3
  9
$DIMFRAC
 70
     0
  9
$DIMLDRBLK
  1

  9
$DIMLUNIT
 70
     2
  9
$DIMLWD
 70
    -2
  9
$DIMLWE
 70
    -2
  9
$DIMTMOVE
 70
     0
  9
$LUNITS
 70
     2
  9
$LUPREC
 70
     2
  9
$SKETCHINC
 40
1.0
  9
$FILLETRAD
 40
10.0
  9
$AUNITS
 70
     0
  9
$AUPREC
 70
     2
  9
$MENU
  1
.
  9
$ELEVATION
 40
0.0
  9
$PELEVATION
 40
0.0
  9
$THICKNESS
 40
0.0
  9
$LIMCHECK
 70
     0
  9
$CHAMFERA
 40
0.0
  9
$CHAMFERB
 40
0.0
  9
$CHAMFERC
 40
0.0
  9
$CHAMFERD
 40
0.0
  9
$SKPOLY
 70
     0
  9
$TDCREATE
 40
2458060.464313993
  9
$TDUCREATE
 40
2458060.464313993
  9
$TDUPDATE
 40
2458060.464314132
  9
$TDUUPDATE
 40
2458060.464314132
  9
$TDINDWG
 40
0.0000000116
  9
$TDUSRTIMER
 40
0.0000000116
  9
$USRTIMER
 70
     1
  9
$ANGBASE
 50
0.0
  9
$ANGDIR
 70
     0
  9
$PDMODE
 70
     0
  9
$PDSIZE
 40
-1.0
  9
$PLINEWID
 40
0.0
  9
$SPLFRAME
 70
     0
  9
$SPLINETYPE
 70
     6
  9
$SPLINESEGS
 70
     8
  9
$HANDSEED
  5
C4
  9
$SURFTAB1
 70
     6
  9
$SURFTAB2
 70
     6
  9
$SURFTYPE
 70
     6
  9
$SURFU
 70
     6
  9
$SURFV
 70
     6
  9
$UCSBASE
  2

  9
$UCSNAME
  2

  9
$UCSORG
 10
0.0
 20
0.0
 30
0.0
  9
$UCSXDIR
 10
1.0
 20
0.0
 30
0.0
  9
$UCSYDIR
 10
0.0
 20
1.0
 30
0.0
  9
$UCSORTHOREF
  2

  9
$UCSORTHOVIEW
 70
     0
  9
$UCSORGTOP
 10
0.0
 20
0.0
 30
0.0
  9
$UCSORGBOTTOM
 10
0.0
 20
0.0
 30
0.0
  9
$UCSORGLEFT
 10
0.0
 20
0.0
 30
0.0
  9
$UCSORGRIGHT
 10
0.0
 20
0.0
 30
0.0
  9
$UCSORGFRONT
 10
0.0
 20
0.0
 30
0.0
  9
$UCSORGBACK
 10
0.0
 20
0.0
 30
0.0
  9
$PUCSBASE
  2

  9
$PUCSNAME
  2

  9
$PUCSORG
 10
0.0
 20
0.0
 30
0.0
  9
$PUCSXDIR
 10
1.0
 20
0.0
 30
0.0
  9
$PUCSYDIR
 10
0.0
 20
1.0
 30
0.0
  9
$PUCSORTHOREF
  2

  9
$PUCSORTHOVIEW
 70
     0
  9
$PUCSORGTOP
 10
0.0
 20
0.0
 30
0.0
  9
$PUCSORGBOTTOM
 10
0.0
 20
0.0
 30
0.0
  9
$PUCSORGLEFT
 10
0.0
 20
0.0
 30
0.0
  9
$PUCSORGRIGHT
 10
0.0
 20
0.0
 30
0.0
  9
$PUCSORGFRONT
 10
0.0
 20
0.0
 30
0.0
  9
$PUCSORGBACK
 10
0.0
 20
0.0
 30
0.0
  9
$USERI1
 70
     0
  9
$USERI2
 70
     0
  9
$USERI3
 70
     0
  9
$USERI4
 70
     0
  9
$USERI5
 70
     0
  9
$USERR1
 40
0.0
  9
$USERR2
 40
0.0
  9
$USERR3
 40
0.0
  9
$USERR4
 40
0.0
  9
$USERR5
 40
0.0
  9
$WORLDVIEW
 70
     1
  9
$SHADEDGE
 70
     3
  9
$SHADEDIF
 70
    70
  9
$TILEMODE
 70
     1
  9
$MAXACTVP
 70
    64
  9
$PINSBASE
 10
0.0
 20
0.0
 30
0.0
  9
$PLIMCHECK
 70
     0
  9
$PEXTMIN
 10
1.0000000000E+20
 20
1.0000000000E+20
 30
1.0000000000E+20
  9
$PEXTMAX
 10
-1.0000000000E+20
 20
-1.0000000000E+20
 30
-1.0000000000E+20
  9
$PLIMMIN
 10
0.0
 20
0.0
  9
$PLIMMAX
 10
420.0
 20
297.0
  9
$UNITMODE
 70
     0
  9
$VISRETAIN
 70
     1
  9
$PLINEGEN
 70
     0
  9
$PSLTSCALE
 70
     1
  9
$TREEDEPTH
 70
  3020
  9
$CMLSTYLE
  2
Standard
  9
$CMLJUST
 70
     0
  9
$CMLSCALE
 40
20.0
  9
$PROXYGRAPHICS
 70
     1
  9
$MEASUREMENT
 70
     1
  9
$CELWEIGHT
370
    -1
  9
$ENDCAPS
280
     0
  9
$JOINSTYLE
280
     0
  9
$LWDISPLAY
290
     1
  9
$INSUNITS
 70
     4
  9
$HYPERLINKBASE
  1

  9
$STYLESHEET
  1

  9
$XEDIT
290
     1
  9
$CEPSNTYPE
380
     0
  9
$PSTYLEMODE
290
     1
  9
$FINGERPRINTGUID
  2
{E2286E95-E3DC-4B0D-815A-0F83DD8D3728}
  9
$VERSIONGUID
  2
{FAEB1C32-E019-11D5-929B-00C0DF256EC4}
  9
$EXTNAMES
290
     1
  9
$PSVPSCALE
 40
0.0
  9
$OLESTARTUP
290
     0
  0
ENDSEC
  0
SECTION
  2
CLASSES
  0
CLASS
  1
ACDBDICTIONARYWDFLT
  2
AcDbDictionaryWithDefault
  3
ObjectDBX Classes
 90
        0
280
     0
281
     0
  0
CLASS
  1
VISUALSTYLE
  2
AcDbVisualStyle
  3
ObjectDBX Classes
 90
     4095
280
     0
281
     0
  0
CLASS
  1
MATERIAL
  2
AcDbMaterial
  3
ObjectDBX Classes
 90
     1153
280
     0
281
     0
  0
CLASS
  1
SCALE
  2
AcDbScale
  3
ObjectDBX Classes
 90
     1153
280
     0
281
     0
  0
CLASS
  1
TABLESTYLE
  2
AcDbTableStyle
  3
ObjectDBX Classes
 90
     4095
280
     0
281
     0
  0
CLASS
  1
MLEADERSTYLE
  2
AcDbMLeaderStyle
  3
ACDB_MLEADERSTYLE_CLASS
 90
     4095
280
     0
281
     0
  0
CLASS
  1
SUN
  2
AcDbSun
  3
SCENEOE
 90
     1153
280
     0
281
     0
  0
CLASS
  1
ACDBPLACEHOLDER
  2
AcDbPlaceHolder
  3
ObjectDBX Classes
 90
        0
280
     0
281
     0
  0
CLASS
  1
LAYOUT
  2
AcDbLayout
  3
ObjectDBX Classes
 90
        0
280
     0
281
     0
  0
ENDSEC
  0
SECTION
  2
TABLES
  0
TABLE
  2
VPORT
  5
8
330
0
100
AcDbSymbolTable
 70
     1
  0
VPORT
  5
29
330
8
100
AcDbSymbolTableRecord
100
AcDbViewportTableRecord
  2
*Active
 70
     0
 10
0.0
 20
0.0
 11
1.0
 21
1.0
 12
594.5
 22
420.5
 13
0.0
 23
0.0
 14
10.0
 24
10.0
 15
10.0
 25
10.0
 16
0.0
 26
0.0
 36
1.0
 17
0.0
 27
0.0
 37
0.0
 40
841.0
 41
1.4137931034
 42
50.0
 43
0.0
 44
0.0
 50
0.0
 51
0.0
 71
     0
 72
  2000
 73
     1
 74
     3
 75
     0
 76
     0
 77
     0
 78
     0
281
     0
 65
     1
110
0.0
120
0.0
130
0.0
111
1.0
121
0.0
131
0.0
112
0.0
122
1.0
132
0.0
 79
     0
146
0.0
  0
ENDTAB
  0
TABLE
  2
LTYPE
  5
5
330
0
100
AcDbSymbolTable
 70
     6
  0
LTYPE
  5
14
330
5
100
AcDbSymbolTableRecord
100
AcDbLinetypeTableRecord
  2
ByBlock
 70
     0
  3

 72
    65
 73
     0
 40
0.0
  0
LTYPE
  5
15
330
5
100
AcDbSymbolTableRecord
100
AcDbLinetypeTableRecord
  2
ByLayer
 70
     0
  3

 72
    65
 73
     0
 40
0.0
  0
LTYPE
  5
16
330
5
100
AcDbSymbolTableRecord
100
AcDbLinetypeTableRecord
  2
Continuous
 70
     0
  3
Solid line
 72
    65
 73
     0
 40
0.0
  0
LTYPE
  5
6E
330
5
100
AcDbSymbolTableRecord
100
AcDbLinetypeTableRecord
  2
HIDDEN
 70
     0
  3
Hidden __ __ __ __ __ __ __ __ __ __ __ __ __ __
 72
    65
 73
     2
 40
1.905
 49
1.27
 74
     0
 49
-0.635
 74
     0
  0
LTYPE
  5
6F
330
5
100
AcDbSymbolTableRecord
100
AcDbLinetypeTableRecord
  2
PHANTOM
 70
     0
  3
Phantom ______  __  __  ______  __  __  ______
 72
    65
 73
     6
 40
12.7
 49
6.35
 74
     0
 49
-1.27
 74
     0
 49
1.27
 74
     0
 49
-1.27
 74
     0
 49
1.27
 74
     0
 49
-1.27
 74
     0
  0
LTYPE
  5
70
330
5
100
AcDbSymbolTableRecord
100
AcDbLinetypeTableRecord
  2
CENTER
 70
     0
  3
Center ____ _ ____ _ ____ _ ____ _ ____ _ ____
 72
    65
 73
     4
 40
10.16
 49
6.35
 74
     0
 49
-1.27
 74
     0
 49
1.27
 74
     0
 49
-1.27
 74
     0
  0
LTYPE
  5
71
330
5
100
AcDbSymbolTableRecord
100
AcDbLinetypeTableRecord
  2
CENTERX2
 70
     0
  3
Center (2x) ________  __  ________  __  _____
 72
    65
 73
     4
 40
20.32
 49
12.7
 74
     0
 49
-2.54
 74
     0
 49
2.54
 74
     0
 49
-2.54
 74
     0
  0
LTYPE
  5
72
330
5
100
AcDbSymbolTableRecord
100
AcDbLinetypeTableRecord
  2
DOT2
 70
     0
  3
Dot (.5x) ........................................
 72
    65
 73
     2
 40
0.635
 49
0.0
 74
     0
 49
-0.635
 74
     0
  0
ENDTAB
  0
TABLE
  2
LAYER
  5
2
330
0
100
AcDbSymbolTable
 70
     2
  0
LAYER
  5
10
330
2
100
AcDbSymbolTableRecord
100
AcDbLayerTableRecord
  2
0
 70
     0
 62
     7
  6
Continuous
370
    -3
390
F
  0
LAYER
  5
73
330
2
100
AcDbSymbolTableRecord
100
AcDbLayerTableRecord
  2
FORMAT
 70
     0
 62
     7
  6
Continuous
370
    -3
390
F
  0
ENDTAB
  0
TABLE
  2
STYLE
  5
3
330
0
100
AcDbSymbolTable
 70
     1
  0
STYLE
  5
11
330
3
100
AcDbSymbolTableRecord
100
AcDbTextStyleTableRecord
  2
Standard
 70
     0
 40
0.0
 41
1.0
 50
0.0
 71
     0
 42
3.5
  3
txt
  4

  0
ENDTAB
  0
TABLE
  2
VIEW
  5
6
330
0
100
AcDbSymbolTable
 70
     0
  0
ENDTAB
  0
TABLE
  2
UCS
  5
7
330
0
100
AcDbSymbolTable
 70
     0
  0
ENDTAB
  0
TABLE
  2
APPID
  5
9
330
0
100
AcDbSymbolTable
 70
     1
  0
APPID
  5
12
330
9
100
AcDbSymbolTableRecord
100
AcDbRegAppTableRecord
  2
ACAD
 70
     0
  0
ENDTAB
  0
TABLE
  2
DIMSTYLE
  5
A
330
0
100
AcDbSymbolTable
 70
     1
100
AcDbDimStyleTable
  0
DIMSTYLE
105
27
330
A
100
AcDbSymbolTableRecord
100
AcDbDimStyleTableRecord
  2
ISO-25
 70
     0
 41
2.5
 42
0.625
 43
3.75
 44
1.25
 73
     0
 74
     0
 77
     1
 78
     8
140
2.5
141
2.5
143
0.0393700787
147
0.625
171
     3
172
     1
178
     0
271
     2
272
     2
274
     3
278
    44
283
     0
284
     8
340
11
  0
ENDTAB
  0
TABLE
  2
BLOCK_RECORD
  5
1
330
0
100
AcDbSymbolTable
 70
     1
  0
BLOCK_RECORD
  5
1F
330
1
100
AcDbSymbolTableRecord
100
AcDbBlockTableRecord
  2
*Model_Space
340
22
  0
BLOCK_RECORD
  5
1B
330
1
100
AcDbSymbolTableRecord
100
AcDbBlockTableRecord
  2
*Paper_Space
340
1E
  0
BLOCK_RECORD
  5
23
330
1
100
AcDbSymbolTableRecord
100
AcDbBlockTableRecord
  2
*Paper_Space0
340
26
  0
ENDTAB
  0
ENDSEC
  0
SECTION
  2
BLOCKS
  0
BLOCK
  5
20
330
1F
100
AcDbEntity
  8
0
100
AcDbBlockBegin
  2
*Model_Space
 70
     0
 10
0.0
 20
0.0
 30
0.0
  3
*Model_Space
  1

  0
ENDBLK
  5
21
330
1F
100
AcDbEntity
  8
0
100
AcDbBlockEnd
  0
BLOCK
  5
1C
330
1B
100
AcDbEntity
 67
     1
  8
0
100
AcDbBlockBegin
  2
*Paper_Space
 70
     0
 10
0.0
 20
0.0
 30
0.0
  3
*Paper_Space
  1

  0
ENDBLK
  5
1D
330
1B
100
AcDbEntity
 67
     1
  8
0
100
AcDbBlockEnd
  0
BLOCK
  5
24
330
23
100
AcDbEntity
  8
0
100
AcDbBlockBegin
  2
*Paper_Space0
 70
     0
 10
0.0
 20
0.0
 30
0.0
  3
*Paper_Space0
  1

  0
ENDBLK
  5
25
330
23
100
AcDbEntity
  8
0
100
AcDbBlockEnd
  0
ENDSEC
  0
SECTION
  2
ENTITIES
  0
LINE
  5
74
330
1F
100
AcDbEntity
  8
0
  6
Continuous
 62
     7
370
    15
100
AcDbLine
 10
496.8386755342
 20
277.3217206208
 30
0.0
 11
495.8386755342
 21
278.3217206208
 31
0.0
  0
LINE
  5
75
330
1F
100
AcDbEntity
  8
0
  6
Continuous
 62
     7
370
    15
100
AcDbLine
 10
377.8386755342
 20
278.3217206208
 30
0.0
 11
376.8386755342
 21
277.3217206208
 31
0.0
  0
LINE
  5
76
330
1F
100
AcDbEntity
  8
0
  6
Continuous
 62
     7
370
    15
100
AcDbLine
 10
496.8386755342
 20
272.9217206208
 30
0.0
 11
496.8386755342
 21
277.3217206208
 31
0.0
  0
LINE
  5
77
330
1F
100
AcDbEntity
  8
0
  6
Continuous
 62
     7
370
    15
100
AcDbLine
 10
376.8386755342
 20
277.3217206208
 30
0.0
 11
376.8386755342
 21
272.9217206208
 31
0.0
  0
LINE
  5
78
330
1F
100
AcDbEntity
  8
0
  6
Continuous
 62
     7
370
    15
100
AcDbLine
 10
439.3386755342
 20
192.9217206208
 30
0.0
 11
434.3386755342
 21
192.9217206208
 31
0.0
  0
LINE
  5
79
330
1F
100
AcDbEntity
  8
0
  6
Continuous
 62
     7
370
    15
100
AcDbLine
 10
434.3386755342
 20
272.9217206208
 30
0.0
 11
434.3386755342
 21
192.9217206208
 31
0.0
  0
LINE
  5
7A
330
1F
100
AcDbEntity
  8
0
  6
Continuous
 62
     7
370
    15
100
AcDbLine
 10
439.3386755342
 20
272.9217206208
 30
0.0
 11
439.3386755342
 21
192.9217206208
 31
0.0
  0
LINE
  5
7B
330
1F
100
AcDbEntity
  8
0
  6
Continuous
 62
     7
370
    15
100
AcDbLine
 10
390.7425575662
 20
227.9217206208
 30
0.0
 11
400.7425575662
 21
267.9217206208
 31
0.0
  0
LINE
  5
7C
330
1F
100
AcDbEntity
  8
0
  6
Continuous
 62
     7
370
    15
100
AcDbLine
 10
381.9925575662
 20
192.9217206208
 30
0.0
 11
389.4925575662
 21
222.9217206208
 31
0.0
  0
LINE
  5
7D
330
1F
100
AcDbEntity
  8
0
  6
Continuous
 62
     7
370
    15
100
AcDbLine
 10
376.8386755342
 20
192.9217206208
 30
0.0
 11
381.9925575662
 21
192.9217206208
 31
0.0
  0
LINE
  5
7E
330
1F
100
AcDbEntity
  8
0
  6
Continuous
 62
     7
370
    15
100
AcDbLine
 10
396.8386755342
 20
272.9217206208
 30
0.0
 11
376.8386755342
 21
192.9217206208
 31
0.0
  0
LINE
  5
7F
330
1F
100
AcDbEntity
  8
0
  6
Continuous
 62
     7
370
    15
100
AcDbLine
 10
400.7425575662
 20
267.9217206208
 30
0.0
 11
434.3386755342
 21
267.9217206208
 31
0.0
  0
LINE
  5
80
330
1F
100
AcDbEntity
  8
0
  6
Continuous
 62
     7
370
    15
100
AcDbLine
 10
434.3386755342
 20
227.9217206208
 30
0.0
 11
390.7425575662
 21
227.9217206208
 31
0.0
  0
LINE
  5
81
330
1F
100
AcDbEntity
  8
0
  6
Continuous
 62
     7
370
    15
100
AcDbLine
 10
389.4925575662
 20
222.9217206208
 30
0.0
 11
434.3386755342
 21
222.9217206208
 31
0.0
  0
LINE
  5
82
330
1F
100
AcDbEntity
  8
0
  6
Continuous
 62
     7
370
    15
100
AcDbLine
 10
476.8386755342
 20
272.9217206208
 30
0.0
 11
496.8386755342
 21
192.9217206208
 31
0.0
  0
LINE
  5
83
330
1F
100
AcDbEntity
  8
0
  6
Continuous
 62
     7
370
    15
100
AcDbLine
 10
482.9347935021
 20
227.9217206208
 30
0.0
 11
472.9347935021
 21
267.9217206208
 31
0.0
  0
LINE
  5
84
330
1F
100
AcDbEntity
  8
0
  6
Continuous
 62
     7
370
    15
100
AcDbLine
 10
491.6847935021
 20
192.9217206208
 30
0.0
 11
484.1847935021
 21
222.9217206208
 31
0.0
  0
LINE
  5
85
330
1F
100
AcDbEntity
  8
0
  6
Continuous
 62
     7
370
    15
100
AcDbLine
 10
496.8386755342
 20
192.9217206208
 30
0.0
 11
491.6847935021
 21
192.9217206208
 31
0.0
  0
LINE
  5
86
330
1F
100
AcDbEntity
  8
0
  6
Continuous
 62
     7
370
    15
100
AcDbLine
 10
472.9347935021
 20
267.9217206208
 30
0.0
 11
439.3386755342
 21
267.9217206208
 31
0.0
  0
LINE
  5
87
330
1F
100
AcDbEntity
  8
0
  6
Continuous
 62
     7
370
    15
100
AcDbLine
 10
439.3386755342
 20
227.9217206208
 30
0.0
 11
482.9347935021
 21
227.9217206208
 31
0.0
  0
LINE
  5
88
330
1F
100
AcDbEntity
  8
0
  6
Continuous
 62
     7
370
    15
100
AcDbLine
 10
484.1847935021
 20
222.9217206208
 30
0.0
 11
439.3386755342
 21
222.9217206208
 31
0.0
  0
LINE
  5
89
330
1F
100
AcDbEntity
  8
0
  6
Continuous
 62
     7
370
    15
100
AcDbLine
 10
377.8386755342
 20
278.3217206208
 30
0.0
 11
495.8386755342
 21
278.3217206208
 31
0.0
  0
LINE
  5
8A
330
1F
100
AcDbEntity
  8
0
  6
Continuous
 62
     7
370
    15
100
AcDbLine
 10
496.8386755342
 20
277.3217206208
 30
0.0
 11
376.8386755342
 21
277.3217206208
 31
0.0
  0
LINE
  5
8B
330
1F
100
AcDbEntity
  8
0
  6
Continuous
 62
     7
370
    15
100
AcDbLine
 10
376.8386755342
 20
272.9217206208
 30
0.0
 11
496.8386755342
 21
272.9217206208
 31
0.0
  0
LINE
  5
8C
330
1F
100
AcDbEntity
  8
0
  6
Continuous
 62
     7
370
    15
100
AcDbLine
 10
434.3386755342
 20
628.859113082
 30
0.0
 11
439.3386755342
 21
628.859113082
 31
0.0
  0
LINE
  5
8D
330
1F
100
AcDbEntity
  8
0
  6
Continuous
 62
     7
370
    15
100
AcDbLine
 10
434.3386755342
 20
628.8070071234
 30
0.0
 11
434.3386755342
 21
628.859113082
 31
0.0
  0
LINE
  5
8E
330
1F
100
AcDbEntity
  8
0
  6
Continuous
 62
     7
370
    15
100
AcDbLine
 10
439.3386755342
 20
628.8070071234
 30
0.0
 11
439.3386755342
 21
628.859113082
 31
0.0
  0
LINE
  5
8F
330
1F
100
AcDbEntity
  8
0
  6
Continuous
 62
     7
370
    15
100
AcDbLine
 10
496.8386755342
 20
571.359113082
 30
0.0
 11
496.8386755342
 21
566.359113082
 31
0.0
  0
LINE
  5
90
330
1F
100
AcDbEntity
  8
0
  6
Continuous
 62
     7
370
    15
100
AcDbLine
 10
496.7865695756
 20
566.359113082
 30
0.0
 11
496.8386755342
 21
566.359113082
 31
0.0
  0
LINE
  5
91
330
1F
100
AcDbEntity
  8
0
  6
Continuous
 62
     7
370
    15
100
AcDbLine
 10
496.7865695756
 20
571.359113082
 30
0.0
 11
496.8386755342
 21
571.359113082
 31
0.0
  0
LINE
  5
92
330
1F
100
AcDbEntity
  8
0
  6
Continuous
 62
     7
370
    15
100
AcDbLine
 10
376.8907814928
 20
566.359113082
 30
0.0
 11
376.8386755342
 21
566.359113082
 31
0.0
  0
LINE
  5
93
330
1F
100
AcDbEntity
  8
0
  6
Continuous
 62
     7
370
    15
100
AcDbLine
 10
376.8386755342
 20
566.359113082
 30
0.0
 11
376.8386755342
 21
571.359113082
 31
0.0
  0
LINE
  5
94
330
1F
100
AcDbEntity
  8
0
  6
Continuous
 62
     7
370
    15
100
AcDbLine
 10
376.8907814928
 20
571.359113082
 30
0.0
 11
376.8386755342
 21
571.359113082
 31
0.0
  0
LINE
  5
95
330
1F
100
AcDbEntity
  8
0
  6
Continuous
 62
     7
370
    15
100
AcDbLine
 10
439.3386755342
 20
508.859113082
 30
0.0
 11
434.3386755342
 21
508.859113082
 31
0.0
  0
LINE
  5
96
330
1F
100
AcDbEntity
  8
0
  6
Continuous
 62
     7
370
    15
100
AcDbLine
 10
439.3386755342
 20
508.9112190406
 30
0.0
 11
439.3386755342
 21
508.859113082
 31
0.0
  0
LINE
  5
97
330
1F
100
AcDbEntity
  8
0
  6
Continuous
 62
     7
370
    15
100
AcDbLine
 10
434.3386755342
 20
508.9112190406
 30
0.0
 11
434.3386755342
 21
508.859113082
 31
0.0
  0
CIRCLE
  5
98
330
1F
100
AcDbEntity
  8
0
  6
Continuous
 62
     7
370
    15
100
AcDbCircle
 10
436.8386755342
 20
568.859113082
 30
0.0
 40
59.0
  0
CIRCLE
  5
99
330
1F
100
AcDbEntity
  8
0
  6
Continuous
 62
     7
370
    15
100
AcDbCircle
 10
436.8386755342
 20
568.859113082
 30
0.0
 40
59.99999999999994
  0
LINE
  5
9A
330
1F
100
AcDbEntity
  8
0
  6
Continuous
 62
     7
370
    15
100
AcDbLine
 10
779.4138742135
 20
626.826515964
 30
0.0
 11
778.7066525356
 21
627.2349190593
 31
0.0
  0
LINE
  5
9B
330
1F
100
AcDbEntity
  8
0
  6
Continuous
 62
     7
370
    15
100
AcDbLine
 10
695.2544945416
 20
627.2349190593
 30
0.0
 11
694.5472728637
 21
626.826515964
 31
0.0
  0
LINE
  5
9C
330
1F
100
AcDbEntity
  8
0
  6
Continuous
 62
     7
370
    15
100
AcDbLine
 10
796.9805735386
 20
598.745473392
 30
0.0
 11
796.9805735386
 21
602.3382529643
 31
0.0
  0
LINE
  5
9D
330
1F
100
AcDbEntity
  8
0
  6
Continuous
 62
     7
370
    15
100
AcDbLine
 10
676.9805735386
 20
602.3382529643
 30
0.0
 11
676.9805735386
 21
598.745473392
 31
0.0
  0
LINE
  5
9E
330
1F
100
AcDbEntity
  8
0
  6
Continuous
 62
     7
370
    15
100
AcDbLine
 10
769.6758652308
 20
569.7025772511
 30
0.0
 11
781.1747473628
 21
509.9504752262
 31
0.0
  0
LINE
  5
9F
330
1F
100
AcDbEntity
  8
0
  6
Continuous
 62
     7
370
    15
100
AcDbLine
 10
781.1747473628
 20
509.9504752262
 30
0.0
 11
777.6392134568
 21
507.9094549467
 31
0.0
  0
LINE
  5
A0
330
1F
100
AcDbEntity
  8
0
  6
Continuous
 62
     7
370
    15
100
AcDbLine
 10
765.9930772561
 20
568.42673919
 30
0.0
 11
777.6392134568
 21
507.9094549467
 31
0.0
  0
LINE
  5
A1
330
1F
100
AcDbEntity
  8
0
  6
Continuous
 62
     7
370
    15
100
AcDbLine
 10
777.6392134568
 20
507.9094549467
 30
0.0
 11
773.9948685225
 21
510.0132904958
 31
0.0
  0
LINE
  5
A2
330
1F
100
AcDbEntity
  8
0
  6
Continuous
 62
     7
370
    15
100
AcDbLine
 10
773.9948685225
 20
510.0132904958
 30
0.0
 11
768.6915676636
 21
537.5710452717
 31
0.0
  0
LINE
  5
A3
330
1F
100
AcDbEntity
  8
0
  6
Continuous
 62
     7
370
    15
100
AcDbLine
 10
768.6915676636
 20
537.5710452717
 30
0.0
 11
736.9805735386
 21
555.8774125181
 31
0.0
  0
LINE
  5
A4
330
1F
100
AcDbEntity
  8
0
  6
Continuous
 62
     7
370
    15
100
AcDbLine
 10
736.9805735386
 20
559.9601165776
 30
0.0
 11
736.9805735386
 21
555.8774125181
 31
0.0
  0
LINE
  5
A5
330
1F
100
AcDbEntity
  8
0
  6
Continuous
 62
     7
370
    15
100
AcDbLine
 10
736.9805735386
 20
559.9601165776
 30
0.0
 11
767.8076841872
 21
542.1640044011
 31
0.0
  0
LINE
  5
A6
330
1F
100
AcDbEntity
  8
0
  6
Continuous
 62
     7
370
    15
100
AcDbLine
 10
767.8076841872
 20
542.1640044011
 30
0.0
 11
762.9290731405
 21
567.5149264866
 31
0.0
  0
LINE
  5
A7
330
1F
100
AcDbEntity
  8
0
  6
Continuous
 62
     7
370
    15
100
AcDbLine
 10
706.15346289
 20
542.1640044011
 30
0.0
 11
711.0320739367
 21
567.5149264866
 31
0.0
  0
LINE
  5
A8
330
1F
100
AcDbEntity
  8
0
  6
Continuous
 62
     7
370
    15
100
AcDbLine
 10
736.9805735386
 20
559.9601165776
 30
0.0
 11
706.15346289
 21
542.1640044011
 31
0.0
  0
LINE
  5
A9
330
1F
100
AcDbEntity
  8
0
  6
Continuous
 62
     7
370
    15
100
AcDbLine
 10
705.2695794135
 20
537.5710452717
 30
0.0
 11
736.9805735386
 21
555.8774125181
 31
0.0
  0
LINE
  5
AA
330
1F
100
AcDbEntity
  8
0
  6
Continuous
 62
     7
370
    15
100
AcDbLine
 10
699.9662785546
 20
510.0132904958
 30
0.0
 11
705.2695794135
 21
537.5710452717
 31
0.0
  0
LINE
  5
AB
330
1F
100
AcDbEntity
  8
0
  6
Continuous
 62
     7
370
    15
100
AcDbLine
 10
696.3219336204
 20
507.9094549467
 30
0.0
 11
699.9662785546
 21
510.0132904958
 31
0.0
  0
LINE
  5
AC
330
1F
100
AcDbEntity
  8
0
  6
Continuous
 62
     7
370
    15
100
AcDbLine
 10
707.9680698211
 20
568.42673919
 30
0.0
 11
696.3219336204
 21
507.9094549467
 31
0.0
  0
LINE
  5
AD
330
1F
100
AcDbEntity
  8
0
  6
Continuous
 62
     7
370
    15
100
AcDbLine
 10
696.3219336204
 20
507.9094549467
 30
0.0
 11
692.7863997144
 21
509.9504752262
 31
0.0
  0
LINE
  5
AE
330
1F
100
AcDbEntity
  8
0
  6
Continuous
 62
     7
370
    15
100
AcDbLine
 10
704.2852818464
 20
569.7025772511
 30
0.0
 11
692.7863997144
 21
509.9504752262
 31
0.0
  0
LINE
  5
AF
330
1F
100
AcDbEntity
  8
0
  6
Continuous
 62
     7
370
    15
100
AcDbLine
 10
733.4450396327
 20
562.0011368571
 30
0.0
 11
729.3016778421
 21
564.3930487055
 31
0.0
  0
LINE
  5
B0
330
1F
100
AcDbEntity
  8
0
  6
Continuous
 62
     7
370
    15
100
AcDbLine
 10
736.9805735386
 20
564.0421571367
 30
0.0
 11
736.8660437616
 21
564.1082737696
 31
0.0
  0
LINE
  5
B1
330
1F
100
AcDbEntity
  8
0
  6
Continuous
 62
     7
370
    15
100
AcDbLine
 10
736.9805735386
 20
564.0421571367
 30
0.0
 11
737.0951033156
 21
564.1082737696
 31
0.0
  0
LINE
  5
B2
330
1F
100
AcDbEntity
  8
0
  6
Continuous
 62
     7
370
    15
100
AcDbLine
 10
744.6594692351
 20
564.3930487055
 30
0.0
 11
740.5161074445
 21
562.0011368571
 31
0.0
  0
LINE
  5
B3
330
1F
100
AcDbEntity
  8
0
  6
Continuous
 62
     7
370
    15
100
AcDbLine
 10
733.4450396327
 20
562.0011368571
 30
0.0
 11
707.0372027223
 21
546.756217106
 31
0.0
  0
LINE
  5
B4
330
1F
100
AcDbEntity
  8
0
  6
Continuous
 62
     7
370
    15
100
AcDbLine
 10
740.5161074445
 20
562.0011368571
 30
0.0
 11
766.9239443549
 21
546.756217106
 31
0.0
  0
LINE
  5
B5
330
1F
100
AcDbEntity
  8
0
  6
Continuous
 62
     7
370
    15
100
AcDbLine
 10
777.1817428268
 20
573.0327262347
 30
0.0
 11
781.1747473628
 21
556.893941656
 31
0.0
  0
LINE
  5
B6
330
1F
100
AcDbEntity
  8
0
  6
Continuous
 62
     7
370
    15
100
AcDbLine
 10
781.1747473628
 20
556.893941656
 30
0.0
 11
777.5304024285
 21
554.7901061069
 31
0.0
  0
LINE
  5
B7
330
1F
100
AcDbEntity
  8
0
  6
Continuous
 62
     7
370
    15
100
AcDbLine
 10
777.5304024285
 20
554.7901061069
 30
0.0
 11
773.4591748672
 21
571.245049744
 31
0.0
  0
LINE
  5
B8
330
1F
100
AcDbEntity
  8
0
  6
Continuous
 62
     7
370
    15
100
AcDbLine
 10
744.0522160209
 20
559.9597848274
 30
0.0
 11
753.5802203283
 21
565.4601846348
 31
0.0
  0
LINE
  5
B9
330
1F
100
AcDbEntity
  8
0
  6
Continuous
 62
     7
370
    15
100
AcDbLine
 10
696.4307446487
 20
554.7901061069
 30
0.0
 11
700.5019722099
 21
571.245049744
 31
0.0
  0
LINE
  5
BA
330
1F
100
AcDbEntity
  8
0
  6
Continuous
 62
     7
370
    15
100
AcDbLine
 10
692.7863997144
 20
556.893941656
 30
0.0
 11
696.4307446487
 21
554.7901061069
 31
0.0
  0
LINE
  5
BB
330
1F
100
AcDbEntity
  8
0
  6
Continuous
 62
     7
370
    15
100
AcDbLine
 10
696.7794042504
 20
573.0327262347
 30
0.0
 11
692.7863997144
 21
556.893941656
 31
0.0
  0
LINE
  5
BC
330
1F
100
AcDbEntity
  8
0
  6
Continuous
 62
     7
370
    15
100
AcDbLine
 10
720.3809267489
 20
565.4601846348
 30
0.0
 11
729.9089310563
 21
559.9597848274
 31
0.0
  0
LINE
  5
BD
330
1F
100
AcDbEntity
  8
0
  6
Continuous
 62
     7
370
    15
100
AcDbLine
 10
773.9948685225
 20
556.8311263864
 30
0.0
 11
777.5304024285
 21
554.7901061069
 31
0.0
  0
LINE
  5
BE
330
1F
100
AcDbEntity
  8
0
  6
Continuous
 62
     7
370
    15
100
AcDbLine
 10
773.9948685225
 20
556.8311263864
 30
0.0
 11
770.7118920941
 21
570.1001444603
 31
0.0
  0
LINE
  5
BF
330
1F
100
AcDbEntity
  8
0
  6
Continuous
 62
     7
370
    15
100
AcDbLine
 10
696.4307446487
 20
554.7901061069
 30
0.0
 11
699.9662785546
 21
556.8311263864
 31
0.0
  0
LINE
  5
C0
330
1F
100
AcDbEntity
  8
0
  6
Continuous
 62
     7
370
    15
100
AcDbLine
 10
699.9662785546
 20
556.8311263864
 30
0.0
 11
703.2492549831
 21
570.1001444603
 31
0.0
  0
LWPOLYLINE
  5
C1
330
1F
100
AcDbEntity
  8
0
  6
Continuous
 62
     7
370
    15
100
AcDbPolyline
 90
      183
 70
   128
 43
0.0
 10
695.2612734486
 20
627.2388330749
 10
693.8461431281
 20
626.3931943252
 10
692.4824169235
 20
625.5198619343
 10
691.1717200131
 20
624.6198766691
 10
689.9156143791
 20
623.6943110589
 10
688.7155969463
 20
622.7442681178
 10
687.5730977983
 20
621.77088003
 10
686.4894784728
 20
620.7753068004
 10
685.4660303395
 20
619.7587348724
 10
684.5039730608
 20
618.722375714
 10
683.6044531386
 20
617.667464374
 10
682.7685425477
 20
616.5952580103
 10
681.9972374587
 20
615.5070343913
 10
681.2914570504
 20
614.4040903737
 10
680.6520424146
 20
613.2877403568
 10
680.0797555538
 20
612.1593147159
 10
679.5752784731
 20
611.0201582173
 10
679.1392123674
 20
609.8716284153
 10
678.7720769049
 20
608.7150940344
 10
678.4743096078
 20
607.5519333387
 10
678.2462653311
 20
606.3835324887
 10
678.0882158394
 20
605.2112838897
 10
678.0003494834
 20
604.0365845326
 10
677.9827709749
 20
602.8608343288
 10
678.0355012627
 20
601.685434442
 10
678.1584775071
 20
600.5117856185
 10
678.3515531549
 20
599.3412865177
 10
678.6144981143
 20
598.1753320457
 10
678.9469990287
 20
597.0153116923
 10
679.3486596506
 20
595.8626078757
 10
679.8190013134
 20
594.7185942948
 10
680.3574635021
 20
593.5846342923
 10
680.963404521
 20
592.4620792297
 10
681.6361022589
 20
591.3522668771
 10
682.3747550491
 20
590.2565198188
 10
683.1784826251
 20
589.1761438774
 10
684.0463271696
 20
588.1124265572
 10
684.9772544558
 20
587.0666355103
 10
685.9701550801
 20
586.0400170257
 10
687.0238457841
 20
585.0337945439
 10
688.1370708647
 20
584.0491671994
 10
689.3085036704
 20
583.0873083911
 10
690.5367481827
 20
582.1493643844
 10
691.8203406793
 20
581.2364529448
 10
693.1577514789
 20
580.3496620062
 10
694.5473867637
 20
579.4900483741
 10
695.987590479
 20
578.6586364664
 10
697.476646307
 20
577.8564170922
 10
699.0127797115
 20
577.0843462716
 10
700.5941600535
 20
576.3433440959
 10
702.2189027721
 20
575.6342936316
 10
703.8850716306
 20
574.9580398673
 10
705.5906810242
 20
574.3153887075
 10
707.3336983459
 20
573.7071060118
 10
709.112046409
 20
573.133916682
 10
710.9236059226
 20
572.5965037988
 10
712.7662180169
 20
572.0955078073
 10
714.6376868163
 20
571.6315257538
 10
716.535782056
 20
571.2051105745
 10
718.45824174
 20
570.8167704365
 10
720.402774837
 20
570.466968132
 10
722.3670640099
 20
570.1561205271
 10
724.3487683783
 20
569.8845980647
 10
726.3455263076
 20
569.6527243232
 10
728.3549582236
 20
569.460775631
 10
730.3746694485
 20
569.308980737
 10
732.4022530541
 20
569.1975205381
 10
734.4352927307
 20
569.1265278633
 10
736.4713656666
 20
569.0960873161
 10
738.5080454351
 20
569.106235173
 10
740.5429048865
 20
569.1569593407
 10
742.5735190403
 20
569.2481993701
 10
744.5974679753
 20
569.3798465289
 10
746.6123397132
 20
569.5517439305
 10
748.6157330933
 20
569.7636867217
 10
750.6052606339
 20
570.0154223262
 10
752.5785513775
 20
570.3066507459
 10
754.5332537161
 20
570.6370249185
 10
756.467038194
 20
571.0061511306
 10
758.3776002837
 20
571.4135894878
 10
760.2626631323
 20
571.858854438
 10
762.1199802747
 20
572.3414153504
 10
763.947338311
 20
572.8606971483
 10
765.7425595442
 20
573.4160809936
 10
767.5035045751
 20
574.0069050249
 10
769.2280748522
 20
574.6324651461
 10
770.9142151727
 20
575.2920158654
 10
772.5599161311
 20
575.9847711836
 10
774.1632165146
 20
576.7099055312
 10
775.7222056397
 20
577.4665547518
 10
777.2350256298
 20
578.2538171324
 10
778.6998736286
 20
579.0707544774
 10
780.1150039491
 20
579.9163932272
 10
781.4787301537
 20
580.789725618
 10
782.7894270641
 20
581.6897108833
 10
784.0455326981
 20
582.6152764934
 10
785.2455501308
 20
583.5653194345
 10
786.3880492789
 20
584.5387075223
 10
787.4716686044
 20
585.534280752
 10
788.4951167377
 20
586.55085268
 10
789.4571740164
 20
587.5872118383
 10
790.3566939386
 20
588.6421231783
 10
791.1926045294
 20
589.7143295421
 10
791.9639096185
 20
590.8025531611
 10
792.6696900268
 20
591.9054971786
 10
793.3091046626
 20
593.0218471956
 10
793.8813915234
 20
594.1502728364
 10
794.3858686041
 20
595.289429335
 10
794.8219347098
 20
596.4379591371
 10
795.1890701723
 20
597.5944935179
 10
795.4868374694
 20
598.7576542136
 10
795.7148817461
 20
599.9260550637
 10
795.8729312378
 20
601.0983036626
 10
795.9607975938
 20
602.2730030198
 10
795.9783761023
 20
603.4487532236
 10
795.9256458145
 20
604.6241531104
 10
795.8026695701
 20
605.7978019339
 10
795.6095939223
 20
606.9683010346
 10
795.3466489629
 20
608.1342555067
 10
795.0141480485
 20
609.2942758601
 10
794.6124874266
 20
610.4469796767
 10
794.1421457638
 20
611.5909932575
 10
793.6036835751
 20
612.72495326
 10
792.9977425562
 20
613.8475083226
 10
792.3250448183
 20
614.9573206752
 10
791.5863920281
 20
616.0530677335
 10
790.7826644521
 20
617.1334436749
 10
789.9148199076
 20
618.1971609951
 10
788.9838926214
 20
619.242952042
 10
787.9909919971
 20
620.2695705267
 10
786.9373012931
 20
621.2757930084
 10
785.8240762125
 20
622.260420353
 10
784.6526434068
 20
623.2222791612
 10
783.4243988945
 20
624.160223168
 10
782.1408063979
 20
625.0731346075
 10
780.8033955983
 20
625.9599255461
 10
779.4137603135
 20
626.8195391782
 10
777.9735565982
 20
627.650951086
 10
776.4845007702
 20
628.4531704602
 10
774.9483673657
 20
629.2252412808
 10
773.3669870237
 20
629.9662434564
 10
771.7422443051
 20
630.6752939208
 10
770.0760754466
 20
631.351547685
 10
768.370466053
 20
631.9941988448
 10
766.6274487313
 20
632.6024815406
 10
764.8491006682
 20
633.1756708703
 10
763.0375411546
 20
633.7130837535
 10
761.1949290603
 20
634.2140797451
 10
759.3234602609
 20
634.6780617986
 10
757.4253650212
 20
635.1044769778
 10
755.5029053371
 20
635.4928171158
 10
753.5583722402
 20
635.8426194203
 10
751.5940830673
 20
636.1534670253
 10
749.6123786989
 20
636.4249894877
 10
747.6156207696
 20
636.6568632291
 10
745.6061888535
 20
636.8488119213
 10
743.5864776287
 20
637.0006068153
 10
741.5588940231
 20
637.1120670143
 10
739.5258543465
 20
637.183059689
 10
737.4897814106
 20
637.2135002362
 10
735.4531016421
 20
637.2033523793
 10
733.4182421907
 20
637.1526282116
 10
731.3876280369
 20
637.0613881822
 10
729.3636791019
 20
636.9297410235
 10
727.348807364
 20
636.7578436218
 10
725.3454139839
 20
636.5459008306
 10
723.3558864432
 20
636.2941652261
 10
721.3825956997
 20
636.0029368064
 10
719.4278933611
 20
635.6725626339
 10
717.4941088832
 20
635.3034364217
 10
715.5835467935
 20
634.8959980645
 10
713.6984839449
 20
634.4507331144
 10
711.8411668025
 20
633.9681722019
 10
710.0138087662
 20
633.448890404
 10
708.218587533
 20
632.8935065587
 10
706.4576425021
 20
632.3026825274
 10
704.733072225
 20
631.6771224062
 10
703.0469319045
 20
631.017571687
 10
701.4012309461
 20
630.3248163688
 10
699.7979305626
 20
629.5996820212
 10
698.2389414374
 20
628.8430328005
 10
696.7261214474
 20
628.0557704199
 10
695.2612734486
 20
627.2388330749
  0
LWPOLYLINE
  5
C2
330
1F
100
AcDbEntity
  8
0
  6
Continuous
 62
     7
370
    15
100
AcDbPolyline
 90
      140
 70
   128
 43
0.0
 10
779.4138742135
 20
626.826515964
 10
779.7695837347
 20
626.6193653478
 10
781.1882074979
 20
625.7571092716
 10
782.5547223301
 20
624.8672486515
 10
783.8675174771
 20
623.9508323944
 10
785.1250455059
 20
623.0089407089
 10
786.3258241286
 20
622.0426838325
 10
787.4684379496
 20
621.0532007225
 10
788.551540134
 20
620.0416577139
 10
789.5738539952
 20
619.0092471443
 10
790.5341744995
 20
617.9571859486
 10
791.4313696869
 20
616.8867142244
 10
792.2643820053
 20
615.7990937706
 10
793.0322295566
 20
614.6956065995
 10
793.7340072549
 20
613.5775534264
 10
794.3688878926
 20
612.4462521356
 10
794.9361231159
 20
611.3030362278
 10
795.4350443069
 20
610.1492532474
 10
795.8650633713
 20
608.9862631949
 10
796.2256734321
 20
607.8154369233
 10
796.5164494269
 20
606.6381545223
 10
796.7370486089
 20
605.4558036919
 10
796.8872109509
 20
604.2697781062
 10
796.9667594518
 20
603.081475771
 10
796.9756003452
 20
601.8922973756
 10
796.9137232101
 20
600.7036446422
 10
796.7812009831
 20
599.516918673
 10
796.5781898723
 20
598.3335182995
 10
796.3049291732
 20
597.154838433
 10
795.9617409869
 20
595.9822684204
 10
795.5490298401
 20
594.8171904071
 10
795.0672822084
 20
593.6609777073
 10
794.517065943
 20
592.5149931852
 10
793.899029601
 20
591.3805876489
 10
793.2139016815
 20
590.259098258
 10
792.4624897662
 20
589.1518469473
 10
791.645679568
 20
588.0601388689
 10
790.764433887
 20
586.9852608535
 10
789.819791475
 20
585.9284798936
 10
788.812865812
 20
584.8910416503
 10
787.7448437929
 20
583.8741689848
 10
786.6169843289
 20
582.8790605168
 10
785.4306168635
 20
581.906889212
 10
784.1871398055
 20
580.9588009995
 10
782.8880188803
 20
580.0359134207
 10
781.5347854029
 20
579.1393143122
 10
780.129034472
 20
578.2700605237
 10
778.6724230907
 20
577.429176672
 10
777.1666682127
 20
576.6176539334
 10
775.6135447186
 20
575.8364488753
 10
774.0148833241
 20
575.0864823287
 10
772.3725684218
 20
574.3686383028
 10
770.6885358599
 20
573.683762943
 10
768.9647706607
 20
573.0326635335
 10
767.2033046806
 20
572.4161075456
 10
765.406214215
 20
571.8348217334
 10
763.5756175511
 20
571.2894912766
 10
761.7136724708
 20
570.7807589736
 10
759.8225737075
 20
570.3092244832
 10
757.9045503589
 20
569.8754436177
 10
755.9618632595
 20
569.4799276886
 10
753.9968023158
 20
569.1231429027
 10
752.0116838071
 20
568.8055098137
 10
750.0088476551
 20
568.5274028256
 10
747.9906546659
 20
568.2891497519
 10
745.9594837472
 20
568.091031429
 10
743.917729104
 20
567.9332813852
 10
741.8677974171
 20
567.8160855655
 10
739.8121050053
 20
567.7395821123
 10
737.7530749782
 20
567.7038612026
 10
735.6931343793
 20
567.7089649417
 10
733.6347113255
 20
567.7548873138
 10
731.580232145
 20
567.8415741886
 10
729.532118517
 20
567.9689233857
 10
727.4927846176
 20
568.1367847945
 10
725.4646342739
 20
568.3449605515
 10
723.4500581308
 20
568.5932052733
 10
721.4514308324
 20
568.8812263461
 10
719.4711082239
 20
569.2086842704
 10
717.5114245739
 20
569.5751930612
 10
715.5746898232
 20
569.980320703
 10
713.6631868621
 20
570.4235896592
 10
711.7791688394
 20
570.9044774346
 10
709.9248565065
 20
571.4224171916
 10
708.1024355997
 20
571.9767984184
 10
706.3140542641
 20
572.5669676484
 10
704.561820521
 20
573.1922292304
 10
702.8477997836
 20
573.8518461489
 10
701.174012422
 20
574.5450408927
 10
699.5424313823
 20
575.2709963714
 10
697.9549798604
 20
576.0288568782
 10
696.4135290355
 20
576.8177290992
 10
694.9198958641
 20
577.6366831658
 10
693.4758409387
 20
578.484753751
 10
692.0830664125
 20
579.3609412074
 10
690.7432139926
 20
580.2642127451
 10
689.4578630053
 20
581.1935036496
 10
688.2285285343
 20
582.1477185363
 10
687.0566596348
 20
583.1257326421
 10
685.9436376257
 20
584.1263931511
 10
684.8907744611
 20
585.148520553
 10
683.899311184
 20
586.1909100341
 10
682.9704164634
 20
587.2523328971
 10
682.1051852167
 20
588.3315380095
 10
681.3046373193
 20
589.4272532781
 10
680.5697164022
 20
590.5381871488
 10
679.9012887398
 20
591.663030129
 10
679.300142229
 20
592.8004563306
 10
678.76698546
 20
593.9491250337
 10
678.3024468815
 20
595.1076822662
 10
677.9070740598
 20
596.2747624002
 10
677.5813330333
 20
597.4489897616
 10
677.3256077631
 20
598.6289802516
 10
677.1401996808
 20
599.8133429782
 10
677.0253273327
 20
601.0006818958
 10
676.9811261224
 20
602.1895974505
 10
677.0076481513
 20
603.3786882302
 10
677.1048621571
 20
604.566552616
 10
677.2726535504
 20
605.7517904349
 10
677.5108245504
 20
606.9330046095
 10
677.8190944174
 20
608.1088028056
 10
678.1970997839
 20
609.2777990728
 10
678.6443950831
 20
610.4386154784
 10
679.160453074
 20
611.5898837314
 10
679.7446654628
 20
612.7302467957
 10
680.3963436198
 20
613.8583604894
 10
681.1147193916
 20
614.9728950694
 10
681.8989460059
 20
616.0725367987
 10
682.7480990701
 20
617.1559894949
 10
683.6611776608
 20
618.2219760581
 10
684.6371055035
 20
619.2692399764
 10
685.6747322413
 20
620.2965468068
 10
686.7728347907
 20
621.3026856305
 10
687.9301187839
 20
622.2864704798
 10
689.1452200936
 20
623.2467417366
 10
690.4167064416
 20
624.1823674988
 10
691.743079087
 20
625.092244915
 10
693.1227745924
 20
625.9753014839
 10
694.5541666674
 20
626.830496319
 10
694.5541666674
 20
626.830496319
  0
LWPOLYLINE
  5
C3
330
1F
100
AcDbEntity
  8
0
  6
Continuous
 62
     7
370
    15
100
AcDbPolyline
 90
       94
 70
   128
 43
0.0
 10
676.9805735386
 20
598.745473392
 10
676.9811261224
 20
598.5968178782
 10
677.0253273327
 20
597.4079023235
 10
677.1401996808
 20
596.2205634059
 10
677.3256077631
 20
595.0362006793
 10
677.5813330333
 20
593.8562101893
 10
677.9070740598
 20
592.6819828279
 10
678.3024468815
 20
591.5149026939
 10
678.76698546
 20
590.3563454614
 10
679.300142229
 20
589.2076767584
 10
679.9012887398
 20
588.0702505567
 10
680.5697164022
 20
586.9454075766
 10
681.3046373193
 20
585.8344737058
 10
682.1051852167
 20
584.7387584372
 10
682.9704164634
 20
583.6595533248
 10
683.899311184
 20
582.5981304618
 10
684.8907744611
 20
581.5557409807
 10
685.9436376257
 20
580.5336135788
 10
687.0566596348
 20
579.5329530698
 10
688.2285285343
 20
578.554938964
 10
689.4578630053
 20
577.6007240773
 10
690.7432139926
 20
576.6714331728
 10
692.0830664125
 20
575.7681616351
 10
693.4758409387
 20
574.8919741787
 10
694.9198958641
 20
574.0439035935
 10
696.4135290355
 20
573.2249495269
 10
697.9549798604
 20
572.4360773059
 10
699.5424313823
 20
571.6782167991
 10
701.1740124221
 20
570.9522613204
 10
702.8477997836
 20
570.2590665766
 10
704.561820521
 20
569.5994496581
 10
706.3140542641
 20
568.9741880761
 10
708.1024355997
 20
568.3840188461
 10
709.9248565065
 20
567.8296376193
 10
711.7791688394
 20
567.3116978623
 10
713.6631868621
 20
566.8308100869
 10
715.5746898232
 20
566.3875411307
 10
717.5114245739
 20
565.9824134889
 10
719.4711082239
 20
565.6159046981
 10
721.4514308324
 20
565.2884467738
 10
723.4500581308
 20
565.000425701
 10
725.4646342739
 20
564.7521809792
 10
727.4927846176
 20
564.5440052222
 10
729.532118517
 20
564.3761438134
 10
731.580232145
 20
564.2487946163
 10
733.6347113255
 20
564.1621077415
 10
735.6931343793
 20
564.1161853694
 10
737.7530749782
 20
564.1110816303
 10
739.8121050053
 20
564.14680254
 10
741.8677974171
 20
564.2233059932
 10
743.917729104
 20
564.3405018129
 10
745.9594837472
 20
564.4982518567
 10
747.9906546659
 20
564.6963701796
 10
750.0088476551
 20
564.9346232533
 10
752.0116838071
 20
565.2127302414
 10
753.9968023158
 20
565.5303633304
 10
755.9618632595
 20
565.8871481163
 10
757.9045503589
 20
566.2826640454
 10
759.8225737075
 20
566.7164449109
 10
761.7136724708
 20
567.1879794013
 10
763.5756175511
 20
567.6967117044
 10
765.406214215
 20
568.2420421611
 10
767.2033046806
 20
568.8233279733
 10
768.9647706607
 20
569.4398839612
 10
770.6885358599
 20
570.0909833707
 10
772.3725684218
 20
570.7758587305
 10
774.0148833241
 20
571.4937027564
 10
775.6135447186
 20
572.243669303
 10
777.1666682127
 20
573.0248743611
 10
778.6724230907
 20
573.8363970997
 10
780.129034472
 20
574.6772809514
 10
781.5347854029
 20
575.5465347399
 10
782.8880188803
 20
576.4431338484
 10
784.1871398055
 20
577.3660214272
 10
785.4306168635
 20
578.3141096397
 10
786.6169843289
 20
579.2862809445
 10
787.7448437929
 20
580.2813894125
 10
788.812865812
 20
581.298262078
 10
789.819791475
 20
582.3357003213
 10
790.764433887
 20
583.3924812812
 10
791.645679568
 20
584.4673592966
 10
792.4624897662
 20
585.559067375
 10
793.2139016815
 20
586.6663186857
 10
793.899029601
 20
587.7878080766
 10
794.517065943
 20
588.9222136129
 10
795.0672822084
 20
590.068198135
 10
795.5490298401
 20
591.2244108348
 10
795.9617409869
 20
592.3894888481
 10
796.3049291732
 20
593.5620588607
 10
796.5781898723
 20
594.7407387272
 10
796.7812009831
 20
595.9241391007
 10
796.9137232101
 20
597.1108650699
 10
796.9756003452
 20
598.2995178033
 10
796.9805735386
 20
598.745473392
  0
ENDSEC
  0
SECTION
  2
OBJECTS
  0
DICTIONARY
  5
C
330
0
100
AcDbDictionary
281
     1
  3
ACAD_GROUP
350
D
  3
ACAD_LAYOUT
350
1A
  3
ACAD_MLINESTYLE
350
17
  3
ACAD_PLOTSETTINGS
350
19
  3
ACAD_PLOTSTYLENAME
350
E
  3
ACAD_SCALELIST
350
47
  0
DICTIONARY
  5
D
102
{ACAD_REACTORS
330
C
102
}
330
C
100
AcDbDictionary
281
     1
  0
DICTIONARY
  5
1A
102
{ACAD_REACTORS
330
C
102
}
330
C
100
AcDbDictionary
281
     1
  3
Layout1
350
1E
  3
Layout2
350
26
  3
Model
350
22
  0
DICTIONARY
  5
17
102
{ACAD_REACTORS
330
C
102
}
330
C
100
AcDbDictionary
281
     1
  3
Standard
350
18
  0
DICTIONARY
  5
19
102
{ACAD_REACTORS
330
C
102
}
330
C
100
AcDbDictionary
281
     1
  0
ACDBDICTIONARYWDFLT
  5
E
102
{ACAD_REACTORS
330
C
102
}
330
C
100
AcDbDictionary
281
     1
  3
Normal
350
F
100
AcDbDictionaryWithDefault
340
F
  0
DICTIONARY
  5
47
102
{ACAD_REACTORS
330
C
102
}
330
C
100
AcDbDictionary
281
     1
  3
A0
350
48
  3
A1
350
49
  3
A2
350
4A
  3
A3
350
4B
  3
A4
350
4C
  3
A5
350
4D
  3
A6
350
4E
  3
A7
350
4F
  3
A8
350
50
  3
A9
350
51
  3
B0
350
52
  3
B1
350
53
  3
B2
350
54
  3
B3
350
55
  3
B4
350
56
  3
B5
350
57
  3
B6
350
58
  3
B7
350
59
  3
B8
350
5A
  3
B9
350
5B
  3
C0
350
5C
  3
C1
350
5D
  3
C2
350
5E
  3
C3
350
5F
  3
C4
350
60
  3
C5
350
61
  3
C6
350
62
  3
C7
350
63
  3
C8
350
64
  3
C9
350
65
  3
D0
350
66
  3
D1
350
67
  3
D2
350
68
  0
LAYOUT
  5
1E
102
{ACAD_REACTORS
330
1A
102
}
330
1A
100
AcDbPlotSettings
  1

  2
none_device
  4

  6

 40
0.0
 41
0.0
 42
0.0
 43
0.0
 44
0.0
 45
0.0
 46
0.0
 47
0.0
 48
0.0
 49
0.0
140
0.0
141
0.0
142
1.0
143
1.0
 70
   688
 72
     1
 73
     0
 74
     5
  7

 75
    16
147
1.0
148
0.0
149
0.0
100
AcDbLayout
  1
Layout1
 70
     1
 71
     1
 10
0.0
 20
0.0
 11
420.0
 21
297.0
 12
0.0
 22
0.0
 32
0.0
 14
1.0000000000E+20
 24
1.0000000000E+20
 34
1.0000000000E+20
 15
-1.0000000000E+20
 25
-1.0000000000E+20
 35
-1.0000000000E+20
146
0.0
 13
0.0
 23
0.0
 33
0.0
 16
1.0
 26
0.0
 36
0.0
 17
0.0
 27
1.0
 37
0.0
 76
     0
330
1B
  0
LAYOUT
  5
26
102
{ACAD_REACTORS
330
1A
102
}
330
1A
100
AcDbPlotSettings
  1

  2
none_device
  4

  6

 40
0.0
 41
0.0
 42
0.0
 43
0.0
 44
0.0
 45
0.0
 46
0.0
 47
0.0
 48
0.0
 49
0.0
140
0.0
141
0.0
142
1.0
143
1.0
 70
   688
 72
     1
 73
     0
 74
     5
  7

 75
    16
147
1.0
148
0.0
149
0.0
100
AcDbLayout
  1
Layout2
 70
     1
 71
     2
 10
0.0
 20
0.0
 11
0.0
 21
0.0
 12
0.0
 22
0.0
 32
0.0
 14
0.0
 24
0.0
 34
0.0
 15
0.0
 25
0.0
 35
0.0
146
0.0
 13
0.0
 23
0.0
 33
0.0
 16
1.0
 26
0.0
 36
0.0
 17
0.0
 27
1.0
 37
0.0
 76
     0
330
23
  0
LAYOUT
  5
22
102
{ACAD_REACTORS
330
1A
102
}
330
1A
100
AcDbPlotSettings
  1

  2
none_device
  4
Letter_(8.50_x_11.00_Inches)
  6

 40
6.35
 41
6.35
 42
6.35000508
 43
6.35000508
 44
215.9
 45
279.4
 46
0.0
 47
0.0
 48
0.0
 49
0.0
140
0.0
141
0.0
142
1.0
143
1.0
 70
  1712
 72
     1
 73
     0
 74
     0
  7

 75
     0
147
1.0
148
0.0
149
0.0
100
AcDbLayout
  1
Model
 70
     1
 71
     0
 10
0.0
 20
0.0
 11
1189.0
 21
841.0
 12
0.0
 22
0.0
 32
0.0
 14
0.0
 24
0.0
 34
0.0
 15
1189.0
 25
841.0
 35
0.0
146
0.0
 13
0.0
 23
0.0
 33
0.0
 16
1.0
 26
0.0
 36
0.0
 17
0.0
 27
1.0
 37
0.0
 76
     0
330
1F
331
29
  0
MLINESTYLE
  5
18
102
{ACAD_REACTORS
330
17
102
}
330
17
100
AcDbMlineStyle
  2
Standard
 70
     0
  3

 62
   256
 51
90.0
 52
90.0
 71
     2
 49
0.5
 62
   256
  6
BYLAYER
 49
-0.5
 62
   256
  6
BYLAYER
  0
ACDBPLACEHOLDER
  5
F
102
{ACAD_REACTORS
330
E
102
}
330
E
  0
SCALE
  5
48
102
{ACAD_REACTORS
330
47
102
}
330
47
100
AcDbScale
 70
     0
300
1:1
140
1.0
141
1.0
290
     1
  0
SCALE
  5
49
102
{ACAD_REACTORS
330
47
102
}
330
47
100
AcDbScale
 70
     0
300
1:2
140
1.0
141
2.0
290
     0
  0
SCALE
  5
4A
102
{ACAD_REACTORS
330
47
102
}
330
47
100
AcDbScale
 70
     0
300
1:4
140
1.0
141
4.0
290
     0
  0
SCALE
  5
4B
102
{ACAD_REACTORS
330
47
102
}
330
47
100
AcDbScale
 70
     0
300
1:5
140
1.0
141
5.0
290
     0
  0
SCALE
  5
4C
102
{ACAD_REACTORS
330
47
102
}
330
47
100
AcDbScale
 70
     0
300
1:8
140
1.0
141
8.0
290
     0
  0
SCALE
  5
4D
102
{ACAD_REACTORS
330
47
102
}
330
47
100
AcDbScale
 70
     0
300
1:10
140
1.0
141
10.0
290
     0
  0
SCALE
  5
4E
102
{ACAD_REACTORS
330
47
102
}
330
47
100
AcDbScale
 70
     0
300
1:16
140
1.0
141
16.0
290
     0
  0
SCALE
  5
4F
102
{ACAD_REACTORS
330
47
102
}
330
47
100
AcDbScale
 70
     0
300
1:20
140
1.0
141
20.0
290
     0
  0
SCALE
  5
50
102
{ACAD_REACTORS
330
47
102
}
330
47
100
AcDbScale
 70
     0
300
1:30
140
1.0
141
30.0
290
     0
  0
SCALE
  5
51
102
{ACAD_REACTORS
330
47
102
}
330
47
100
AcDbScale
 70
     0
300
1:40
140
1.0
141
40.0
290
     0
  0
SCALE
  5
52
102
{ACAD_REACTORS
330
47
102
}
330
47
100
AcDbScale
 70
     0
300
1:50
140
1.0
141
50.0
290
     0
  0
SCALE
  5
53
102
{ACAD_REACTORS
330
47
102
}
330
47
100
AcDbScale
 70
     0
300
1:100
140
1.0
141
100.0
290
     0
  0
SCALE
  5
54
102
{ACAD_REACTORS
330
47
102
}
330
47
100
AcDbScale
 70
     0
300
2:1
140
2.0
141
1.0
290
     0
  0
SCALE
  5
55
102
{ACAD_REACTORS
330
47
102
}
330
47
100
AcDbScale
 70
     0
300
4:1
140
4.0
141
1.0
290
     0
  0
SCALE
  5
56
102
{ACAD_REACTORS
330
47
102
}
330
47
100
AcDbScale
 70
     0
300
8:1
140
8.0
141
1.0
290
     0
  0
SCALE
  5
57
102
{ACAD_REACTORS
330
47
102
}
330
47
100
AcDbScale
 70
     0
300
10:1
140
10.0
141
1.0
290
     0
  0
SCALE
  5
58
102
{ACAD_REACTORS
330
47
102
}
330
47
100
AcDbScale
 70
     0
300
100:1
140
100.0
141
1.0
290
     0
  0
SCALE
  5
59
102
{ACAD_REACTORS
330
47
102
}
330
47
100
AcDbScale
 70
     0
300
1/128" = 1'-0"
140
0.0078125
141
12.0
290
     0
  0
SCALE
  5
5A
102
{ACAD_REACTORS
330
47
102
}
330
47
100
AcDbScale
 70
     0
300
1/64" = 1'-0"
140
0.015625
141
12.0
290
     0
  0
SCALE
  5
5B
102
{ACAD_REACTORS
330
47
102
}
330
47
100
AcDbScale
 70
     0
300
1/32" = 1'-0"
140
0.03125
141
12.0
290
     0
  0
SCALE
  5
5C
102
{ACAD_REACTORS
330
47
102
}
330
47
100
AcDbScale
 70
     0
300
1/16" = 1'-0"
140
0.0625
141
12.0
290
     0
  0
SCALE
  5
5D
102
{ACAD_REACTORS
330
47
102
}
330
47
100
AcDbScale
 70
     0
300
3/32" = 1'-0"
140
0.09375
141
12.0
290
     0
  0
SCALE
  5
5E
102
{ACAD_REACTORS
330
47
102
}
330
47
100
AcDbScale
 70
     0
300
1/8" = 1'-0"
140
0.125
141
12.0
290
     0
  0
SCALE
  5
5F
102
{ACAD_REACTORS
330
47
102
}
330
47
100
AcDbScale
 70
     0
300
3/16" = 1'-0"
140
0.1875
141
12.0
290
     0
  0
SCALE
  5
60
102
{ACAD_REACTORS
330
47
102
}
330
47
100
AcDbScale
 70
     0
300
1/4" = 1'-0"
140
0.25
141
12.0
290
     0
  0
SCALE
  5
61
102
{ACAD_REACTORS
330
47
102
}
330
47
100
AcDbScale
 70
     0
300
3/8" = 1'-0"
140
0.375
141
12.0
290
     0
  0
SCALE
  5
62
102
{ACAD_REACTORS
330
47
102
}
330
47
100
AcDbScale
 70
     0
300
1/2" = 1'-0"
140
0.5
141
12.0
290
     0
  0
SCALE
  5
63
102
{ACAD_REACTORS
330
47
102
}
330
47
100
AcDbScale
 70
     0
300
3/4" = 1'-0"
140
0.75
141
12.0
290
     0
  0
SCALE
  5
64
102
{ACAD_REACTORS
330
47
102
}
330
47
100
AcDbScale
 70
     0
300
1" = 1'-0"
140
1.0
141
12.0
290
     0
  0
SCALE
  5
65
102
{ACAD_REACTORS
330
47
102
}
330
47
100
AcDbScale
 70
     0
300
1-1/2" = 1'-0"
140
1.5
141
12.0
290
     0
  0
SCALE
  5
66
102
{ACAD_REACTORS
330
47
102
}
330
47
100
AcDbScale
 70
     0
300
3" = 1'-0"
140
3.0
141
12.0
290
     0
  0
SCALE
  5
67
102
{ACAD_REACTORS
330
47
102
}
330
47
100
AcDbScale
 70
     0
300
6" = 1'-0"
140
6.0
141
12.0
290
     0
  0
SCALE
  5
68
102
{ACAD_REACTORS
330
47
102
}
330
47
100
AcDbScale
 70
     0
300
1'-0" = 1'-0"
140
12.0
141
12.0
290
     0
  0
ENDSEC
  0
EOF
