  0
SECTION
  2
HEADER
  9
$ACADVER
  1
AC1015
  9
$ACADMAINTVER
 70
     6
  9
$DWGCODEPAGE
  3
ANSI_1252
  9
$INSBASE
 10
0.0
 20
0.0
 30
0.0
  9
$EXTMIN
 10
0.0
 20
0.0
 30
0.0
  9
$EXTMAX
 10
1189.0
 20
841.0
 30
0.0
  9
$LIMMIN
 10
0.0
 20
0.0
  9
$LIMMAX
 10
1189.0
 20
841.0
  9
$ORTHOMODE
 70
     0
  9
$REGENMODE
 70
     1
  9
$FILLMODE
 70
     1
  9
$QTEXTMODE
 70
     0
  9
$MIRRTEXT
 70
     1
  9
$LTSCALE
 40
1.0
  9
$ATTMODE
 70
     1
  9
$TEXTSIZE
 40
3.5
  9
$TRACEWID
 40
1.0
  9
$TEXTSTYLE
  7
Standard
  9
$CLAYER
  8
0
  9
$CELTYPE
  6
ByLayer
  9
$CECOLOR
 62
   256
  9
$CELTSCALE
 40
1.0
  9
$DISPSILH
 70
     0
  9
$DIMSCALE
 40
1.0
  9
$DIMASZ
 40
3.302
  9
$DIMEXO
 40
1.0
  9
$DIMDLI
 40
3.75
  9
$DIMRND
 40
0.0
  9
$DIMDLE
 40
0.0
  9
$DIMEXE
 40
1.0
  9
$DIMTP
 40
0.0
  9
$DIMTM
 40
0.0
  9
$DIMTXT
 40
3.5
  9
$DIMCEN
 40
2.5
  9
$DIMTSZ
 40
0.0
  9
$DIMTOL
 70
     0
  9
$DIMLIM
 70
     0
  9
$DIMTIH
 70
     1
  9
$DIMTOH
 70
     1
  9
$DIMSE1
 70
     0
  9
$DIMSE2
 70
     0
  9
$DIMTAD
 70
     1
  9
$DIMZIN
 70
     0
  9
$DIMBLK
  1

  9
$DIMASO
 70
     1
  9
$DIMSHO
 70
     1
  9
$DIMPOST
  1

  9
$DIMAPOST
  1

  9
$DIMALT
 70
     0
  9
$DIMALTD
 70
     3
  9
$DIMALTF
 40
0.0393700787
  9
$DIMLFAC
 40
5.0
  9
$DIMTOFL
 70
     1
  9
$DIMTVP
 40
0.0
  9
$DIMTIX
 70
     0
  9
$DIMSOXD
 70
     0
  9
$DIMSAH
 70
     0
  9
$DIMBLK1
  1

  9
$DIMBLK2
  1

  9
$DIMSTYLE
  2
ISO-25
  9
$DIMCLRD
 70
     0
  9
$DIMCLRE
 70
     0
  9
$DIMCLRT
 70
     0
  9
$DIMTFAC
 40
1.0
  9
$DIMGAP
 40
1.524
  9
$DIMJUST
 70
     0
  9
$DIMSD1
 70
     0
  9
$DIMSD2
 70
     0
  9
$DIMTOLJ
 70
     0
  9
$DIMTZIN
 70
     0
  9
$DIMALTZ
 70
     0
  9
$DIMALTTZ
 70
     0
  9
$DIMUPT
 70
     0
  9
$DIMDEC
 70
     2
  9
$DIMTDEC
 70
     2
  9
$DIMALTU
 70
     2
  9
$DIMALTTD
 70
     3
  9
$DIMTXSTY
  7
Standard
  9
$DIMAUNIT
 70
     0
  9
$DIMADEC
 70
     2
  9
$DIMALTRND
 40
0.0
  9
$DIMAZIN
 70
     0
  9
$DIMDSEP
 70
    44
  9
$DIMATFIT
 70
     3
  9
$DIMFRAC
 70
     0
  9
$DIMLDRBLK
  1

  9
$DIMLUNIT
 70
     2
  9
$DIMLWD
 70
    -2
  9
$DIMLWE
 70
    -2
  9
$DIMTMOVE
 70
     0
  9
$LUNITS
 70
     2
  9
$LUPREC
 70
     2
  9
$SKETCHINC
 40
1.0
  9
$FILLETRAD
 40
10.0
  9
$AUNITS
 70
     0
  9
$AUPREC
 70
     2
  9
$MENU
  1
.
  9
$ELEVATION
 40
0.0
  9
$PELEVATION
 40
0.0
  9
$THICKNESS
 40
0.0
  9
$LIMCHECK
 70
     0
  9
$CHAMFERA
 40
0.0
  9
$CHAMFERB
 40
0.0
  9
$CHAMFERC
 40
0.0
  9
$CHAMFERD
 40
0.0
  9
$SKPOLY
 70
     0
  9
$TDCREATE
 40
2458059.616635081
  9
$TDUCREATE
 40
2458059.616635081
  9
$TDUPDATE
 40
2458059.616635266
  9
$TDUUPDATE
 40
2458059.616635266
  9
$TDINDWG
 40
0.0000000116
  9
$TDUSRTIMER
 40
0.0000000116
  9
$USRTIMER
 70
     1
  9
$ANGBASE
 50
0.0
  9
$ANGDIR
 70
     0
  9
$PDMODE
 70
     0
  9
$PDSIZE
 40
-1.0
  9
$PLINEWID
 40
0.0
  9
$SPLFRAME
 70
     0
  9
$SPLINETYPE
 70
     6
  9
$SPLINESEGS
 70
     8
  9
$HANDSEED
  5
C9
  9
$SURFTAB1
 70
     6
  9
$SURFTAB2
 70
     6
  9
$SURFTYPE
 70
     6
  9
$SURFU
 70
     6
  9
$SURFV
 70
     6
  9
$UCSBASE
  2

  9
$UCSNAME
  2

  9
$UCSORG
 10
0.0
 20
0.0
 30
0.0
  9
$UCSXDIR
 10
1.0
 20
0.0
 30
0.0
  9
$UCSYDIR
 10
0.0
 20
1.0
 30
0.0
  9
$UCSORTHOREF
  2

  9
$UCSORTHOVIEW
 70
     0
  9
$UCSORGTOP
 10
0.0
 20
0.0
 30
0.0
  9
$UCSORGBOTTOM
 10
0.0
 20
0.0
 30
0.0
  9
$UCSORGLEFT
 10
0.0
 20
0.0
 30
0.0
  9
$UCSORGRIGHT
 10
0.0
 20
0.0
 30
0.0
  9
$UCSORGFRONT
 10
0.0
 20
0.0
 30
0.0
  9
$UCSORGBACK
 10
0.0
 20
0.0
 30
0.0
  9
$PUCSBASE
  2

  9
$PUCSNAME
  2

  9
$PUCSORG
 10
0.0
 20
0.0
 30
0.0
  9
$PUCSXDIR
 10
1.0
 20
0.0
 30
0.0
  9
$PUCSYDIR
 10
0.0
 20
1.0
 30
0.0
  9
$PUCSORTHOREF
  2

  9
$PUCSORTHOVIEW
 70
     0
  9
$PUCSORGTOP
 10
0.0
 20
0.0
 30
0.0
  9
$PUCSORGBOTTOM
 10
0.0
 20
0.0
 30
0.0
  9
$PUCSORGLEFT
 10
0.0
 20
0.0
 30
0.0
  9
$PUCSORGRIGHT
 10
0.0
 20
0.0
 30
0.0
  9
$PUCSORGFRONT
 10
0.0
 20
0.0
 30
0.0
  9
$PUCSORGBACK
 10
0.0
 20
0.0
 30
0.0
  9
$USERI1
 70
     0
  9
$USERI2
 70
     0
  9
$USERI3
 70
     0
  9
$USERI4
 70
     0
  9
$USERI5
 70
     0
  9
$USERR1
 40
0.0
  9
$USERR2
 40
0.0
  9
$USERR3
 40
0.0
  9
$USERR4
 40
0.0
  9
$USERR5
 40
0.0
  9
$WORLDVIEW
 70
     1
  9
$SHADEDGE
 70
     3
  9
$SHADEDIF
 70
    70
  9
$TILEMODE
 70
     1
  9
$MAXACTVP
 70
    64
  9
$PINSBASE
 10
0.0
 20
0.0
 30
0.0
  9
$PLIMCHECK
 70
     0
  9
$PEXTMIN
 10
1.0000000000E+20
 20
1.0000000000E+20
 30
1.0000000000E+20
  9
$PEXTMAX
 10
-1.0000000000E+20
 20
-1.0000000000E+20
 30
-1.0000000000E+20
  9
$PLIMMIN
 10
0.0
 20
0.0
  9
$PLIMMAX
 10
420.0
 20
297.0
  9
$UNITMODE
 70
     0
  9
$VISRETAIN
 70
     1
  9
$PLINEGEN
 70
     0
  9
$PSLTSCALE
 70
     1
  9
$TREEDEPTH
 70
  3020
  9
$CMLSTYLE
  2
Standard
  9
$CMLJUST
 70
     0
  9
$CMLSCALE
 40
20.0
  9
$PROXYGRAPHICS
 70
     1
  9
$MEASUREMENT
 70
     1
  9
$CELWEIGHT
370
    -1
  9
$ENDCAPS
280
     0
  9
$JOINSTYLE
280
     0
  9
$LWDISPLAY
290
     1
  9
$INSUNITS
 70
     4
  9
$HYPERLINKBASE
  1

  9
$STYLESHEET
  1

  9
$XEDIT
290
     1
  9
$CEPSNTYPE
380
     0
  9
$PSTYLEMODE
290
     1
  9
$FINGERPRINTGUID
  2
{CE44253A-ABDF-48FB-8D2C-D1571B4B4D23}
  9
$VERSIONGUID
  2
{FAEB1C32-E019-11D5-929B-00C0DF256EC4}
  9
$EXTNAMES
290
     1
  9
$PSVPSCALE
 40
0.0
  9
$OLESTARTUP
290
     0
  0
ENDSEC
  0
SECTION
  2
CLASSES
  0
CLASS
  1
ACDBDICTIONARYWDFLT
  2
AcDbDictionaryWithDefault
  3
ObjectDBX Classes
 90
        0
280
     0
281
     0
  0
CLASS
  1
VISUALSTYLE
  2
AcDbVisualStyle
  3
ObjectDBX Classes
 90
     4095
280
     0
281
     0
  0
CLASS
  1
MATERIAL
  2
AcDbMaterial
  3
ObjectDBX Classes
 90
     1153
280
     0
281
     0
  0
CLASS
  1
SCALE
  2
AcDbScale
  3
ObjectDBX Classes
 90
     1153
280
     0
281
     0
  0
CLASS
  1
TABLESTYLE
  2
AcDbTableStyle
  3
ObjectDBX Classes
 90
     4095
280
     0
281
     0
  0
CLASS
  1
MLEADERSTYLE
  2
AcDbMLeaderStyle
  3
ACDB_MLEADERSTYLE_CLASS
 90
     4095
280
     0
281
     0
  0
CLASS
  1
SUN
  2
AcDbSun
  3
SCENEOE
 90
     1153
280
     0
281
     0
  0
CLASS
  1
ACDBPLACEHOLDER
  2
AcDbPlaceHolder
  3
ObjectDBX Classes
 90
        0
280
     0
281
     0
  0
CLASS
  1
LAYOUT
  2
AcDbLayout
  3
ObjectDBX Classes
 90
        0
280
     0
281
     0
  0
ENDSEC
  0
SECTION
  2
TABLES
  0
TABLE
  2
VPORT
  5
8
330
0
100
AcDbSymbolTable
 70
     1
  0
VPORT
  5
29
330
8
100
AcDbSymbolTableRecord
100
AcDbViewportTableRecord
  2
*Active
 70
     0
 10
0.0
 20
0.0
 11
1.0
 21
1.0
 12
594.5
 22
420.5
 13
0.0
 23
0.0
 14
10.0
 24
10.0
 15
10.0
 25
10.0
 16
0.0
 26
0.0
 36
1.0
 17
0.0
 27
0.0
 37
0.0
 40
841.0
 41
1.4137931034
 42
50.0
 43
0.0
 44
0.0
 50
0.0
 51
0.0
 71
     0
 72
  2000
 73
     1
 74
     3
 75
     0
 76
     0
 77
     0
 78
     0
281
     0
 65
     1
110
0.0
120
0.0
130
0.0
111
1.0
121
0.0
131
0.0
112
0.0
122
1.0
132
0.0
 79
     0
146
0.0
  0
ENDTAB
  0
TABLE
  2
LTYPE
  5
5
330
0
100
AcDbSymbolTable
 70
     6
  0
LTYPE
  5
14
330
5
100
AcDbSymbolTableRecord
100
AcDbLinetypeTableRecord
  2
ByBlock
 70
     0
  3

 72
    65
 73
     0
 40
0.0
  0
LTYPE
  5
15
330
5
100
AcDbSymbolTableRecord
100
AcDbLinetypeTableRecord
  2
ByLayer
 70
     0
  3

 72
    65
 73
     0
 40
0.0
  0
LTYPE
  5
16
330
5
100
AcDbSymbolTableRecord
100
AcDbLinetypeTableRecord
  2
Continuous
 70
     0
  3
Solid line
 72
    65
 73
     0
 40
0.0
  0
LTYPE
  5
6E
330
5
100
AcDbSymbolTableRecord
100
AcDbLinetypeTableRecord
  2
HIDDEN
 70
     0
  3
Hidden __ __ __ __ __ __ __ __ __ __ __ __ __ __
 72
    65
 73
     2
 40
1.905
 49
1.27
 74
     0
 49
-0.635
 74
     0
  0
LTYPE
  5
6F
330
5
100
AcDbSymbolTableRecord
100
AcDbLinetypeTableRecord
  2
PHANTOM
 70
     0
  3
Phantom ______  __  __  ______  __  __  ______
 72
    65
 73
     6
 40
12.7
 49
6.35
 74
     0
 49
-1.27
 74
     0
 49
1.27
 74
     0
 49
-1.27
 74
     0
 49
1.27
 74
     0
 49
-1.27
 74
     0
  0
LTYPE
  5
70
330
5
100
AcDbSymbolTableRecord
100
AcDbLinetypeTableRecord
  2
CENTER
 70
     0
  3
Center ____ _ ____ _ ____ _ ____ _ ____ _ ____
 72
    65
 73
     4
 40
10.16
 49
6.35
 74
     0
 49
-1.27
 74
     0
 49
1.27
 74
     0
 49
-1.27
 74
     0
  0
LTYPE
  5
71
330
5
100
AcDbSymbolTableRecord
100
AcDbLinetypeTableRecord
  2
CENTERX2
 70
     0
  3
Center (2x) ________  __  ________  __  _____
 72
    65
 73
     4
 40
20.32
 49
12.7
 74
     0
 49
-2.54
 74
     0
 49
2.54
 74
     0
 49
-2.54
 74
     0
  0
LTYPE
  5
72
330
5
100
AcDbSymbolTableRecord
100
AcDbLinetypeTableRecord
  2
DOT2
 70
     0
  3
Dot (.5x) ........................................
 72
    65
 73
     2
 40
0.635
 49
0.0
 74
     0
 49
-0.635
 74
     0
  0
ENDTAB
  0
TABLE
  2
LAYER
  5
2
330
0
100
AcDbSymbolTable
 70
     2
  0
LAYER
  5
10
330
2
100
AcDbSymbolTableRecord
100
AcDbLayerTableRecord
  2
0
 70
     0
 62
     7
  6
Continuous
370
    -3
390
F
  0
LAYER
  5
73
330
2
100
AcDbSymbolTableRecord
100
AcDbLayerTableRecord
  2
FORMAT
 70
     0
 62
     7
  6
Continuous
370
    -3
390
F
  0
ENDTAB
  0
TABLE
  2
STYLE
  5
3
330
0
100
AcDbSymbolTable
 70
     1
  0
STYLE
  5
11
330
3
100
AcDbSymbolTableRecord
100
AcDbTextStyleTableRecord
  2
Standard
 70
     0
 40
0.0
 41
1.0
 50
0.0
 71
     0
 42
3.5
  3
txt
  4

  0
ENDTAB
  0
TABLE
  2
VIEW
  5
6
330
0
100
AcDbSymbolTable
 70
     0
  0
ENDTAB
  0
TABLE
  2
UCS
  5
7
330
0
100
AcDbSymbolTable
 70
     0
  0
ENDTAB
  0
TABLE
  2
APPID
  5
9
330
0
100
AcDbSymbolTable
 70
     1
  0
APPID
  5
12
330
9
100
AcDbSymbolTableRecord
100
AcDbRegAppTableRecord
  2
ACAD
 70
     0
  0
ENDTAB
  0
TABLE
  2
DIMSTYLE
  5
A
330
0
100
AcDbSymbolTable
 70
     1
100
AcDbDimStyleTable
  0
DIMSTYLE
105
27
330
A
100
AcDbSymbolTableRecord
100
AcDbDimStyleTableRecord
  2
ISO-25
 70
     0
 41
2.5
 42
0.625
 43
3.75
 44
1.25
 73
     0
 74
     0
 77
     1
 78
     8
140
2.5
141
2.5
143
0.0393700787
147
0.625
171
     3
172
     1
178
     0
271
     2
272
     2
274
     3
278
    44
283
     0
284
     8
340
11
  0
ENDTAB
  0
TABLE
  2
BLOCK_RECORD
  5
1
330
0
100
AcDbSymbolTable
 70
     1
  0
BLOCK_RECORD
  5
1F
330
1
100
AcDbSymbolTableRecord
100
AcDbBlockTableRecord
  2
*Model_Space
340
22
  0
BLOCK_RECORD
  5
1B
330
1
100
AcDbSymbolTableRecord
100
AcDbBlockTableRecord
  2
*Paper_Space
340
1E
  0
BLOCK_RECORD
  5
23
330
1
100
AcDbSymbolTableRecord
100
AcDbBlockTableRecord
  2
*Paper_Space0
340
26
  0
ENDTAB
  0
ENDSEC
  0
SECTION
  2
BLOCKS
  0
BLOCK
  5
20
330
1F
100
AcDbEntity
  8
0
100
AcDbBlockBegin
  2
*Model_Space
 70
     0
 10
0.0
 20
0.0
 30
0.0
  3
*Model_Space
  1

  0
ENDBLK
  5
21
330
1F
100
AcDbEntity
  8
0
100
AcDbBlockEnd
  0
BLOCK
  5
1C
330
1B
100
AcDbEntity
 67
     1
  8
0
100
AcDbBlockBegin
  2
*Paper_Space
 70
     0
 10
0.0
 20
0.0
 30
0.0
  3
*Paper_Space
  1

  0
ENDBLK
  5
1D
330
1B
100
AcDbEntity
 67
     1
  8
0
100
AcDbBlockEnd
  0
BLOCK
  5
24
330
23
100
AcDbEntity
  8
0
100
AcDbBlockBegin
  2
*Paper_Space0
 70
     0
 10
0.0
 20
0.0
 30
0.0
  3
*Paper_Space0
  1

  0
ENDBLK
  5
25
330
23
100
AcDbEntity
  8
0
100
AcDbBlockEnd
  0
ENDSEC
  0
SECTION
  2
ENTITIES
  0
LINE
  5
74
330
1F
100
AcDbEntity
  8
0
  6
Continuous
 62
     7
370
    15
100
AcDbLine
 10
354.3289238712
 20
233.532345898
 30
0.0
 11
351.5576425791
 21
235.132345898
 31
0.0
  0
LINE
  5
75
330
1F
100
AcDbEntity
  8
0
  6
Continuous
 62
     7
370
    15
100
AcDbLine
 10
336.1002051633
 20
235.132345898
 30
0.0
 11
333.3289238712
 21
233.532345898
 31
0.0
  0
LINE
  5
76
330
1F
100
AcDbEntity
  8
0
  6
Continuous
 62
     7
370
    15
100
AcDbLine
 10
354.3289238712
 20
231.532345898
 30
0.0
 11
354.3289238712
 21
233.532345898
 31
0.0
  0
LINE
  5
77
330
1F
100
AcDbEntity
  8
0
  6
Continuous
 62
     7
370
    15
100
AcDbLine
 10
333.3289238712
 20
233.532345898
 30
0.0
 11
333.3289238712
 21
231.532345898
 31
0.0
  0
LINE
  5
78
330
1F
100
AcDbEntity
  8
0
  6
Continuous
 62
     7
370
    15
100
AcDbLine
 10
270.8289238712
 20
182.732345898
 30
0.0
 11
272.2289238712
 21
181.332345898
 31
0.0
  0
LINE
  5
79
330
1F
100
AcDbEntity
  8
0
  6
Continuous
 62
     7
370
    15
100
AcDbLine
 10
415.4289238712
 20
181.332345898
 30
0.0
 11
416.8289238712
 21
182.732345898
 31
0.0
  0
LINE
  5
7A
330
1F
100
AcDbEntity
  8
0
  6
Continuous
 62
     7
370
    15
100
AcDbLine
 10
270.8289238712
 20
184.932345898
 30
0.0
 11
270.8289238712
 21
182.732345898
 31
0.0
  0
LINE
  5
7B
330
1F
100
AcDbEntity
  8
0
  6
Continuous
 62
     7
370
    15
100
AcDbLine
 10
416.8289238712
 20
182.732345898
 30
0.0
 11
416.8289238712
 21
184.932345898
 31
0.0
  0
LINE
  5
7C
330
1F
100
AcDbEntity
  8
0
  6
Continuous
 62
     7
370
    15
100
AcDbLine
 10
409.8166454151
 20
184.932345898
 30
0.0
 11
408.8834827522
 21
192.532345898
 31
0.0
  0
LINE
  5
7D
330
1F
100
AcDbEntity
  8
0
  6
Continuous
 62
     7
370
    15
100
AcDbLine
 10
278.7743649901
 20
192.532345898
 30
0.0
 11
277.8412023273
 21
184.932345898
 31
0.0
  0
LINE
  5
7E
330
1F
100
AcDbEntity
  8
0
  6
Continuous
 62
     7
370
    15
100
AcDbLine
 10
408.8834827522
 20
192.532345898
 30
0.0
 11
358.0079531699
 21
219.532345898
 31
0.0
  0
LINE
  5
7F
330
1F
100
AcDbEntity
  8
0
  6
Continuous
 62
     7
370
    15
100
AcDbLine
 10
329.6498945725
 20
219.532345898
 30
0.0
 11
278.7743649901
 21
192.532345898
 31
0.0
  0
LINE
  5
80
330
1F
100
AcDbEntity
  8
0
  6
Continuous
 62
     7
370
    15
100
AcDbLine
 10
358.0079531699
 20
219.532345898
 30
0.0
 11
354.3289238712
 21
231.532345898
 31
0.0
  0
LINE
  5
81
330
1F
100
AcDbEntity
  8
0
  6
Continuous
 62
     7
370
    15
100
AcDbLine
 10
333.3289238712
 20
231.532345898
 30
0.0
 11
329.6498945725
 21
219.532345898
 31
0.0
  0
LINE
  5
82
330
1F
100
AcDbEntity
  8
0
  6
Continuous
 62
     7
370
    15
100
AcDbLine
 10
343.8289238712
 20
235.132345898
 30
0.0
 11
351.5576425791
 21
235.132345898
 31
0.0
  0
LINE
  5
83
330
1F
100
AcDbEntity
  8
0
  6
Continuous
 62
     7
370
    15
100
AcDbLine
 10
336.1002051633
 20
235.132345898
 30
0.0
 11
343.8289238712
 21
235.132345898
 31
0.0
  0
LINE
  5
84
330
1F
100
AcDbEntity
  8
0
  6
Continuous
 62
     7
370
    15
100
AcDbLine
 10
343.8289238712
 20
233.532345898
 30
0.0
 11
333.3289238712
 21
233.532345898
 31
0.0
  0
LINE
  5
85
330
1F
100
AcDbEntity
  8
0
  6
Continuous
 62
     7
370
    15
100
AcDbLine
 10
354.3289238712
 20
233.532345898
 30
0.0
 11
343.8289238712
 21
233.532345898
 31
0.0
  0
LINE
  5
86
330
1F
100
AcDbEntity
  8
0
  6
Continuous
 62
     7
370
    15
100
AcDbLine
 10
343.8289238712
 20
231.532345898
 30
0.0
 11
354.3289238712
 21
231.532345898
 31
0.0
  0
LINE
  5
87
330
1F
100
AcDbEntity
  8
0
  6
Continuous
 62
     7
370
    15
100
AcDbLine
 10
333.3289238712
 20
231.532345898
 30
0.0
 11
343.8289238712
 21
231.532345898
 31
0.0
  0
LINE
  5
88
330
1F
100
AcDbEntity
  8
0
  6
Continuous
 62
     7
370
    15
100
AcDbLine
 10
415.4289238712
 20
181.332345898
 30
0.0
 11
272.2289238712
 21
181.332345898
 31
0.0
  0
LINE
  5
89
330
1F
100
AcDbEntity
  8
0
  6
Continuous
 62
     7
370
    15
100
AcDbLine
 10
270.8289238712
 20
182.732345898
 30
0.0
 11
416.8289238712
 21
182.732345898
 31
0.0
  0
LINE
  5
8A
330
1F
100
AcDbEntity
  8
0
  6
Continuous
 62
     7
370
    15
100
AcDbLine
 10
343.8289238712
 20
184.932345898
 30
0.0
 11
416.8289238712
 21
184.932345898
 31
0.0
  0
LINE
  5
8B
330
1F
100
AcDbEntity
  8
0
  6
Continuous
 62
     7
370
    15
100
AcDbLine
 10
270.8289238712
 20
184.932345898
 30
0.0
 11
343.8289238712
 21
184.932345898
 31
0.0
  0
LINE
  5
8C
330
1F
100
AcDbEntity
  8
0
  6
Continuous
 62
     7
370
    15
100
AcDbLine
 10
408.8834827522
 20
192.532345898
 30
0.0
 11
278.7743649901
 21
192.532345898
 31
0.0
  0
LINE
  5
8D
330
1F
100
AcDbEntity
  8
0
  6
Continuous
 62
     7
370
    15
100
AcDbLine
 10
358.0079531699
 20
219.532345898
 30
0.0
 11
329.6498945725
 21
219.532345898
 31
0.0
  0
LINE
  5
8E
330
1F
100
AcDbEntity
  8
0
  6
Continuous
 62
     7
370
    15
100
AcDbLine
 10
354.3289238712
 20
231.532345898
 30
0.0
 11
333.3289238712
 21
231.532345898
 31
0.0
  0
CIRCLE
  5
8F
330
1F
100
AcDbEntity
  8
0
  6
Continuous
 62
     7
370
    15
100
AcDbCircle
 10
343.8289238712
 20
612.2256230599
 30
0.0
 40
7.728718707889811
  0
CIRCLE
  5
90
330
1F
100
AcDbEntity
  8
0
  6
Continuous
 62
     7
370
    15
100
AcDbCircle
 10
343.8289238712
 20
612.2256230599
 30
0.0
 40
10.50000000000011
  0
CIRCLE
  5
91
330
1F
100
AcDbEntity
  8
0
  6
Continuous
 62
     7
370
    15
100
AcDbCircle
 10
343.8289238712
 20
612.2256230599
 30
0.0
 40
1.0
  0
CIRCLE
  5
92
330
1F
100
AcDbEntity
  8
0
  6
Continuous
 62
     7
370
    15
100
AcDbCircle
 10
343.8289238712
 20
612.2256230599
 30
0.0
 40
68.00000000000011
  0
CIRCLE
  5
93
330
1F
100
AcDbEntity
  8
0
  6
Continuous
 62
     7
370
    15
100
AcDbCircle
 10
343.8289238712
 20
612.2256230599
 30
0.0
 40
73.00000000000011
  0
CIRCLE
  5
94
330
1F
100
AcDbEntity
  8
0
  6
Continuous
 62
     7
370
    15
100
AcDbCircle
 10
343.8289238712
 20
612.2256230599
 30
0.0
 40
14.17902929873401
  0
CIRCLE
  5
95
330
1F
100
AcDbEntity
  8
0
  6
Continuous
 62
     7
370
    15
100
AcDbCircle
 10
343.8289238712
 20
612.2256230599
 30
0.0
 40
65.05455888104757
  0
CIRCLE
  5
96
330
1F
100
AcDbEntity
  8
0
  6
Continuous
 62
     7
370
    15
100
AcDbCircle
 10
343.8289238712
 20
612.2256230599
 30
0.0
 40
65.99999999999989
  0
LINE
  5
97
330
1F
100
AcDbEntity
  8
0
  6
Continuous
 62
     7
370
    15
100
AcDbLine
 10
799.4062631173
 20
233.532345898
 30
0.0
 11
796.6349818252
 21
235.132345898
 31
0.0
  0
LINE
  5
98
330
1F
100
AcDbEntity
  8
0
  6
Continuous
 62
     7
370
    15
100
AcDbLine
 10
781.1775444094
 20
235.132345898
 30
0.0
 11
778.4062631173
 21
233.532345898
 31
0.0
  0
LINE
  5
99
330
1F
100
AcDbEntity
  8
0
  6
Continuous
 62
     7
370
    15
100
AcDbLine
 10
799.4062631173
 20
231.532345898
 30
0.0
 11
799.4062631173
 21
233.532345898
 31
0.0
  0
LINE
  5
9A
330
1F
100
AcDbEntity
  8
0
  6
Continuous
 62
     7
370
    15
100
AcDbLine
 10
778.4062631173
 20
233.532345898
 30
0.0
 11
778.4062631173
 21
231.532345898
 31
0.0
  0
LINE
  5
9B
330
1F
100
AcDbEntity
  8
0
  6
Continuous
 62
     7
370
    15
100
AcDbLine
 10
715.9062631173
 20
182.732345898
 30
0.0
 11
717.3062631173
 21
181.332345898
 31
0.0
  0
LINE
  5
9C
330
1F
100
AcDbEntity
  8
0
  6
Continuous
 62
     7
370
    15
100
AcDbLine
 10
860.5062631173
 20
181.332345898
 30
0.0
 11
861.9062631173
 21
182.732345898
 31
0.0
  0
LINE
  5
9D
330
1F
100
AcDbEntity
  8
0
  6
Continuous
 62
     7
370
    15
100
AcDbLine
 10
715.9062631173
 20
184.932345898
 30
0.0
 11
715.9062631173
 21
182.732345898
 31
0.0
  0
LINE
  5
9E
330
1F
100
AcDbEntity
  8
0
  6
Continuous
 62
     7
370
    15
100
AcDbLine
 10
861.9062631173
 20
182.732345898
 30
0.0
 11
861.9062631173
 21
184.932345898
 31
0.0
  0
LINE
  5
9F
330
1F
100
AcDbEntity
  8
0
  6
Continuous
 62
     7
370
    15
100
AcDbLine
 10
854.8939846612
 20
184.932345898
 30
0.0
 11
853.9608219984
 21
192.532345898
 31
0.0
  0
LINE
  5
A0
330
1F
100
AcDbEntity
  8
0
  6
Continuous
 62
     7
370
    15
100
AcDbLine
 10
723.8517042363
 20
192.532345898
 30
0.0
 11
722.9185415734
 21
184.932345898
 31
0.0
  0
LINE
  5
A1
330
1F
100
AcDbEntity
  8
0
  6
Continuous
 62
     7
370
    15
100
AcDbLine
 10
853.9608219984
 20
192.532345898
 30
0.0
 11
803.085292416
 21
219.532345898
 31
0.0
  0
LINE
  5
A2
330
1F
100
AcDbEntity
  8
0
  6
Continuous
 62
     7
370
    15
100
AcDbLine
 10
774.7272338186
 20
219.532345898
 30
0.0
 11
723.8517042363
 21
192.532345898
 31
0.0
  0
LINE
  5
A3
330
1F
100
AcDbEntity
  8
0
  6
Continuous
 62
     7
370
    15
100
AcDbLine
 10
803.085292416
 20
219.532345898
 30
0.0
 11
799.4062631173
 21
231.532345898
 31
0.0
  0
LINE
  5
A4
330
1F
100
AcDbEntity
  8
0
  6
Continuous
 62
     7
370
    15
100
AcDbLine
 10
778.4062631173
 20
231.532345898
 30
0.0
 11
774.7272338186
 21
219.532345898
 31
0.0
  0
LINE
  5
A5
330
1F
100
AcDbEntity
  8
0
  6
Continuous
 62
     7
370
    15
100
AcDbLine
 10
781.1775444094
 20
235.132345898
 30
0.0
 11
796.6349818252
 21
235.132345898
 31
0.0
  0
LINE
  5
A6
330
1F
100
AcDbEntity
  8
0
  6
Continuous
 62
     7
370
    15
100
AcDbLine
 10
799.4062631173
 20
233.532345898
 30
0.0
 11
778.4062631173
 21
233.532345898
 31
0.0
  0
LINE
  5
A7
330
1F
100
AcDbEntity
  8
0
  6
Continuous
 62
     7
370
    15
100
AcDbLine
 10
778.4062631173
 20
231.532345898
 30
0.0
 11
799.4062631173
 21
231.532345898
 31
0.0
  0
LINE
  5
A8
330
1F
100
AcDbEntity
  8
0
  6
Continuous
 62
     7
370
    15
100
AcDbLine
 10
860.5062631173
 20
181.332345898
 30
0.0
 11
717.3062631173
 21
181.332345898
 31
0.0
  0
LINE
  5
A9
330
1F
100
AcDbEntity
  8
0
  6
Continuous
 62
     7
370
    15
100
AcDbLine
 10
715.9062631173
 20
182.732345898
 30
0.0
 11
861.9062631173
 21
182.732345898
 31
0.0
  0
LINE
  5
AA
330
1F
100
AcDbEntity
  8
0
  6
Continuous
 62
     7
370
    15
100
AcDbLine
 10
715.9062631173
 20
184.932345898
 30
0.0
 11
861.9062631173
 21
184.932345898
 31
0.0
  0
LINE
  5
AB
330
1F
100
AcDbEntity
  8
0
  6
Continuous
 62
     7
370
    15
100
AcDbLine
 10
853.9608219984
 20
192.532345898
 30
0.0
 11
723.8517042363
 21
192.532345898
 31
0.0
  0
LINE
  5
AC
330
1F
100
AcDbEntity
  8
0
  6
Continuous
 62
     7
370
    15
100
AcDbLine
 10
803.085292416
 20
219.532345898
 30
0.0
 11
774.7272338186
 21
219.532345898
 31
0.0
  0
LINE
  5
AD
330
1F
100
AcDbEntity
  8
0
  6
Continuous
 62
     7
370
    15
100
AcDbLine
 10
775.4405602348
 20
648.3693831786
 30
0.0
 11
775.4405602348
 21
650.0024648024
 31
0.0
  0
LINE
  5
AE
330
1F
100
AcDbEntity
  8
0
  6
Continuous
 62
     7
370
    15
100
AcDbLine
 10
754.4405602348
 20
650.0024648024
 30
0.0
 11
754.4405602348
 21
648.3693831786
 31
0.0
  0
LINE
  5
AF
330
1F
100
AcDbEntity
  8
0
  6
Continuous
 62
     7
370
    15
100
AcDbLine
 10
691.9405602348
 20
610.3185813447
 30
0.0
 11
691.9405602348
 21
608.5221915586
 31
0.0
  0
LINE
  5
B0
330
1F
100
AcDbEntity
  8
0
  6
Continuous
 62
     7
370
    15
100
AcDbLine
 10
837.9405602348
 20
608.5221915586
 30
0.0
 11
837.9405602348
 21
610.3185813447
 31
0.0
  0
LINE
  5
B1
330
1F
100
AcDbEntity
  8
0
  6
Continuous
 62
     7
370
    15
100
AcDbLine
 10
713.3133777471
 20
578.7281382422
 30
0.0
 11
714.3034880961
 21
578.1563739089
 31
0.0
  0
LINE
  5
B2
330
1F
100
AcDbEntity
  8
0
  6
Continuous
 62
     7
370
    15
100
AcDbLine
 10
815.5776323735
 20
578.1563739089
 30
0.0
 11
816.5677427226
 21
578.7281382422
 31
0.0
  0
LINE
  5
B3
330
1F
100
AcDbEntity
  8
0
  6
Continuous
 62
     7
370
    15
100
AcDbLine
 10
830.6914160337
 20
613.5443859452
 30
0.0
 11
829.7495438719
 21
619.7843712961
 31
0.0
  0
LINE
  5
B4
330
1F
100
AcDbEntity
  8
0
  6
Continuous
 62
     7
370
    15
100
AcDbLine
 10
700.1315765977
 20
619.7843712961
 30
0.0
 11
699.1897044359
 21
613.5443859452
 31
0.0
  0
LINE
  5
B5
330
1F
100
AcDbEntity
  8
0
  6
Continuous
 62
     7
370
    15
100
AcDbLine
 10
778.78250203
 20
640.3451042859
 30
0.0
 11
775.4405602348
 21
649.0342143103
 31
0.0
  0
LINE
  5
B6
330
1F
100
AcDbEntity
  8
0
  6
Continuous
 62
     7
370
    15
100
AcDbLine
 10
754.4405602348
 20
649.0342143103
 30
0.0
 11
751.0986184396
 21
640.3451042859
 31
0.0
  0
LWPOLYLINE
  5
B7
330
1F
100
AcDbEntity
  8
0
  6
Continuous
 62
     7
370
    15
100
AcDbPolyline
 90
       66
 70
   128
 43
0.0
 10
759.4755308266
 20
648.1540357778
 10
760.0284949963
 20
647.8642727557
 10
760.6273217956
 20
647.6066715711
 10
761.26642014
 20
647.3836373769
 10
761.9398229406
 20
647.1972525833
 10
762.6412428168
 20
647.0492574148
 10
763.3641308003
 20
646.9410336624
 10
764.1017374806
 20
646.8735917823
 10
764.8471760229
 20
646.847561461
 10
765.5934864685
 20
646.8631857367
 10
766.3337007178
 20
646.9203187296
 10
767.0609075897
 20
647.0184270045
 10
767.7683173497
 20
647.1565945508
 10
768.4493251034
 20
647.3335313353
 10
769.0975724649
 20
647.547585347
 10
769.7070069232
 20
647.7967580212
 10
770.2719383531
 20
648.0787228998
 10
770.7870921419
 20
648.3908473528
 10
771.2476584376
 20
648.7302171581
 10
771.6493370567
 20
649.0936637114
 10
771.9883776343
 20
649.4777936101
 10
772.2616146397
 20
649.8790203369
 10
772.4664969326
 20
650.2935977458
 10
772.6011115824
 20
650.7176550394
 10
772.6642017283
 20
651.1472329089
 10
772.6551783145
 20
651.5783205016
 10
772.5741255903
 20
652.0068928687
 10
772.4218003232
 20
652.4289485454
 10
772.1996247331
 20
652.8405469117
 10
771.9096732136
 20
653.2378449846
 10
771.5546529639
 20
653.6171332989
 10
771.1378787125
 20
653.9748705418
 10
770.6632417683
 20
654.3077166172
 10
770.1351736884
 20
654.6125638308
 10
769.5586049024
 20
654.8865659064
 10
768.9389186776
 20
655.1271645605
 10
768.2819008572
 20
655.3321133881
 10
767.5936858398
 20
655.4994988374
 10
766.8806993034
 20
655.6277580756
 10
766.1495982113
 20
655.7156935805
 10
765.4072086574
 20
655.7624843222
 10
764.6604621329
 20
655.7676934281
 10
763.9163308089
 20
655.7312722621
 10
763.181762439
 20
655.6535608789
 10
762.4636154904
 20
655.5352848488
 10
761.7685951074
 20
655.3775484831
 10
761.1031905081
 20
655.1818245238
 10
760.4736143961
 20
654.9499403928
 10
759.8857449538
 20
654.6840611297
 10
759.3450709599
 20
654.3866691775
 10
758.8566405417
 20
654.0605412049
 10
758.4250140425
 20
653.7087221808
 10
758.0542214425
 20
653.3344969446
 10
757.7477247324
 20
652.9413595365
 10
757.5083855894
 20
652.5329805747
 10
757.3384386586
 20
652.1131729834
 10
757.2394706886
 20
651.685856393
 10
757.2124057168
 20
651.2550205433
 10
757.2574964415
 20
650.8246880327
 10
757.3743218627
 20
650.3988767598
 10
757.561791213
 20
649.9815624098
 10
757.8181541416
 20
649.5766413342
 10
758.1410170568
 20
649.1878941722
 10
758.5273654747
 20
648.8189505511
 10
758.973592164
 20
648.4732551982
 10
759.4755308266
 20
648.1540357778
  0
LWPOLYLINE
  5
B8
330
1F
100
AcDbEntity
  8
0
  6
Continuous
 62
     7
370
    15
100
AcDbPolyline
 90
       77
 70
   128
 43
0.0
 10
757.5159390324
 20
645.7163222153
 10
756.9281775187
 20
646.0849084147
 10
756.3951487035
 20
646.4802554966
 10
755.9204937139
 20
646.8996628395
 10
755.507454925
 20
647.3402654661
 10
755.1588538103
 20
647.7990536135
 10
754.877071669
 20
648.2728932936
 10
754.6640333589
 20
648.7585477009
 10
754.5211941476
 20
649.2526993232
 10
754.4495297718
 20
649.7519726041
 10
754.4495297718
 20
650.2529570006
 10
754.5211941476
 20
650.7522302815
 10
754.6640333589
 20
651.2463819039
 10
754.877071669
 20
651.7320363111
 10
755.1588538103
 20
652.2058759912
 10
755.507454925
 20
652.6646641386
 10
755.9204937139
 20
653.1052667652
 10
756.3951487035
 20
653.5246741081
 10
756.9281775187
 20
653.92002119
 10
757.5159390324
 20
654.2886073894
 10
758.1544182373
 20
654.6279148889
 10
758.8392536731
 20
654.9356258741
 10
759.5657672194
 20
655.2096383671
 10
760.3289960519
 20
655.4480805845
 10
761.1237265439
 20
655.6493237245
 10
761.9445298802
 20
655.8119930921
 10
762.7857991418
 20
655.9349774907
 10
763.6417876065
 20
656.0174368122
 10
764.5066480052
 20
656.0588077758
 10
765.3744724644
 20
656.0588077758
 10
766.2393328632
 20
656.0174368122
 10
767.0953213279
 20
655.9349774907
 10
767.9365905894
 20
655.8119930921
 10
768.7573939257
 20
655.6493237245
 10
769.5521244177
 20
655.4480805845
 10
770.3153532503
 20
655.2096383671
 10
771.0418667965
 20
654.9356258741
 10
771.7267022324
 20
654.6279148889
 10
772.3651814373
 20
654.2886073894
 10
772.9529429509
 20
653.92002119
 10
773.4859717662
 20
653.5246741081
 10
773.9606267557
 20
653.1052667652
 10
774.3736655447
 20
652.6646641386
 10
774.7222666594
 20
652.2058759912
 10
775.0040488006
 20
651.7320363111
 10
775.2170871108
 20
651.2463819039
 10
775.3599263221
 20
650.7522302815
 10
775.4315906979
 20
650.2529570006
 10
775.4315906979
 20
649.7519726041
 10
775.3599263221
 20
649.2526993232
 10
775.2170871108
 20
648.7585477009
 10
775.0040488006
 20
648.2728932936
 10
774.7222666594
 20
647.7990536135
 10
774.3736655447
 20
647.3402654661
 10
773.9606267557
 20
646.8996628395
 10
773.4859717662
 20
646.4802554966
 10
772.9529429509
 20
646.0849084147
 10
772.3651814373
 20
645.7163222153
 10
771.7267022324
 20
645.3770147158
 10
771.0418667965
 20
645.0693037306
 10
770.3153532503
 20
644.7952912377
 10
769.5521244177
 20
644.5568490202
 10
768.7573939257
 20
644.3556058802
 10
767.9365905894
 20
644.1929365126
 10
767.0953213279
 20
644.069952114
 10
766.2393328632
 20
643.9874927925
 10
765.3744724644
 20
643.9461218289
 10
764.5066480052
 20
643.9461218289
 10
763.6417876065
 20
643.9874927925
 10
762.7857991418
 20
644.069952114
 10
761.9445298802
 20
644.1929365126
 10
761.1237265439
 20
644.3556058802
 10
760.3289960519
 20
644.5568490202
 10
759.5657672194
 20
644.7952912377
 10
758.8392536731
 20
645.0693037306
 10
758.1544182373
 20
645.3770147158
 10
757.5159390324
 20
645.7163222153
  0
LWPOLYLINE
  5
B9
330
1F
100
AcDbEntity
  8
0
  6
Continuous
 62
     7
370
    15
100
AcDbPolyline
 90
       30
 70
   128
 43
0.0
 10
757.5159390324
 20
644.0832405915
 10
758.1544182373
 20
643.743933092
 10
758.8392536731
 20
643.4362221068
 10
759.5657672194
 20
643.1622096139
 10
760.3289960519
 20
642.9237673964
 10
761.1237265439
 20
642.7225242565
 10
761.9445298802
 20
642.5598548888
 10
762.7857991418
 20
642.4368704902
 10
763.6417876065
 20
642.3544111687
 10
764.5066480052
 20
642.3130402051
 10
765.3744724644
 20
642.3130402051
 10
766.2393328632
 20
642.3544111687
 10
767.0953213279
 20
642.4368704902
 10
767.9365905894
 20
642.5598548888
 10
768.7573939257
 20
642.7225242565
 10
769.5521244177
 20
642.9237673964
 10
770.3153532503
 20
643.1622096139
 10
771.0418667965
 20
643.4362221068
 10
771.7267022324
 20
643.743933092
 10
772.3651814373
 20
644.0832405915
 10
772.9529429509
 20
644.4518267909
 10
773.4859717662
 20
644.8471738728
 10
773.9606267557
 20
645.2665812158
 10
774.3736655447
 20
645.7071838423
 10
774.7222666594
 20
646.1659719897
 10
775.0040488006
 20
646.6398116698
 10
775.2170871108
 20
647.1254660771
 10
775.3599263221
 20
647.6196176995
 10
775.4315906979
 20
648.1188909803
 10
775.4405602348
 20
648.3693831786
  0
LWPOLYLINE
  5
BA
330
1F
100
AcDbEntity
  8
0
  6
Continuous
 62
     7
370
    15
100
AcDbPolyline
 90
       11
 70
   128
 43
0.0
 10
754.4405602348
 20
648.3693831786
 10
754.4495297718
 20
648.1188909803
 10
754.5211941476
 20
647.6196176995
 10
754.6640333589
 20
647.1254660771
 10
754.877071669
 20
646.6398116698
 10
755.1588538103
 20
646.1659719897
 10
755.507454925
 20
645.7071838423
 10
755.9204937139
 20
645.2665812158
 10
756.3951487035
 20
644.8471738728
 10
756.9281775187
 20
644.4518267909
 10
757.5159390324
 20
644.0832405915
  0
LWPOLYLINE
  5
BB
330
1F
100
AcDbEntity
  8
0
  6
Continuous
 62
     7
370
    15
100
AcDbPolyline
 90
       24
 70
   128
 43
0.0
 10
764.2334534536
 20
650.9007260455
 10
764.4504500176
 20
650.8057312229
 10
764.7037958144
 20
650.7480563592
 10
764.974701345
 20
650.7319789351
 10
765.2430747857
 20
650.7586913396
 10
765.4890121061
 20
650.826212436
 10
765.6942732602
 20
650.9295344932
 10
765.8436349672
 20
651.0609945872
 10
765.9260197525
 20
651.2108429239
 10
765.9353175137
 20
651.3679659379
 10
765.8708386782
 20
651.520710534
 10
765.7373653462
 20
651.6577483442
 10
765.5447966243
 20
651.7689159011
 10
765.3074144536
 20
651.8459684155
 10
765.0428243838
 20
651.883191255
 10
764.7706498498
 20
651.8778237717
 10
764.5110767918
 20
651.8302640474
 10
764.283356556
 20
651.7440393693
 10
764.1043781106
 20
651.6255446273
 10
763.987415468
 20
651.4835680343
 10
763.9411432125
 20
651.3286393448
 10
763.9689931454
 20
651.1722489108
 10
764.0688997648
 20
651.0259954954
 10
764.2334534536
 20
650.9007260455
  0
LWPOLYLINE
  5
BC
330
1F
100
AcDbEntity
  8
0
  6
Continuous
 62
     7
370
    15
100
AcDbPolyline
 90
      106
 70
   128
 43
0.0
 10
713.3217652082
 20
580.5196852632
 10
714.9520715493
 20
579.607357953
 10
716.6307385247
 20
578.7247417679
 10
718.3561421326
 20
577.8726905822
 10
720.1266131564
 20
577.0520287003
 10
721.9404387798
 20
576.2635500597
 10
723.7958642435
 20
575.5080174624
 10
725.6910945433
 20
574.7861618374
 10
727.6242961663
 20
574.0986815335
 10
729.5935988647
 20
573.4462416434
 10
731.5970974654
 20
572.8294733606
 10
733.6328537129
 20
572.2489733686
 10
735.6988981445
 20
571.7053032637
 10
737.7932319956
 20
571.1989890114
 10
739.9138291335
 20
570.7305204383
 10
742.0586380174
 20
570.3003507573
 10
744.2255836832
 20
569.9088961299
 10
746.412569751
 20
569.5565352631
 10
748.617480453
 20
569.2436090434
 10
750.8381826805
 20
568.9704202065
 10
753.0725280474
 20
568.7372330451
 10
755.3183549691
 20
568.5442731527
 10
757.5734907528
 20
568.3917272056
 10
759.8357537005
 20
568.279742782
 10
762.1029552189
 20
568.2084282196
 10
764.3729019368
 20
568.1778525108
 10
766.6433978275
 20
568.1880452356
 10
768.9122463327
 20
568.238996533
 10
771.1772524882
 20
568.3306571111
 10
773.4362250467
 20
568.4629382941
 10
775.6869785982
 20
568.6357121086
 10
777.927335684
 20
568.848811407
 10
780.1551289032
 20
569.1020300296
 10
782.3682030099
 20
569.3951230036
 10
784.5644169978
 20
569.7278067806
 10
786.7416461716
 20
570.0997595104
 10
788.8977842028
 20
570.5106213529
 10
791.030745167
 20
570.9599948257
 10
793.1384655624
 20
571.4474451891
 10
795.2189063054
 20
571.9725008662
 10
797.2700547041
 20
572.5346538996
 10
799.2899264049
 20
573.1333604426
 10
801.2765673124
 20
573.7680412853
 10
803.2280554797
 20
574.4380824149
 10
805.1425029682
 20
575.1428356099
 10
807.0180576734
 20
575.8816190671
 10
808.8529051174
 20
576.6537180612
 10
810.6452702038
 20
577.4583856363
 10
812.393418935
 20
578.2948433286
 10
814.0956600902
 20
579.1622819192
 10
815.7503468608
 20
580.0598622172
 10
817.3558784445
 20
580.9867158718
 10
818.9107015929
 20
581.9419462119
 10
820.4133121152
 20
582.9246291138
 10
821.8622563327
 20
583.9338138952
 10
823.2561324854
 20
584.9685242351
 10
824.5935920883
 20
586.0277591181
 10
825.8733412354
 20
587.1104938028
 10
827.0941418522
 20
588.2156808133
 10
828.254812893
 20
589.3422509526
 10
829.3542314833
 20
590.4891143368
 10
830.3913340069
 20
591.6551614496
 10
831.3651171338
 20
592.8392642159
 10
832.274638792
 20
594.0402770926
 10
833.1190190778
 20
595.2570381773
 10
833.8974411079
 20
596.4883703323
 10
834.6091518093
 20
597.7330823233
 10
835.2534626479
 20
598.9899699717
 10
835.8297502944
 20
600.25781732
 10
836.3374572279
 20
601.5353978077
 10
836.7760922746
 20
602.8214754583
 10
837.1452310835
 20
604.1148060746
 10
837.4445165366
 20
605.4141384428
 10
837.6736590945
 20
606.7182155428
 10
837.8324370768
 20
608.0257757641
 10
837.9206968758
 20
609.3355541268
 10
837.938353106
 20
610.6462835048
 10
837.885388686
 20
611.9566958522
 10
837.7618548556
 20
613.2655234295
 10
837.5678711258
 20
614.5715000307
 10
837.3036251632
 20
615.8733622078
 10
836.9693726088
 20
617.1698504931
 10
836.5654368303
 20
618.459710618
 10
836.0922086095
 20
619.7416947261
 10
835.5501457642
 20
621.0145625806
 10
834.9397727052
 20
622.2770827641
 10
834.2616799289
 20
623.5280338697
 10
833.5165234463
 20
624.7662056832
 10
832.7050241482
 20
625.9904003532
 10
831.8279671078
 20
627.1994335504
 10
830.8862008211
 20
628.3921356134
 10
829.8806363862
 20
629.5673526799
 10
828.8122466217
 20
630.7239478032
 10
827.6820651257
 20
631.8608020524
 10
826.4911852758
 20
632.9768155943
 10
825.2407591713
 20
634.070908758
 10
823.9319965188
 20
635.1420230789
 10
822.5661634616
 20
636.1891223231
 10
821.144581355
 20
637.2111934898
 10
819.6686254878
 20
638.207247791
 10
818.1397237521
 20
639.1763216086
 10
816.5593552614
 20
640.1174774262
 10
814.9290489204
 20
641.0298047364
 10
813.2503819449
 20
641.9124209215
 10
811.524978337
 20
642.7644721072
 10
811.2938591739
 20
642.8745972507
  0
LWPOLYLINE
  5
BD
330
1F
100
AcDbEntity
  8
0
  6
Continuous
 62
     7
370
    15
100
AcDbPolyline
 90
       55
 70
   128
 43
0.0
 10
718.5872612957
 20
642.8745972507
 10
717.4877015346
 20
642.3423193608
 10
715.7854603795
 20
641.4748807702
 10
714.1307736088
 20
640.5773004722
 10
712.5252420252
 20
639.6504468176
 10
710.9704188767
 20
638.6952164775
 10
709.4678083545
 20
637.7125335757
 10
708.018864137
 20
636.7033487942
 10
706.6249879842
 20
635.6686384543
 10
705.2875283814
 20
634.6094035713
 10
704.0077792342
 20
633.5266688866
 10
702.7869786174
 20
632.4214818761
 10
701.6263075767
 20
631.2949117368
 10
700.5268889863
 20
630.1480483526
 10
699.4897864628
 20
628.9820012398
 10
698.5160033358
 20
627.7978984735
 10
697.6064816777
 20
626.5968855968
 10
696.7621013918
 20
625.3801245121
 10
695.9836793617
 20
624.1487923571
 10
695.2719686603
 20
622.9040803661
 10
694.6276578218
 20
621.6471927177
 10
694.0513701752
 20
620.3793453694
 10
693.5436632418
 20
619.1017648817
 10
693.1050281951
 20
617.8156872311
 10
692.7358893862
 20
616.5223566148
 10
692.4366039331
 20
615.2230242466
 10
692.2074613751
 20
613.9189471466
 10
692.0486833929
 20
612.6113869253
 10
691.9604235939
 20
611.3016085626
 10
691.9427673637
 20
609.9908791846
 10
691.9957317836
 20
608.6804668372
 10
692.119265614
 20
607.3716392599
 10
692.3132493439
 20
606.0656626587
 10
692.5774953065
 20
604.7638004816
 10
692.9117478609
 20
603.4673121963
 10
693.3156836394
 20
602.1774520714
 10
693.7889118601
 20
600.8954679633
 10
694.3309747054
 20
599.6226001088
 10
694.9413477645
 20
598.3600799253
 10
695.6194405408
 20
597.1091288197
 10
696.3645970234
 20
595.8709570062
 10
697.1760963214
 20
594.6467623362
 10
698.0531533618
 20
593.437729139
 10
698.9949196485
 20
592.245027076
 10
700.0004840835
 20
591.0698100095
 10
701.068873848
 20
589.9132148862
 10
702.199055344
 20
588.776360637
 10
703.3899351939
 20
587.6603470951
 10
704.6403612983
 20
586.5662539314
 10
705.9491239508
 20
585.4951396105
 10
707.314957008
 20
584.4480403663
 10
708.7365391146
 20
583.4259691996
 10
710.2124949818
 20
582.4299148984
 10
711.7413967176
 20
581.4608410808
 10
713.3217652082
 20
580.5196852632
  0
LWPOLYLINE
  5
BE
330
1F
100
AcDbEntity
  8
0
  6
Continuous
 62
     7
370
    15
100
AcDbPolyline
 90
      103
 70
   128
 43
0.0
 10
691.9405602348
 20
608.5221915586
 10
691.9427673637
 20
608.1944893984
 10
691.9957317836
 20
606.8840770511
 10
692.119265614
 20
605.5752494737
 10
692.3132493439
 20
604.2692728725
 10
692.5774953065
 20
602.9674106955
 10
692.9117478609
 20
601.6709224101
 10
693.3156836394
 20
600.3810622852
 10
693.7889118601
 20
599.0990781771
 10
694.3309747054
 20
597.8262103226
 10
694.9413477645
 20
596.5636901392
 10
695.6194405408
 20
595.3127390335
 10
696.3645970234
 20
594.0745672201
 10
697.1760963214
 20
592.8503725501
 10
698.0531533618
 20
591.6413393528
 10
698.9949196485
 20
590.4486372899
 10
700.0004840835
 20
589.2734202234
 10
701.068873848
 20
588.1168251
 10
702.199055344
 20
586.9799708508
 10
703.3899351939
 20
585.8639573089
 10
704.6403612983
 20
584.7698641453
 10
705.9491239508
 20
583.6987498244
 10
707.314957008
 20
582.6516505801
 10
708.7365391146
 20
581.6295794135
 10
710.2124949818
 20
580.6335251123
 10
711.7413967176
 20
579.6644512947
 10
713.3217652082
 20
578.723295477
 10
714.9520715493
 20
577.8109681668
 10
716.6307385247
 20
576.9283519818
 10
718.3561421326
 20
576.0763007961
 10
720.1266131564
 20
575.2556389142
 10
721.9404387798
 20
574.4671602735
 10
723.7958642435
 20
573.7116276762
 10
725.6910945433
 20
572.9897720512
 10
727.6242961663
 20
572.3022917473
 10
729.5935988647
 20
571.6498518572
 10
731.5970974654
 20
571.0330835745
 10
733.6328537129
 20
570.4525835825
 10
735.6988981445
 20
569.9089134775
 10
737.7932319956
 20
569.4025992253
 10
739.9138291335
 20
568.9341306521
 10
742.0586380174
 20
568.5039609712
 10
744.2255836832
 20
568.1125063438
 10
746.412569751
 20
567.760145477
 10
748.617480453
 20
567.4472192572
 10
750.8381826805
 20
567.1740304204
 10
753.0725280474
 20
566.940843259
 10
755.3183549691
 20
566.7478833666
 10
757.5734907528
 20
566.5953374194
 10
759.8357537005
 20
566.4833529958
 10
762.1029552189
 20
566.4120384335
 10
764.3729019368
 20
566.3814627247
 10
766.6433978275
 20
566.3916554494
 10
768.9122463327
 20
566.4426067469
 10
771.1772524882
 20
566.5342673249
 10
773.4362250467
 20
566.666548508
 10
775.6869785982
 20
566.8393223225
 10
777.927335684
 20
567.0524216209
 10
780.1551289032
 20
567.3056402434
 10
782.3682030099
 20
567.5987332175
 10
784.5644169978
 20
567.9314169944
 10
786.7416461716
 20
568.3033697243
 10
788.8977842028
 20
568.7142315668
 10
791.030745167
 20
569.1636050396
 10
793.1384655624
 20
569.6510554029
 10
795.2189063054
 20
570.17611108
 10
797.2700547041
 20
570.7382641135
 10
799.2899264049
 20
571.3369706565
 10
801.2765673124
 20
571.9716514991
 10
803.2280554797
 20
572.6416926287
 10
805.1425029682
 20
573.3464458237
 10
807.0180576734
 20
574.0852292809
 10
808.8529051174
 20
574.857328275
 10
810.6452702038
 20
575.6619958502
 10
812.393418935
 20
576.4984535425
 10
814.0956600902
 20
577.365892133
 10
815.7503468609
 20
578.2634724311
 10
817.3558784445
 20
579.1903260857
 10
818.9107015929
 20
580.1455564257
 10
820.4133121152
 20
581.1282393276
 10
821.8622563327
 20
582.1374241091
 10
823.2561324854
 20
583.172134449
 10
824.5935920883
 20
584.231369332
 10
825.8733412354
 20
585.3141040166
 10
827.0941418522
 20
586.4192910271
 10
828.254812893
 20
587.5458611664
 10
829.3542314833
 20
588.6927245506
 10
830.3913340069
 20
589.8587716635
 10
831.3651171338
 20
591.0428744297
 10
832.274638792
 20
592.2438873064
 10
833.1190190778
 20
593.4606483912
 10
833.8974411079
 20
594.6919805462
 10
834.6091518093
 20
595.9366925371
 10
835.2534626479
 20
597.1935801856
 10
835.8297502944
 20
598.4614275339
 10
836.3374572279
 20
599.7390080216
 10
836.7760922746
 20
601.0250856721
 10
837.1452310835
 20
602.3184162884
 10
837.4445165366
 20
603.6177486567
 10
837.6736590945
 20
604.9218257566
 10
837.8324370768
 20
606.229385978
 10
837.9206968758
 20
607.5391643407
 10
837.9405602348
 20
608.5221915586
  0
LWPOLYLINE
  5
BF
330
1F
100
AcDbEntity
  8
0
  6
Continuous
 62
     7
370
    15
100
AcDbPolyline
 90
       86
 70
   128
 43
0.0
 10
716.8572991141
 20
582.5607055427
 10
718.4313024708
 20
581.6808691092
 10
720.0535886163
 20
580.830762426
 10
721.7224734021
 20
580.0112680165
 10
723.4362243042
 20
579.2232366251
 10
725.1930622214
 20
578.4674863328
 10
726.9911633224
 20
577.744801709
 10
728.8286609395
 20
577.0559329963
 10
730.703647506
 20
576.401595332
 10
732.6141765367
 20
575.7824680054
 10
734.5582646487
 20
575.1991937531
 10
736.5338936202
 20
574.6523780911
 10
738.5390124858
 20
574.1425886868
 10
740.5715396657
 20
573.6703547694
 10
742.6293651268
 20
573.2361665803
 10
744.7103525727
 20
572.8404748646
 10
746.812341662
 20
572.4836904029
 10
748.9331502507
 20
572.1661835848
 10
751.0705766578
 20
571.8882840247
 10
753.2224019506
 20
571.6502802191
 10
755.3863922486
 20
571.4524192477
 10
757.5603010424
 20
571.2949065163
 10
759.7418715259
 20
571.1779055443
 10
761.9288389389
 20
571.101537794
 10
764.1189329187
 20
571.0658825455
 10
766.3098798569
 20
571.0709768135
 10
768.4994052593
 20
571.1168153096
 10
770.6852361078
 20
571.2033504473
 10
772.8651032195
 20
571.3304923916
 10
775.0367436027
 20
571.4981091523
 10
777.1979028062
 20
571.706026721
 10
779.3463372595
 20
571.9540292515
 10
781.4798166023
 20
572.2418592843
 10
783.5961259995
 20
572.5692180136
 10
785.6930684408
 20
572.9357655975
 10
787.7684670214
 20
573.3411215109
 10
789.8201672017
 20
573.7848649406
 10
791.8460390444
 20
574.2665352218
 10
793.8439794254
 20
574.785632317
 10
795.8119142171
 20
575.3416173342
 10
797.7478004417
 20
575.9339130872
 10
799.6496283921
 20
576.5619046943
 10
801.5154237182
 20
577.2249402167
 10
803.3432494766
 20
577.9223313356
 10
805.1312081413
 20
578.6533540662
 10
806.8774435736
 20
579.4172495099
 10
808.5801429491
 20
580.2132246416
 10
810.2375386397
 20
581.0404531335
 10
811.8479100484
 20
581.8980762125
 10
813.4095853958
 20
582.7852035518
 10
814.9209434554
 20
583.7009141954
 10
816.3804152366
 20
584.644257514
 10
817.7864856139
 20
585.6142541919
 10
819.1376948994
 20
586.6098972437
 10
820.4326403583
 20
587.6301530595
 10
821.6699776653
 20
588.6739624784
 10
822.8484222997
 20
589.7402418874
 10
823.9667508795
 20
590.8278843469
 10
825.023802431
 20
591.9357607395
 10
826.0184795943
 20
593.0627209422
 10
826.9497497623
 20
594.2075950207
 10
827.8166461529
 20
595.3691944436
 10
828.6182688124
 20
596.5463133162
 10
829.35378555
 20
597.7377296329
 10
830.0224328016
 20
598.9422065452
 10
830.6235164225
 20
600.1584936461
 10
831.1564124081
 20
601.3853282679
 10
831.6205675415
 20
602.6214367932
 10
832.015499968
 20
603.8655359773
 10
832.3407996953
 20
605.1163342798
 10
832.5961290191
 20
606.372533206
 10
832.7812228736
 20
607.6328286544
 10
832.8958891067
 20
608.895912271
 10
832.9400086798
 20
610.1604728071
 10
832.9135357907
 20
611.4251974808
 10
832.816497922
 20
612.68877334
 10
832.6489958118
 20
613.9498886249
 10
832.4112033495
 20
615.2072341305
 10
832.1033673953
 20
616.4595045649
 10
831.7258075238
 20
617.7053999051
 10
831.2789156924
 20
618.9436267462
 10
830.7631558342
 20
620.1728996443
 10
830.1790633763
 20
621.3919424507
 10
829.5272446844
 20
622.599489637
 10
828.8083764328
 20
623.7942876088
 10
828.7126561079
 20
623.9445255239
  0
LWPOLYLINE
  5
C0
330
1F
100
AcDbEntity
  8
0
  6
Continuous
 62
     7
370
    15
100
AcDbPolyline
 90
       37
 70
   128
 43
0.0
 10
701.1684643618
 20
623.9445255239
 10
700.8867807074
 20
623.4968514252
 10
700.1846075883
 20
622.298749327
 10
699.5496597516
 20
621.0882102226
 10
698.9825963577
 20
619.8664908127
 10
698.4840060937
 20
618.6348594041
 10
698.0544065624
 20
617.394594594
 10
697.6942437454
 20
616.146983942
 10
697.4038915393
 20
614.8933226337
 10
697.1836513685
 20
613.6349121361
 10
697.0337518715
 20
612.3730588466
 10
696.9543486639
 20
611.1090727364
 10
696.9455241766
 20
609.8442659912
 10
697.0072875709
 20
608.5799516483
 10
697.1395747279
 20
607.3174422341
 10
697.3422483162
 20
606.0580484009
 10
697.6150979335
 20
604.8030775671
 10
697.9578403257
 20
603.5538325589
 10
698.3701196807
 20
602.3116102588
 10
698.8515079977
 20
601.0777002585
 10
699.4015055317
 20
599.8533835206
 10
700.0195413122
 20
598.6399310484
 10
700.704973736
 20
597.4386025669
 10
701.457091233
 20
596.2506452146
 10
702.2751130055
 20
595.0772922491
 10
703.158189838
 20
593.9197617668
 10
704.1054049797
 20
592.7792554379
 10
705.1157750952
 20
591.6569572596
 10
706.1882512862
 20
590.5540323266
 10
707.3217201798
 20
589.4716256214
 10
708.5150050848
 20
588.4108608261
 10
709.766867213
 20
587.3728391554
 10
711.076006965
 20
586.3586382137
 10
712.4410652799
 20
585.3693108763
 10
713.8606250458
 20
584.4058841966
 10
715.3332125711
 20
583.4693583393
 10
716.8572991141
 20
582.5607055427
  0
LWPOLYLINE
  5
C1
330
1F
100
AcDbEntity
  8
0
  6
Continuous
 62
     7
370
    15
100
AcDbPolyline
 90
       53
 70
   128
 43
0.0
 10
815.5776323735
 20
578.1563739089
 10
815.5694057678
 20
578.1516240187
 10
813.9541330193
 20
577.2479908347
 10
812.290489792
 20
576.374093353
 10
810.5801179008
 20
575.5307940049
 10
808.8247052764
 20
574.7189250249
 10
807.025984299
 20
573.9392876299
 10
805.185730089
 20
573.1926512277
 10
803.3057587553
 20
572.4797526583
 10
801.3879256026
 20
571.8012954666
 10
799.4341233005
 20
571.1579492079
 10
797.4462800162
 20
570.5503487873
 10
795.4263575109
 20
569.979093833
 10
793.3763492043
 20
569.4447481047
 10
791.298278207
 20
568.9478389372
 10
789.1941953244
 20
568.4888567197
 10
787.0661770321
 20
568.0682544124
 10
784.9163234272
 20
567.6864470989
 10
782.7467561558
 20
567.343811577
 10
780.5596163188
 20
567.0406859864
 10
778.3570623592
 20
566.7773694757
 10
776.1412679317
 20
566.5541219064
 10
773.914419758
 20
566.3711635969
 10
771.6787154684
 20
566.2286751049
 10
769.4363614331
 20
566.1267970494
 10
767.1895705848
 20
566.0656299718
 10
764.9405602348
 20
566.0452342366
 10
762.6915498848
 20
566.0656299718
 10
760.4447590365
 20
566.1267970494
 10
758.2024050012
 20
566.2286751049
 10
755.9667007116
 20
566.3711635969
 10
753.7398525379
 20
566.5541219064
 10
751.5240581105
 20
566.7773694757
 10
749.3215041508
 20
567.0406859864
 10
747.1343643138
 20
567.343811577
 10
744.9647970424
 20
567.6864470989
 10
742.8149434376
 20
568.0682544124
 10
740.6869251453
 20
568.4888567197
 10
738.5828422626
 20
568.9478389372
 10
736.5047712654
 20
569.4447481047
 10
734.4547629588
 20
569.979093833
 10
732.4348404535
 20
570.5503487873
 10
730.4469971691
 20
571.1579492079
 10
728.4931948671
 20
571.8012954666
 10
726.5753617143
 20
572.4797526583
 10
724.6953903806
 20
573.1926512277
 10
722.8551361707
 20
573.9392876299
 10
721.0564151933
 20
574.7189250249
 10
719.3010025688
 20
575.5307940049
 10
717.5906306777
 20
576.374093353
 10
715.9269874503
 20
577.2479908347
 10
714.3117147019
 20
578.1516240187
 10
714.3034880961
 20
578.1563739089
  0
LWPOLYLINE
  5
C2
330
1F
100
AcDbEntity
  8
0
  6
Continuous
 62
     7
370
    15
100
AcDbPolyline
 90
       52
 70
   128
 43
0.0
 10
778.78250203
 20
640.3451042859
 10
778.9603322053
 20
639.7942620932
 10
779.0748930898
 20
639.2203117329
 10
779.119037439
 20
638.6431260033
 10
779.092545328
 20
638.0655804147
 10
778.9955487392
 20
637.4905522702
 10
778.8285309046
 20
636.920906331
 10
778.5923238987
 20
636.3594805445
 10
778.2881044929
 20
635.8090719059
 10
777.917388293
 20
635.2724225232
 10
777.4820221885
 20
634.7522059567
 10
776.9841751514
 20
634.2510138991
 10
776.4263274306
 20
633.771343264
 10
775.8112581954
 20
633.3155837465
 10
775.1420316898
 20
632.8860059175
 10
774.4219819665
 20
632.4847499122
 10
773.6546962771
 20
632.1138147677
 10
772.8439972003
 20
631.7750484644
 10
771.993923598
 20
631.4701387189
 10
771.1087104943
 20
631.2006045762
 10
770.1927679762
 20
630.9677888419
 10
769.2506592234
 20
630.7728513922
 10
768.2870777742
 20
630.6167633957
 10
767.306824143
 20
630.500302475
 10
766.314781904
 20
630.4240488325
 10
765.3158933617
 20
630.38838236
 10
764.3151349288
 20
630.3934807461
 10
763.3174923332
 20
630.4393185909
 10
762.3279357803
 20
630.5256675325
 10
761.3513951909
 20
630.6520973849
 10
760.3927356413
 20
630.8179782808
 10
759.4567331251
 20
631.0224838101
 10
758.5480507597
 20
631.2645951365
 10
757.6712155549
 20
631.5431060735
 10
756.8305958597
 20
631.8566290936
 10
756.030379599
 20
632.2036022409
 10
755.2745534101
 20
632.5822969127
 10
754.5668827809
 20
632.9908264711
 10
753.910893291
 20
633.4271556424
 10
753.309853047
 20
633.8891106567
 10
752.7667564012
 20
634.3743900773
 10
752.2843090338
 20
634.8805762666
 10
751.8649144731
 20
635.4051474303
 10
751.510662122
 20
635.9454901814
 10
751.2233168477
 20
636.4989125595
 10
751.0043101899
 20
637.062657442
 10
750.8547332289
 20
637.6339162805
 10
750.7753311495
 20
638.2098430919
 10
750.7664995288
 20
638.7875686381
 10
750.8282823656
 20
639.3642147192
 10
750.9603718609
 20
639.9369085137
 10
751.0986184396
 20
640.3451042859
  0
LWPOLYLINE
  5
C3
330
1F
100
AcDbEntity
  8
0
  6
Continuous
 62
     7
370
    15
100
AcDbPolyline
 90
      165
 70
   128
 43
0.0
 10
810.9410799667
 20
643.0798263058
 10
812.4291642198
 20
642.192038705
 10
813.865862659
 20
641.2764769021
 10
815.2496206814
 20
640.3341315957
 10
816.5789409692
 20
639.3660224657
 10
817.8523851099
 20
638.3731970705
 10
819.0685751525
 20
637.3567297127
 10
820.226195099
 20
636.3177202774
 10
821.3239923279
 20
635.2572930416
 10
822.3607789498
 20
634.1765954577
 10
823.3354330931
 20
633.0767969121
 10
824.2469001174
 20
631.9590874597
 10
825.094193755
 20
630.8246765361
 10
825.8763971782
 20
629.674791649
 10
826.5926639909
 20
628.51067705
 10
827.2422191452
 20
627.3335923881
 10
827.8243597792
 20
626.144811347
 10
828.3384559784
 20
624.9456202665
 10
828.7839514565
 20
623.7373167506
 10
829.160364158
 20
622.5212082638
 10
829.4672867794
 20
621.298610716
 10
829.7043872101
 20
620.0708470387
 10
829.8714088917
 20
618.8392457535
 10
829.9681710957
 20
617.6051395345
 10
829.9945691191
 20
616.3698637664
 10
829.9505743973
 20
615.1347550994
 10
829.8362345357
 20
613.9011500027
 10
829.6516732574
 20
612.6703833189
 10
829.39709027
 20
611.4437868189
 10
829.0727610493
 20
610.2226877614
 10
828.6790365408
 20
609.0084074564
 10
828.2163427805
 20
607.8022598356
 10
827.6851804338
 20
606.6055500306
 10
827.0861242534
 20
605.4195729607
 10
826.4198224579
 20
604.2456119315
 10
825.6869960298
 20
603.0849372467
 10
824.888437936
 20
601.9388048331
 10
824.025012269
 20
600.8084548818
 10
823.0976533128
 20
599.6951105063
 10
822.107364531
 20
598.5999764191
 10
821.0552174817
 20
597.5242376276
 10
819.9423506577
 20
596.4690581525
 10
818.7699682546
 20
595.4355797678
 10
817.5393388677
 20
594.4249207656
 10
816.2517941196
 20
593.4381747459
 10
814.9087272188
 20
592.4764094331
 10
813.5115914528
 20
591.540665521
 10
812.061898615
 20
590.6319555466
 10
810.5612173689
 20
589.751262794
 10
809.0111715511
 20
588.8995402314
 10
807.4134384137
 20
588.0777094787
 10
805.7697468098
 20
587.2866598114
 10
804.0818753226
 20
586.5272471975
 10
802.3516503407
 20
585.8002933718
 10
800.5809440823
 20
585.1065849465
 10
798.7716725685
 20
584.44687256
 10
796.9257935512
 20
583.8218700647
 10
795.0453043935
 20
583.2322537549
 10
793.1322399093
 20
582.6786616342
 10
791.188670161
 20
582.1616927262
 10
789.2166982198
 20
581.6819064254
 10
787.2184578898
 20
581.2398218922
 10
785.1961113995
 20
580.8359174916
 10
783.1518470616
 20
580.4706302747
 10
781.0878769055
 20
580.1443555065
 10
779.0064342836
 20
579.8574462379
 10
776.9097714547
 20
579.6102129238
 10
774.8001571466
 20
579.402923087
 10
772.6798741019
 20
579.2358010288
 10
770.551216607
 20
579.1090275863
 10
768.4164880105
 20
579.0227399368
 10
766.27799823
 20
578.9770314492
 10
764.138061253
 20
578.9719515832
 10
761.9989926331
 20
579.0075058354
 10
759.863106984
 20
579.083655734
 10
757.7327154756
 20
579.2003188795
 10
755.6101233325
 20
579.3573690348
 10
753.4976273399
 20
579.5546362612
 10
751.3975133584
 20
579.7919071025
 10
749.3120538503
 20
580.0689248159
 10
747.243505421
 20
580.38538965
 10
745.1941063768
 20
580.7409591687
 10
743.1660743032
 20
581.1352486225
 10
741.1616036651
 20
581.5678313639
 10
739.1828634325
 20
582.0382393098
 10
737.2319947334
 20
582.5459634476
 10
735.3111085368
 20
583.0904543863
 10
733.4222833689
 20
583.6711229505
 10
731.5675630635
 20
584.2873408185
 10
729.7489545508
 20
584.9384412016
 10
727.9684256856
 20
585.6237195662
 10
726.2279031181
 20
586.3424343958
 10
724.5292702089
 20
587.0938079932
 10
722.8743649914
 20
587.8770273224
 10
721.2649781824
 20
588.6912448884
 10
719.7028512452
 20
589.5355796538
 10
718.1896745044
 20
590.4091179924
 10
716.7270853176
 20
591.310914678
 10
715.3166663031
 20
592.2399939068
 10
713.9599436276
 20
593.1953503536
 10
712.6583853549
 20
594.1759502594
 10
711.4133998573
 20
595.1807325502
 10
710.2263342914
 20
596.2086099851
 10
709.0984731409
 20
597.2584703326
 10
708.0310368261
 20
598.3291775742
 10
707.0251803838
 20
599.4195731339
 10
706.0819922174
 20
600.5284771315
 10
705.2024929189
 20
601.6546896594
 10
704.3876341646
 20
602.7969920811
 10
703.6382976859
 20
603.9541483497
 10
702.9552943143
 20
605.1249063455
 10
702.3393631047
 20
606.3079992309
 10
701.7911705355
 20
607.502146821
 10
701.3113097873
 20
608.7060569691
 10
700.9003001013
 20
609.9184269646
 10
700.5585862171
 20
611.1379449429
 10
700.2865378918
 20
612.3632913049
 10
700.0844494996
 20
613.5931401447
 10
699.9525397137
 20
614.8261606843
 10
699.8909512691
 20
616.0610187139
 10
699.8997508086
 20
617.2963780353
 10
699.9789288105
 20
618.530901908
 10
700.128399599
 20
619.7632544955
 10
700.3480014368
 20
620.9921023104
 10
700.6374967001
 20
622.2161156583
 10
700.996572136
 20
623.4339700756
 10
701.424839201
 20
624.6443477632
 10
701.9218344817
 20
625.8459390122
 10
702.4870201965
 20
627.0374436214
 10
703.1197847769
 20
628.2175723039
 10
703.8194435297
 20
629.3850480824
 10
704.5852393779
 20
630.5386076707
 10
705.4163436796
 20
631.6770028409
 10
706.311857125
 20
632.7990017742
 10
707.2708107092
 20
633.9033903933
 10
708.292166781
 20
634.9889736768
 10
709.3748201653
 20
636.0545769515
 10
710.5175993597
 20
637.0990471642
 10
711.7192678013
 20
638.1212541289
 10
712.9785252053
 20
639.1200917501
 10
714.2940089718
 20
640.0944792192
 10
715.6642956604
 20
641.0433621846
 10
717.0879025299
 20
641.965713892
 10
718.5632891437
 20
642.8605362958
 10
720.0888590355
 20
643.7268611389
 10
721.6629614379
 20
644.5637510005
 10
723.2838930678
 20
645.3703003104
 10
724.9498999698
 20
646.1456363286
 10
726.6591794142
 20
646.8889200905
 10
728.4098818473
 20
647.5993473137
 10
730.2001128934
 20
648.2761492689
 10
732.0279354038
 20
648.9185936116
 10
733.8913715535
 20
649.5259851744
 10
735.7884049812
 20
650.0976667196
 10
737.7169829713
 20
650.6330196497
 10
739.6750186745
 20
651.1314646775
 10
741.6603933666
 20
651.5924624525
 10
743.6709587407
 20
652.0155141445
 10
745.704539232
 20
652.4001619836
 10
747.7589343718
 20
652.7459897554
 10
749.8319211684
 20
653.0526232512
 10
751.9212565128
 20
653.3197306735
 10
754.024679606
 20
653.5470229942
 10
756.1399144047
 20
653.734254268
 10
756.7275119318
 20
653.7789960167
  0
LWPOLYLINE
  5
C4
330
1F
100
AcDbEntity
  8
0
  6
Continuous
 62
     7
370
    15
100
AcDbPolyline
 90
       22
 70
   128
 43
0.0
 10
773.1536085378
 20
653.7789960167
 10
773.2108197623
 20
653.7747778503
 10
775.3286503036
 20
653.5975951924
 10
777.4352402437
 20
653.3802967652
 10
779.5283101127
 20
653.1231176999
 10
781.6055950703
 20
652.8263362813
 10
783.6648473569
 20
652.4902736465
 10
785.7038387249
 20
652.1152934376
 10
787.7203628508
 20
651.7018014081
 10
789.7122377219
 20
651.2502449835
 10
791.6773079978
 20
650.761112778
 10
793.6134473422
 20
650.2349340649
 10
795.5185607242
 20
649.6722782045
 10
797.390586685
 20
649.0737540276
 10
799.2274995685
 20
648.440009177
 10
801.0273117134
 20
647.7717294066
 10
802.7880756037
 20
647.0696378394
 10
804.5078859764
 20
646.334494185
 10
806.1848818827
 20
645.5670939174
 10
807.817248702
 20
644.7682674146
 10
809.4032201054
 20
643.9388790597
 10
810.9410799667
 20
643.0798263058
  0
LWPOLYLINE
  5
C5
330
1F
100
AcDbEntity
  8
0
  6
Continuous
 62
     7
370
    15
100
AcDbPolyline
 90
      103
 70
   128
 43
0.0
 10
830.6914160337
 20
613.5443859452
 10
830.7992491686
 20
612.7288511707
 10
830.9052230083
 20
611.4835566781
 10
830.9405602348
 20
610.2369272635
 10
830.9052230083
 20
608.9902978489
 10
830.7992491686
 20
607.7450033563
 10
830.6227521952
 20
606.5023772782
 10
830.3759210855
 20
605.2637502498
 10
830.0590201524
 20
604.0304486239
 10
829.6723887414
 20
602.8037930508
 10
829.2164408671
 20
601.585097064
 10
828.6916647699
 20
600.3756656737
 10
828.0986223932
 20
599.1767939693
 10
827.4379487815
 20
597.9897657326
 10
826.7103514008
 20
596.8158520632
 10
825.9166093806
 20
595.6563100174
 10
825.0575726796
 20
594.5123812617
 10
824.134161176
 20
593.3852907437
 10
823.1473636818
 20
592.2762453802
 10
822.0982368846
 20
591.1864327647
 10
820.9879042156
 20
590.1170198959
 10
819.8175546468
 20
589.0691519278
 10
818.5884414179
 20
588.0439509438
 10
817.301880694
 20
587.0425147547
 10
815.9592501568
 20
586.0659157234
 10
814.5619875284
 20
585.1151996167
 10
813.1115890329
 20
584.1913844853
 10
811.6096077931
 20
583.2954595734
 10
810.0576521683
 20
582.4283842599
 10
808.4573840314
 20
581.5910870308
 10
806.8105169896
 20
580.7844644849
 10
805.1188145494
 20
580.0093803738
 10
803.3840882281
 20
579.2666646771
 10
801.6081956141
 20
578.5571127133
 10
799.7930383778
 20
577.8814842884
 10
797.9405602348
 20
577.2405028822
 10
796.0527448653
 20
576.6348548738
 10
794.1316137893
 20
576.0651888061
 10
792.1792242019
 20
575.5321146918
 10
790.1976667709
 20
575.0362033602
 10
788.1890633976
 20
574.5779858453
 10
786.1555649448
 20
574.1579528181
 10
784.0993489336
 20
573.7765540604
 10
782.0226172116
 20
573.4341979835
 10
779.9275935951
 20
573.131251191
 10
777.8165214879
 20
572.8680380858
 10
775.6916614789
 20
572.6448405231
 10
773.5552889213
 20
572.4618975085
 10
771.4096914966
 20
572.319404942
 10
769.257166764
 20
572.217515408
 10
767.1000197011
 20
572.1563380125
 10
764.9405602348
 20
572.1359382659
 10
762.7811007686
 20
572.1563380125
 10
760.6239537056
 20
572.217515408
 10
758.4714289731
 20
572.319404942
 10
756.3258315483
 20
572.4618975085
 10
754.1894589908
 20
572.6448405231
 10
752.0645989818
 20
572.8680380858
 10
749.9535268746
 20
573.131251191
 10
747.8585032581
 20
573.4341979835
 10
745.781771536
 20
573.7765540604
 10
743.7255555248
 20
574.1579528181
 10
741.692057072
 20
574.5779858453
 10
739.6834536987
 20
575.0362033602
 10
737.7018962677
 20
575.5321146918
 10
735.7495066804
 20
576.0651888061
 10
733.8283756043
 20
576.6348548738
 10
731.9405602348
 20
577.2405028822
 10
730.0880820919
 20
577.8814842884
 10
728.2729248555
 20
578.5571127133
 10
726.4970322416
 20
579.2666646771
 10
724.7623059202
 20
580.0093803738
 10
723.07060348
 20
580.7844644849
 10
721.4237364382
 20
581.5910870308
 10
719.8234683013
 20
582.4283842599
 10
718.2715126765
 20
583.2954595734
 10
716.7695314368
 20
584.1913844853
 10
715.3191329412
 20
585.1151996167
 10
713.9218703129
 20
586.0659157234
 10
712.5792397756
 20
587.0425147547
 10
711.2926790518
 20
588.0439509438
 10
710.0635658229
 20
589.0691519278
 10
708.8932162541
 20
590.1170198959
 10
707.7828835851
 20
591.1864327647
 10
706.7337567878
 20
592.2762453802
 10
705.7469592937
 20
593.3852907437
 10
704.82354779
 20
594.5123812617
 10
703.9645110891
 20
595.6563100174
 10
703.1707690688
 20
596.8158520632
 10
702.4431716881
 20
597.9897657326
 10
701.7824980765
 20
599.1767939693
 10
701.1894556997
 20
600.3756656737
 10
700.6646796025
 20
601.585097064
 10
700.2087317282
 20
602.8037930508
 10
699.8221003172
 20
604.0304486239
 10
699.5051993842
 20
605.2637502498
 10
699.2583682745
 20
606.5023772782
 10
699.0818713011
 20
607.7450033563
 10
698.9758974614
 20
608.9902978489
 10
698.9405602348
 20
610.2369272635
 10
698.9758974614
 20
611.4835566781
 10
699.0818713011
 20
612.7288511707
 10
699.1897044359
 20
613.5443859452
  0
LWPOLYLINE
  5
C6
330
1F
100
AcDbEntity
  8
0
  6
Continuous
 62
     7
370
    15
100
AcDbPolyline
 90
       13
 70
   128
 43
0.0
 10
828.7738550223
 20
623.7670349886
 10
829.1761467337
 20
623.1169060413
 10
829.8615791574
 20
621.9155775598
 10
830.4796149379
 20
620.7021250876
 10
831.0296124719
 20
619.4778083497
 10
831.511000789
 20
618.2438983494
 10
831.923280144
 20
617.0016760493
 10
832.2660225362
 20
615.7524310411
 10
832.5388721535
 20
614.4974602073
 10
832.7415457417
 20
613.2380663742
 10
832.8738328988
 20
611.9755569599
 10
832.935596293
 20
610.711242617
 10
832.9405234581
 20
610.2777543267
  0
LWPOLYLINE
  5
C7
330
1F
100
AcDbEntity
  8
0
  6
Continuous
 62
     7
370
    15
100
AcDbPolyline
 90
       13
 70
   128
 43
0.0
 10
696.9405970115
 20
610.2777543267
 10
696.9411117899
 20
610.3950358012
 10
696.9852313629
 20
611.6595963372
 10
697.0998975961
 20
612.9226799538
 10
697.2849914506
 20
614.1829754022
 10
697.5403207743
 20
615.4391743284
 10
697.8656205017
 20
616.6899726309
 10
698.2605529282
 20
617.934071815
 10
698.7247080616
 20
619.1701803404
 10
699.2576040472
 20
620.3970149621
 10
699.8586876681
 20
621.613302063
 10
700.5273349197
 20
622.8177789753
 10
701.1072654473
 20
623.7670349886
  0
LWPOLYLINE
  5
C8
330
1F
100
AcDbEntity
  8
0
  6
Continuous
 62
     7
370
    15
100
AcDbPolyline
 90
       40
 70
   128
 43
0.0
 10
775.4405602348
 20
648.3693831786
 10
775.4315906979
 20
648.1188909803
 10
775.3599263221
 20
647.6196176995
 10
775.2170871108
 20
647.1254660771
 10
775.0040488006
 20
646.6398116698
 10
774.7222666594
 20
646.1659719897
 10
774.3736655447
 20
645.7071838423
 10
773.9606267557
 20
645.2665812158
 10
773.4859717662
 20
644.8471738728
 10
772.9529429509
 20
644.4518267909
 10
772.3651814373
 20
644.0832405915
 10
771.7267022324
 20
643.743933092
 10
771.0418667965
 20
643.4362221068
 10
770.3153532503
 20
643.1622096139
 10
769.5521244177
 20
642.9237673964
 10
768.7573939257
 20
642.7225242565
 10
767.9365905894
 20
642.5598548888
 10
767.0953213279
 20
642.4368704902
 10
766.2393328632
 20
642.3544111687
 10
765.3744724644
 20
642.3130402051
 10
764.5066480052
 20
642.3130402051
 10
763.6417876065
 20
642.3544111687
 10
762.7857991418
 20
642.4368704902
 10
761.9445298802
 20
642.5598548888
 10
761.1237265439
 20
642.7225242565
 10
760.3289960519
 20
642.9237673964
 10
759.5657672194
 20
643.1622096139
 10
758.8392536731
 20
643.4362221068
 10
758.1544182373
 20
643.743933092
 10
757.5159390324
 20
644.0832405915
 10
756.9281775187
 20
644.4518267909
 10
756.3951487035
 20
644.8471738728
 10
755.9204937139
 20
645.2665812158
 10
755.507454925
 20
645.7071838423
 10
755.1588538103
 20
646.1659719897
 10
754.877071669
 20
646.6398116698
 10
754.6640333589
 20
647.1254660771
 10
754.5211941476
 20
647.6196176995
 10
754.4495297718
 20
648.1188909803
 10
754.4405602348
 20
648.3693831786
  0
ENDSEC
  0
SECTION
  2
OBJECTS
  0
DICTIONARY
  5
C
330
0
100
AcDbDictionary
281
     1
  3
ACAD_GROUP
350
D
  3
ACAD_LAYOUT
350
1A
  3
ACAD_MLINESTYLE
350
17
  3
ACAD_PLOTSETTINGS
350
19
  3
ACAD_PLOTSTYLENAME
350
E
  3
ACAD_SCALELIST
350
47
  0
DICTIONARY
  5
D
102
{ACAD_REACTORS
330
C
102
}
330
C
100
AcDbDictionary
281
     1
  0
DICTIONARY
  5
1A
102
{ACAD_REACTORS
330
C
102
}
330
C
100
AcDbDictionary
281
     1
  3
Layout1
350
1E
  3
Layout2
350
26
  3
Model
350
22
  0
DICTIONARY
  5
17
102
{ACAD_REACTORS
330
C
102
}
330
C
100
AcDbDictionary
281
     1
  3
Standard
350
18
  0
DICTIONARY
  5
19
102
{ACAD_REACTORS
330
C
102
}
330
C
100
AcDbDictionary
281
     1
  0
ACDBDICTIONARYWDFLT
  5
E
102
{ACAD_REACTORS
330
C
102
}
330
C
100
AcDbDictionary
281
     1
  3
Normal
350
F
100
AcDbDictionaryWithDefault
340
F
  0
DICTIONARY
  5
47
102
{ACAD_REACTORS
330
C
102
}
330
C
100
AcDbDictionary
281
     1
  3
A0
350
48
  3
A1
350
49
  3
A2
350
4A
  3
A3
350
4B
  3
A4
350
4C
  3
A5
350
4D
  3
A6
350
4E
  3
A7
350
4F
  3
A8
350
50
  3
A9
350
51
  3
B0
350
52
  3
B1
350
53
  3
B2
350
54
  3
B3
350
55
  3
B4
350
56
  3
B5
350
57
  3
B6
350
58
  3
B7
350
59
  3
B8
350
5A
  3
B9
350
5B
  3
C0
350
5C
  3
C1
350
5D
  3
C2
350
5E
  3
C3
350
5F
  3
C4
350
60
  3
C5
350
61
  3
C6
350
62
  3
C7
350
63
  3
C8
350
64
  3
C9
350
65
  3
D0
350
66
  3
D1
350
67
  3
D2
350
68
  0
LAYOUT
  5
1E
102
{ACAD_REACTORS
330
1A
102
}
330
1A
100
AcDbPlotSettings
  1

  2
none_device
  4

  6

 40
0.0
 41
0.0
 42
0.0
 43
0.0
 44
0.0
 45
0.0
 46
0.0
 47
0.0
 48
0.0
 49
0.0
140
0.0
141
0.0
142
1.0
143
1.0
 70
   688
 72
     1
 73
     0
 74
     5
  7

 75
    16
147
1.0
148
0.0
149
0.0
100
AcDbLayout
  1
Layout1
 70
     1
 71
     1
 10
0.0
 20
0.0
 11
420.0
 21
297.0
 12
0.0
 22
0.0
 32
0.0
 14
1.0000000000E+20
 24
1.0000000000E+20
 34
1.0000000000E+20
 15
-1.0000000000E+20
 25
-1.0000000000E+20
 35
-1.0000000000E+20
146
0.0
 13
0.0
 23
0.0
 33
0.0
 16
1.0
 26
0.0
 36
0.0
 17
0.0
 27
1.0
 37
0.0
 76
     0
330
1B
  0
LAYOUT
  5
26
102
{ACAD_REACTORS
330
1A
102
}
330
1A
100
AcDbPlotSettings
  1

  2
none_device
  4

  6

 40
0.0
 41
0.0
 42
0.0
 43
0.0
 44
0.0
 45
0.0
 46
0.0
 47
0.0
 48
0.0
 49
0.0
140
0.0
141
0.0
142
1.0
143
1.0
 70
   688
 72
     1
 73
     0
 74
     5
  7

 75
    16
147
1.0
148
0.0
149
0.0
100
AcDbLayout
  1
Layout2
 70
     1
 71
     2
 10
0.0
 20
0.0
 11
0.0
 21
0.0
 12
0.0
 22
0.0
 32
0.0
 14
0.0
 24
0.0
 34
0.0
 15
0.0
 25
0.0
 35
0.0
146
0.0
 13
0.0
 23
0.0
 33
0.0
 16
1.0
 26
0.0
 36
0.0
 17
0.0
 27
1.0
 37
0.0
 76
     0
330
23
  0
LAYOUT
  5
22
102
{ACAD_REACTORS
330
1A
102
}
330
1A
100
AcDbPlotSettings
  1

  2
none_device
  4
Letter_(8.50_x_11.00_Inches)
  6

 40
6.35
 41
6.35
 42
6.35000508
 43
6.35000508
 44
215.9
 45
279.4
 46
0.0
 47
0.0
 48
0.0
 49
0.0
140
0.0
141
0.0
142
1.0
143
1.0
 70
  1712
 72
     1
 73
     0
 74
     0
  7

 75
     0
147
1.0
148
0.0
149
0.0
100
AcDbLayout
  1
Model
 70
     1
 71
     0
 10
0.0
 20
0.0
 11
1189.0
 21
841.0
 12
0.0
 22
0.0
 32
0.0
 14
0.0
 24
0.0
 34
0.0
 15
1189.0
 25
841.0
 35
0.0
146
0.0
 13
0.0
 23
0.0
 33
0.0
 16
1.0
 26
0.0
 36
0.0
 17
0.0
 27
1.0
 37
0.0
 76
     0
330
1F
331
29
  0
MLINESTYLE
  5
18
102
{ACAD_REACTORS
330
17
102
}
330
17
100
AcDbMlineStyle
  2
Standard
 70
     0
  3

 62
   256
 51
90.0
 52
90.0
 71
     2
 49
0.5
 62
   256
  6
BYLAYER
 49
-0.5
 62
   256
  6
BYLAYER
  0
ACDBPLACEHOLDER
  5
F
102
{ACAD_REACTORS
330
E
102
}
330
E
  0
SCALE
  5
48
102
{ACAD_REACTORS
330
47
102
}
330
47
100
AcDbScale
 70
     0
300
1:1
140
1.0
141
1.0
290
     1
  0
SCALE
  5
49
102
{ACAD_REACTORS
330
47
102
}
330
47
100
AcDbScale
 70
     0
300
1:2
140
1.0
141
2.0
290
     0
  0
SCALE
  5
4A
102
{ACAD_REACTORS
330
47
102
}
330
47
100
AcDbScale
 70
     0
300
1:4
140
1.0
141
4.0
290
     0
  0
SCALE
  5
4B
102
{ACAD_REACTORS
330
47
102
}
330
47
100
AcDbScale
 70
     0
300
1:5
140
1.0
141
5.0
290
     0
  0
SCALE
  5
4C
102
{ACAD_REACTORS
330
47
102
}
330
47
100
AcDbScale
 70
     0
300
1:8
140
1.0
141
8.0
290
     0
  0
SCALE
  5
4D
102
{ACAD_REACTORS
330
47
102
}
330
47
100
AcDbScale
 70
     0
300
1:10
140
1.0
141
10.0
290
     0
  0
SCALE
  5
4E
102
{ACAD_REACTORS
330
47
102
}
330
47
100
AcDbScale
 70
     0
300
1:16
140
1.0
141
16.0
290
     0
  0
SCALE
  5
4F
102
{ACAD_REACTORS
330
47
102
}
330
47
100
AcDbScale
 70
     0
300
1:20
140
1.0
141
20.0
290
     0
  0
SCALE
  5
50
102
{ACAD_REACTORS
330
47
102
}
330
47
100
AcDbScale
 70
     0
300
1:30
140
1.0
141
30.0
290
     0
  0
SCALE
  5
51
102
{ACAD_REACTORS
330
47
102
}
330
47
100
AcDbScale
 70
     0
300
1:40
140
1.0
141
40.0
290
     0
  0
SCALE
  5
52
102
{ACAD_REACTORS
330
47
102
}
330
47
100
AcDbScale
 70
     0
300
1:50
140
1.0
141
50.0
290
     0
  0
SCALE
  5
53
102
{ACAD_REACTORS
330
47
102
}
330
47
100
AcDbScale
 70
     0
300
1:100
140
1.0
141
100.0
290
     0
  0
SCALE
  5
54
102
{ACAD_REACTORS
330
47
102
}
330
47
100
AcDbScale
 70
     0
300
2:1
140
2.0
141
1.0
290
     0
  0
SCALE
  5
55
102
{ACAD_REACTORS
330
47
102
}
330
47
100
AcDbScale
 70
     0
300
4:1
140
4.0
141
1.0
290
     0
  0
SCALE
  5
56
102
{ACAD_REACTORS
330
47
102
}
330
47
100
AcDbScale
 70
     0
300
8:1
140
8.0
141
1.0
290
     0
  0
SCALE
  5
57
102
{ACAD_REACTORS
330
47
102
}
330
47
100
AcDbScale
 70
     0
300
10:1
140
10.0
141
1.0
290
     0
  0
SCALE
  5
58
102
{ACAD_REACTORS
330
47
102
}
330
47
100
AcDbScale
 70
     0
300
100:1
140
100.0
141
1.0
290
     0
  0
SCALE
  5
59
102
{ACAD_REACTORS
330
47
102
}
330
47
100
AcDbScale
 70
     0
300
1/128" = 1'-0"
140
0.0078125
141
12.0
290
     0
  0
SCALE
  5
5A
102
{ACAD_REACTORS
330
47
102
}
330
47
100
AcDbScale
 70
     0
300
1/64" = 1'-0"
140
0.015625
141
12.0
290
     0
  0
SCALE
  5
5B
102
{ACAD_REACTORS
330
47
102
}
330
47
100
AcDbScale
 70
     0
300
1/32" = 1'-0"
140
0.03125
141
12.0
290
     0
  0
SCALE
  5
5C
102
{ACAD_REACTORS
330
47
102
}
330
47
100
AcDbScale
 70
     0
300
1/16" = 1'-0"
140
0.0625
141
12.0
290
     0
  0
SCALE
  5
5D
102
{ACAD_REACTORS
330
47
102
}
330
47
100
AcDbScale
 70
     0
300
3/32" = 1'-0"
140
0.09375
141
12.0
290
     0
  0
SCALE
  5
5E
102
{ACAD_REACTORS
330
47
102
}
330
47
100
AcDbScale
 70
     0
300
1/8" = 1'-0"
140
0.125
141
12.0
290
     0
  0
SCALE
  5
5F
102
{ACAD_REACTORS
330
47
102
}
330
47
100
AcDbScale
 70
     0
300
3/16" = 1'-0"
140
0.1875
141
12.0
290
     0
  0
SCALE
  5
60
102
{ACAD_REACTORS
330
47
102
}
330
47
100
AcDbScale
 70
     0
300
1/4" = 1'-0"
140
0.25
141
12.0
290
     0
  0
SCALE
  5
61
102
{ACAD_REACTORS
330
47
102
}
330
47
100
AcDbScale
 70
     0
300
3/8" = 1'-0"
140
0.375
141
12.0
290
     0
  0
SCALE
  5
62
102
{ACAD_REACTORS
330
47
102
}
330
47
100
AcDbScale
 70
     0
300
1/2" = 1'-0"
140
0.5
141
12.0
290
     0
  0
SCALE
  5
63
102
{ACAD_REACTORS
330
47
102
}
330
47
100
AcDbScale
 70
     0
300
3/4" = 1'-0"
140
0.75
141
12.0
290
     0
  0
SCALE
  5
64
102
{ACAD_REACTORS
330
47
102
}
330
47
100
AcDbScale
 70
     0
300
1" = 1'-0"
140
1.0
141
12.0
290
     0
  0
SCALE
  5
65
102
{ACAD_REACTORS
330
47
102
}
330
47
100
AcDbScale
 70
     0
300
1-1/2" = 1'-0"
140
1.5
141
12.0
290
     0
  0
SCALE
  5
66
102
{ACAD_REACTORS
330
47
102
}
330
47
100
AcDbScale
 70
     0
300
3" = 1'-0"
140
3.0
141
12.0
290
     0
  0
SCALE
  5
67
102
{ACAD_REACTORS
330
47
102
}
330
47
100
AcDbScale
 70
     0
300
6" = 1'-0"
140
6.0
141
12.0
290
     0
  0
SCALE
  5
68
102
{ACAD_REACTORS
330
47
102
}
330
47
100
AcDbScale
 70
     0
300
1'-0" = 1'-0"
140
12.0
141
12.0
290
     0
  0
ENDSEC
  0
EOF
