  0
SECTION
  2
HEADER
  9
$ACADVER
  1
AC1015
  9
$ACADMAINTVER
 70
     6
  9
$DWGCODEPAGE
  3
ANSI_1252
  9
$INSBASE
 10
0.0
 20
0.0
 30
0.0
  9
$EXTMIN
 10
0.0
 20
0.0
 30
0.0
  9
$EXTMAX
 10
1189.0
 20
841.0
 30
0.0
  9
$LIMMIN
 10
0.0
 20
0.0
  9
$LIMMAX
 10
1189.0
 20
841.0
  9
$ORTHOMODE
 70
     0
  9
$REGENMODE
 70
     1
  9
$FILLMODE
 70
     1
  9
$QTEXTMODE
 70
     0
  9
$MIRRTEXT
 70
     1
  9
$LTSCALE
 40
1.0
  9
$ATTMODE
 70
     1
  9
$TEXTSIZE
 40
3.5
  9
$TRACEWID
 40
1.0
  9
$TEXTSTYLE
  7
Standard
  9
$CLAYER
  8
0
  9
$CELTYPE
  6
ByLayer
  9
$CECOLOR
 62
   256
  9
$CELTSCALE
 40
1.0
  9
$DISPSILH
 70
     0
  9
$DIMSCALE
 40
1.0
  9
$DIMASZ
 40
3.302
  9
$DIMEXO
 40
1.0
  9
$DIMDLI
 40
3.75
  9
$DIMRND
 40
0.0
  9
$DIMDLE
 40
0.0
  9
$DIMEXE
 40
1.0
  9
$DIMTP
 40
0.0
  9
$DIMTM
 40
0.0
  9
$DIMTXT
 40
3.5
  9
$DIMCEN
 40
2.5
  9
$DIMTSZ
 40
0.0
  9
$DIMTOL
 70
     0
  9
$DIMLIM
 70
     0
  9
$DIMTIH
 70
     1
  9
$DIMTOH
 70
     1
  9
$DIMSE1
 70
     0
  9
$DIMSE2
 70
     0
  9
$DIMTAD
 70
     1
  9
$DIMZIN
 70
     0
  9
$DIMBLK
  1

  9
$DIMASO
 70
     1
  9
$DIMSHO
 70
     1
  9
$DIMPOST
  1

  9
$DIMAPOST
  1

  9
$DIMALT
 70
     0
  9
$DIMALTD
 70
     3
  9
$DIMALTF
 40
0.0393700787
  9
$DIMLFAC
 40
5.0
  9
$DIMTOFL
 70
     1
  9
$DIMTVP
 40
0.0
  9
$DIMTIX
 70
     0
  9
$DIMSOXD
 70
     0
  9
$DIMSAH
 70
     0
  9
$DIMBLK1
  1

  9
$DIMBLK2
  1

  9
$DIMSTYLE
  2
ISO-25
  9
$DIMCLRD
 70
     0
  9
$DIMCLRE
 70
     0
  9
$DIMCLRT
 70
     0
  9
$DIMTFAC
 40
1.0
  9
$DIMGAP
 40
1.524
  9
$DIMJUST
 70
     0
  9
$DIMSD1
 70
     0
  9
$DIMSD2
 70
     0
  9
$DIMTOLJ
 70
     0
  9
$DIMTZIN
 70
     0
  9
$DIMALTZ
 70
     0
  9
$DIMALTTZ
 70
     0
  9
$DIMUPT
 70
     0
  9
$DIMDEC
 70
     2
  9
$DIMTDEC
 70
     2
  9
$DIMALTU
 70
     2
  9
$DIMALTTD
 70
     3
  9
$DIMTXSTY
  7
Standard
  9
$DIMAUNIT
 70
     0
  9
$DIMADEC
 70
     2
  9
$DIMALTRND
 40
0.0
  9
$DIMAZIN
 70
     0
  9
$DIMDSEP
 70
    44
  9
$DIMATFIT
 70
     3
  9
$DIMFRAC
 70
     0
  9
$DIMLDRBLK
  1

  9
$DIMLUNIT
 70
     2
  9
$DIMLWD
 70
    -2
  9
$DIMLWE
 70
    -2
  9
$DIMTMOVE
 70
     0
  9
$LUNITS
 70
     2
  9
$LUPREC
 70
     2
  9
$SKETCHINC
 40
1.0
  9
$FILLETRAD
 40
10.0
  9
$AUNITS
 70
     0
  9
$AUPREC
 70
     2
  9
$MENU
  1
.
  9
$ELEVATION
 40
0.0
  9
$PELEVATION
 40
0.0
  9
$THICKNESS
 40
0.0
  9
$LIMCHECK
 70
     0
  9
$CHAMFERA
 40
0.0
  9
$CHAMFERB
 40
0.0
  9
$CHAMFERC
 40
0.0
  9
$CHAMFERD
 40
0.0
  9
$SKPOLY
 70
     0
  9
$TDCREATE
 40
2458059.683359005
  9
$TDUCREATE
 40
2458059.683359005
  9
$TDUPDATE
 40
2458059.683359109
  9
$TDUUPDATE
 40
2458059.683359109
  9
$TDINDWG
 40
0.0000000116
  9
$TDUSRTIMER
 40
0.0000000116
  9
$USRTIMER
 70
     1
  9
$ANGBASE
 50
0.0
  9
$ANGDIR
 70
     0
  9
$PDMODE
 70
     0
  9
$PDSIZE
 40
-1.0
  9
$PLINEWID
 40
0.0
  9
$SPLFRAME
 70
     0
  9
$SPLINETYPE
 70
     6
  9
$SPLINESEGS
 70
     8
  9
$HANDSEED
  5
D6
  9
$SURFTAB1
 70
     6
  9
$SURFTAB2
 70
     6
  9
$SURFTYPE
 70
     6
  9
$SURFU
 70
     6
  9
$SURFV
 70
     6
  9
$UCSBASE
  2

  9
$UCSNAME
  2

  9
$UCSORG
 10
0.0
 20
0.0
 30
0.0
  9
$UCSXDIR
 10
1.0
 20
0.0
 30
0.0
  9
$UCSYDIR
 10
0.0
 20
1.0
 30
0.0
  9
$UCSORTHOREF
  2

  9
$UCSORTHOVIEW
 70
     0
  9
$UCSORGTOP
 10
0.0
 20
0.0
 30
0.0
  9
$UCSORGBOTTOM
 10
0.0
 20
0.0
 30
0.0
  9
$UCSORGLEFT
 10
0.0
 20
0.0
 30
0.0
  9
$UCSORGRIGHT
 10
0.0
 20
0.0
 30
0.0
  9
$UCSORGFRONT
 10
0.0
 20
0.0
 30
0.0
  9
$UCSORGBACK
 10
0.0
 20
0.0
 30
0.0
  9
$PUCSBASE
  2

  9
$PUCSNAME
  2

  9
$PUCSORG
 10
0.0
 20
0.0
 30
0.0
  9
$PUCSXDIR
 10
1.0
 20
0.0
 30
0.0
  9
$PUCSYDIR
 10
0.0
 20
1.0
 30
0.0
  9
$PUCSORTHOREF
  2

  9
$PUCSORTHOVIEW
 70
     0
  9
$PUCSORGTOP
 10
0.0
 20
0.0
 30
0.0
  9
$PUCSORGBOTTOM
 10
0.0
 20
0.0
 30
0.0
  9
$PUCSORGLEFT
 10
0.0
 20
0.0
 30
0.0
  9
$PUCSORGRIGHT
 10
0.0
 20
0.0
 30
0.0
  9
$PUCSORGFRONT
 10
0.0
 20
0.0
 30
0.0
  9
$PUCSORGBACK
 10
0.0
 20
0.0
 30
0.0
  9
$USERI1
 70
     0
  9
$USERI2
 70
     0
  9
$USERI3
 70
     0
  9
$USERI4
 70
     0
  9
$USERI5
 70
     0
  9
$USERR1
 40
0.0
  9
$USERR2
 40
0.0
  9
$USERR3
 40
0.0
  9
$USERR4
 40
0.0
  9
$USERR5
 40
0.0
  9
$WORLDVIEW
 70
     1
  9
$SHADEDGE
 70
     3
  9
$SHADEDIF
 70
    70
  9
$TILEMODE
 70
     1
  9
$MAXACTVP
 70
    64
  9
$PINSBASE
 10
0.0
 20
0.0
 30
0.0
  9
$PLIMCHECK
 70
     0
  9
$PEXTMIN
 10
1.0000000000E+20
 20
1.0000000000E+20
 30
1.0000000000E+20
  9
$PEXTMAX
 10
-1.0000000000E+20
 20
-1.0000000000E+20
 30
-1.0000000000E+20
  9
$PLIMMIN
 10
0.0
 20
0.0
  9
$PLIMMAX
 10
420.0
 20
297.0
  9
$UNITMODE
 70
     0
  9
$VISRETAIN
 70
     1
  9
$PLINEGEN
 70
     0
  9
$PSLTSCALE
 70
     1
  9
$TREEDEPTH
 70
  3020
  9
$CMLSTYLE
  2
Standard
  9
$CMLJUST
 70
     0
  9
$CMLSCALE
 40
20.0
  9
$PROXYGRAPHICS
 70
     1
  9
$MEASUREMENT
 70
     1
  9
$CELWEIGHT
370
    -1
  9
$ENDCAPS
280
     0
  9
$JOINSTYLE
280
     0
  9
$LWDISPLAY
290
     1
  9
$INSUNITS
 70
     4
  9
$HYPERLINKBASE
  1

  9
$STYLESHEET
  1

  9
$XEDIT
290
     1
  9
$CEPSNTYPE
380
     0
  9
$PSTYLEMODE
290
     1
  9
$FINGERPRINTGUID
  2
{ED848135-CDD8-4A52-A368-7C6826954D91}
  9
$VERSIONGUID
  2
{FAEB1C32-E019-11D5-929B-00C0DF256EC4}
  9
$EXTNAMES
290
     1
  9
$PSVPSCALE
 40
0.0
  9
$OLESTARTUP
290
     0
  0
ENDSEC
  0
SECTION
  2
CLASSES
  0
CLASS
  1
ACDBDICTIONARYWDFLT
  2
AcDbDictionaryWithDefault
  3
ObjectDBX Classes
 90
        0
280
     0
281
     0
  0
CLASS
  1
VISUALSTYLE
  2
AcDbVisualStyle
  3
ObjectDBX Classes
 90
     4095
280
     0
281
     0
  0
CLASS
  1
MATERIAL
  2
AcDbMaterial
  3
ObjectDBX Classes
 90
     1153
280
     0
281
     0
  0
CLASS
  1
SCALE
  2
AcDbScale
  3
ObjectDBX Classes
 90
     1153
280
     0
281
     0
  0
CLASS
  1
TABLESTYLE
  2
AcDbTableStyle
  3
ObjectDBX Classes
 90
     4095
280
     0
281
     0
  0
CLASS
  1
MLEADERSTYLE
  2
AcDbMLeaderStyle
  3
ACDB_MLEADERSTYLE_CLASS
 90
     4095
280
     0
281
     0
  0
CLASS
  1
SUN
  2
AcDbSun
  3
SCENEOE
 90
     1153
280
     0
281
     0
  0
CLASS
  1
ACDBPLACEHOLDER
  2
AcDbPlaceHolder
  3
ObjectDBX Classes
 90
        0
280
     0
281
     0
  0
CLASS
  1
LAYOUT
  2
AcDbLayout
  3
ObjectDBX Classes
 90
        0
280
     0
281
     0
  0
ENDSEC
  0
SECTION
  2
TABLES
  0
TABLE
  2
VPORT
  5
8
330
0
100
AcDbSymbolTable
 70
     1
  0
VPORT
  5
29
330
8
100
AcDbSymbolTableRecord
100
AcDbViewportTableRecord
  2
*Active
 70
     0
 10
0.0
 20
0.0
 11
1.0
 21
1.0
 12
594.5
 22
420.5
 13
0.0
 23
0.0
 14
10.0
 24
10.0
 15
10.0
 25
10.0
 16
0.0
 26
0.0
 36
1.0
 17
0.0
 27
0.0
 37
0.0
 40
841.0
 41
1.4137931034
 42
50.0
 43
0.0
 44
0.0
 50
0.0
 51
0.0
 71
     0
 72
  2000
 73
     1
 74
     3
 75
     0
 76
     0
 77
     0
 78
     0
281
     0
 65
     1
110
0.0
120
0.0
130
0.0
111
1.0
121
0.0
131
0.0
112
0.0
122
1.0
132
0.0
 79
     0
146
0.0
  0
ENDTAB
  0
TABLE
  2
LTYPE
  5
5
330
0
100
AcDbSymbolTable
 70
     6
  0
LTYPE
  5
14
330
5
100
AcDbSymbolTableRecord
100
AcDbLinetypeTableRecord
  2
ByBlock
 70
     0
  3

 72
    65
 73
     0
 40
0.0
  0
LTYPE
  5
15
330
5
100
AcDbSymbolTableRecord
100
AcDbLinetypeTableRecord
  2
ByLayer
 70
     0
  3

 72
    65
 73
     0
 40
0.0
  0
LTYPE
  5
16
330
5
100
AcDbSymbolTableRecord
100
AcDbLinetypeTableRecord
  2
Continuous
 70
     0
  3
Solid line
 72
    65
 73
     0
 40
0.0
  0
LTYPE
  5
6E
330
5
100
AcDbSymbolTableRecord
100
AcDbLinetypeTableRecord
  2
HIDDEN
 70
     0
  3
Hidden __ __ __ __ __ __ __ __ __ __ __ __ __ __
 72
    65
 73
     2
 40
1.905
 49
1.27
 74
     0
 49
-0.635
 74
     0
  0
LTYPE
  5
6F
330
5
100
AcDbSymbolTableRecord
100
AcDbLinetypeTableRecord
  2
PHANTOM
 70
     0
  3
Phantom ______  __  __  ______  __  __  ______
 72
    65
 73
     6
 40
12.7
 49
6.35
 74
     0
 49
-1.27
 74
     0
 49
1.27
 74
     0
 49
-1.27
 74
     0
 49
1.27
 74
     0
 49
-1.27
 74
     0
  0
LTYPE
  5
70
330
5
100
AcDbSymbolTableRecord
100
AcDbLinetypeTableRecord
  2
CENTER
 70
     0
  3
Center ____ _ ____ _ ____ _ ____ _ ____ _ ____
 72
    65
 73
     4
 40
10.16
 49
6.35
 74
     0
 49
-1.27
 74
     0
 49
1.27
 74
     0
 49
-1.27
 74
     0
  0
LTYPE
  5
71
330
5
100
AcDbSymbolTableRecord
100
AcDbLinetypeTableRecord
  2
CENTERX2
 70
     0
  3
Center (2x) ________  __  ________  __  _____
 72
    65
 73
     4
 40
20.32
 49
12.7
 74
     0
 49
-2.54
 74
     0
 49
2.54
 74
     0
 49
-2.54
 74
     0
  0
LTYPE
  5
72
330
5
100
AcDbSymbolTableRecord
100
AcDbLinetypeTableRecord
  2
DOT2
 70
     0
  3
Dot (.5x) ........................................
 72
    65
 73
     2
 40
0.635
 49
0.0
 74
     0
 49
-0.635
 74
     0
  0
ENDTAB
  0
TABLE
  2
LAYER
  5
2
330
0
100
AcDbSymbolTable
 70
     2
  0
LAYER
  5
10
330
2
100
AcDbSymbolTableRecord
100
AcDbLayerTableRecord
  2
0
 70
     0
 62
     7
  6
Continuous
370
    -3
390
F
  0
LAYER
  5
73
330
2
100
AcDbSymbolTableRecord
100
AcDbLayerTableRecord
  2
FORMAT
 70
     0
 62
     7
  6
Continuous
370
    -3
390
F
  0
ENDTAB
  0
TABLE
  2
STYLE
  5
3
330
0
100
AcDbSymbolTable
 70
     1
  0
STYLE
  5
11
330
3
100
AcDbSymbolTableRecord
100
AcDbTextStyleTableRecord
  2
Standard
 70
     0
 40
0.0
 41
1.0
 50
0.0
 71
     0
 42
3.5
  3
txt
  4

  0
ENDTAB
  0
TABLE
  2
VIEW
  5
6
330
0
100
AcDbSymbolTable
 70
     0
  0
ENDTAB
  0
TABLE
  2
UCS
  5
7
330
0
100
AcDbSymbolTable
 70
     0
  0
ENDTAB
  0
TABLE
  2
APPID
  5
9
330
0
100
AcDbSymbolTable
 70
     1
  0
APPID
  5
12
330
9
100
AcDbSymbolTableRecord
100
AcDbRegAppTableRecord
  2
ACAD
 70
     0
  0
ENDTAB
  0
TABLE
  2
DIMSTYLE
  5
A
330
0
100
AcDbSymbolTable
 70
     1
100
AcDbDimStyleTable
  0
DIMSTYLE
105
27
330
A
100
AcDbSymbolTableRecord
100
AcDbDimStyleTableRecord
  2
ISO-25
 70
     0
 41
2.5
 42
0.625
 43
3.75
 44
1.25
 73
     0
 74
     0
 77
     1
 78
     8
140
2.5
141
2.5
143
0.0393700787
147
0.625
171
     3
172
     1
178
     0
271
     2
272
     2
274
     3
278
    44
283
     0
284
     8
340
11
  0
ENDTAB
  0
TABLE
  2
BLOCK_RECORD
  5
1
330
0
100
AcDbSymbolTable
 70
     1
  0
BLOCK_RECORD
  5
1F
330
1
100
AcDbSymbolTableRecord
100
AcDbBlockTableRecord
  2
*Model_Space
340
22
  0
BLOCK_RECORD
  5
1B
330
1
100
AcDbSymbolTableRecord
100
AcDbBlockTableRecord
  2
*Paper_Space
340
1E
  0
BLOCK_RECORD
  5
23
330
1
100
AcDbSymbolTableRecord
100
AcDbBlockTableRecord
  2
*Paper_Space0
340
26
  0
ENDTAB
  0
ENDSEC
  0
SECTION
  2
BLOCKS
  0
BLOCK
  5
20
330
1F
100
AcDbEntity
  8
0
100
AcDbBlockBegin
  2
*Model_Space
 70
     0
 10
0.0
 20
0.0
 30
0.0
  3
*Model_Space
  1

  0
ENDBLK
  5
21
330
1F
100
AcDbEntity
  8
0
100
AcDbBlockEnd
  0
BLOCK
  5
1C
330
1B
100
AcDbEntity
 67
     1
  8
0
100
AcDbBlockBegin
  2
*Paper_Space
 70
     0
 10
0.0
 20
0.0
 30
0.0
  3
*Paper_Space
  1

  0
ENDBLK
  5
1D
330
1B
100
AcDbEntity
 67
     1
  8
0
100
AcDbBlockEnd
  0
BLOCK
  5
24
330
23
100
AcDbEntity
  8
0
100
AcDbBlockBegin
  2
*Paper_Space0
 70
     0
 10
0.0
 20
0.0
 30
0.0
  3
*Paper_Space0
  1

  0
ENDBLK
  5
25
330
23
100
AcDbEntity
  8
0
100
AcDbBlockEnd
  0
ENDSEC
  0
SECTION
  2
ENTITIES
  0
LINE
  5
74
330
1F
100
AcDbEntity
  8
0
  6
Continuous
 62
     7
370
    15
100
AcDbLine
 10
454.7366380744
 20
256.2589863927
 30
0.0
 11
451.9653567823
 21
257.8589863927
 31
0.0
  0
LINE
  5
75
330
1F
100
AcDbEntity
  8
0
  6
Continuous
 62
     7
370
    15
100
AcDbLine
 10
442.3079193665
 20
257.8589863927
 30
0.0
 11
439.5366380744
 21
256.2589863927
 31
0.0
  0
LINE
  5
76
330
1F
100
AcDbEntity
  8
0
  6
Continuous
 62
     7
370
    15
100
AcDbLine
 10
454.7366380744
 20
254.2589863927
 30
0.0
 11
454.7366380744
 21
256.2589863927
 31
0.0
  0
LINE
  5
77
330
1F
100
AcDbEntity
  8
0
  6
Continuous
 62
     7
370
    15
100
AcDbLine
 10
439.5366380744
 20
256.2589863927
 30
0.0
 11
439.5366380744
 21
254.2589863927
 31
0.0
  0
LINE
  5
78
330
1F
100
AcDbEntity
  8
0
  6
Continuous
 62
     7
370
    15
100
AcDbLine
 10
403.1053264566
 20
209.3512970281
 30
0.0
 11
405.1053264566
 21
207.3512970281
 31
0.0
  0
LINE
  5
79
330
1F
100
AcDbEntity
  8
0
  6
Continuous
 62
     7
370
    15
100
AcDbLine
 10
489.1053264566
 20
207.3512970281
 30
0.0
 11
491.1053264566
 21
209.3512970281
 31
0.0
  0
LINE
  5
7A
330
1F
100
AcDbEntity
  8
0
  6
Continuous
 62
     7
370
    15
100
AcDbLine
 10
491.1053264566
 20
209.3512970281
 30
0.0
 11
491.1053264566
 21
210.4589863927
 31
0.0
  0
LINE
  5
7B
330
1F
100
AcDbEntity
  8
0
  6
Continuous
 62
     7
370
    15
100
AcDbLine
 10
491.1053264566
 20
210.8589863927
 30
0.0
 11
491.1053264566
 21
210.9512970281
 31
0.0
  0
LINE
  5
7C
330
1F
100
AcDbEntity
  8
0
  6
Continuous
 62
     7
370
    15
100
AcDbLine
 10
403.1053264566
 20
210.9512970281
 30
0.0
 11
403.1053264566
 21
209.3512970281
 31
0.0
  0
LINE
  5
7D
330
1F
100
AcDbEntity
  8
0
  6
Continuous
 62
     7
370
    15
100
AcDbLine
 10
491.1366380744
 20
210.4589863927
 30
0.0
 11
491.1366380744
 21
210.8589863927
 31
0.0
  0
LINE
  5
7E
330
1F
100
AcDbEntity
  8
0
  6
Continuous
 62
     7
370
    15
100
AcDbLine
 10
489.1244919382
 20
210.9512970281
 30
0.0
 11
488.1366380744
 21
218.4589863927
 31
0.0
  0
LINE
  5
7F
330
1F
100
AcDbEntity
  8
0
  6
Continuous
 62
     7
370
    15
100
AcDbLine
 10
406.1366380744
 20
218.4589863927
 30
0.0
 11
405.1487842107
 21
210.9512970281
 31
0.0
  0
LINE
  5
80
330
1F
100
AcDbEntity
  8
0
  6
Continuous
 62
     7
370
    15
100
AcDbLine
 10
488.1366380744
 20
218.4589863927
 30
0.0
 11
456.1366380744
 21
243.2589863927
 31
0.0
  0
LINE
  5
81
330
1F
100
AcDbEntity
  8
0
  6
Continuous
 62
     7
370
    15
100
AcDbLine
 10
438.1366380744
 20
243.2589863927
 30
0.0
 11
406.1366380744
 21
218.4589863927
 31
0.0
  0
LINE
  5
82
330
1F
100
AcDbEntity
  8
0
  6
Continuous
 62
     7
370
    15
100
AcDbLine
 10
456.1366380744
 20
243.2589863927
 30
0.0
 11
454.7366380744
 21
254.2589863927
 31
0.0
  0
LINE
  5
83
330
1F
100
AcDbEntity
  8
0
  6
Continuous
 62
     7
370
    15
100
AcDbLine
 10
439.5366380744
 20
254.2589863927
 30
0.0
 11
438.1366380744
 21
243.2589863927
 31
0.0
  0
LINE
  5
84
330
1F
100
AcDbEntity
  8
0
  6
Continuous
 62
     7
370
    15
100
AcDbLine
 10
447.1366380744
 20
257.8589863927
 30
0.0
 11
451.9653567823
 21
257.8589863927
 31
0.0
  0
LINE
  5
85
330
1F
100
AcDbEntity
  8
0
  6
Continuous
 62
     7
370
    15
100
AcDbLine
 10
442.3079193665
 20
257.8589863927
 30
0.0
 11
447.1366380744
 21
257.8589863927
 31
0.0
  0
LINE
  5
86
330
1F
100
AcDbEntity
  8
0
  6
Continuous
 62
     7
370
    15
100
AcDbLine
 10
447.1366380744
 20
256.2589863927
 30
0.0
 11
439.5366380744
 21
256.2589863927
 31
0.0
  0
LINE
  5
87
330
1F
100
AcDbEntity
  8
0
  6
Continuous
 62
     7
370
    15
100
AcDbLine
 10
454.7366380744
 20
256.2589863927
 30
0.0
 11
447.1366380744
 21
256.2589863927
 31
0.0
  0
LINE
  5
88
330
1F
100
AcDbEntity
  8
0
  6
Continuous
 62
     7
370
    15
100
AcDbLine
 10
447.1366380744
 20
254.2589863927
 30
0.0
 11
454.7366380744
 21
254.2589863927
 31
0.0
  0
LINE
  5
89
330
1F
100
AcDbEntity
  8
0
  6
Continuous
 62
     7
370
    15
100
AcDbLine
 10
439.5366380744
 20
254.2589863927
 30
0.0
 11
447.1366380744
 21
254.2589863927
 31
0.0
  0
LINE
  5
8A
330
1F
100
AcDbEntity
  8
0
  6
Continuous
 62
     7
370
    15
100
AcDbLine
 10
447.1053264566
 20
209.3512970281
 30
0.0
 11
491.1053264566
 21
209.3512970281
 31
0.0
  0
LINE
  5
8B
330
1F
100
AcDbEntity
  8
0
  6
Continuous
 62
     7
370
    15
100
AcDbLine
 10
403.1053264566
 20
209.3512970281
 30
0.0
 11
447.1053264566
 21
209.3512970281
 31
0.0
  0
LINE
  5
8C
330
1F
100
AcDbEntity
  8
0
  6
Continuous
 62
     7
370
    15
100
AcDbLine
 10
447.1053264566
 20
207.3512970281
 30
0.0
 11
405.1053264566
 21
207.3512970281
 31
0.0
  0
LINE
  5
8D
330
1F
100
AcDbEntity
  8
0
  6
Continuous
 62
     7
370
    15
100
AcDbLine
 10
489.1053264566
 20
207.3512970281
 30
0.0
 11
447.1053264566
 21
207.3512970281
 31
0.0
  0
LINE
  5
8E
330
1F
100
AcDbEntity
  8
0
  6
Continuous
 62
     7
370
    15
100
AcDbLine
 10
447.1053264566
 20
210.9512970281
 30
0.0
 11
491.1053264566
 21
210.9512970281
 31
0.0
  0
LINE
  5
8F
330
1F
100
AcDbEntity
  8
0
  6
Continuous
 62
     7
370
    15
100
AcDbLine
 10
403.1053264566
 20
210.9512970281
 30
0.0
 11
447.1053264566
 21
210.9512970281
 31
0.0
  0
LINE
  5
90
330
1F
100
AcDbEntity
  8
0
  6
Continuous
 62
     7
370
    15
100
AcDbLine
 10
490.1169267666
 20
210.8589863927
 30
0.0
 11
491.1366380744
 21
210.8589863927
 31
0.0
  0
LINE
  5
91
330
1F
100
AcDbEntity
  8
0
  6
Continuous
 62
     7
370
    15
100
AcDbLine
 10
490.1169267666
 20
210.4589863927
 30
0.0
 11
491.1366380744
 21
210.4589863927
 31
0.0
  0
LINE
  5
92
330
1F
100
AcDbEntity
  8
0
  6
Continuous
 62
     7
370
    15
100
AcDbLine
 10
447.1366380744
 20
218.4589863927
 30
0.0
 11
488.1366380744
 21
218.4589863927
 31
0.0
  0
LINE
  5
93
330
1F
100
AcDbEntity
  8
0
  6
Continuous
 62
     7
370
    15
100
AcDbLine
 10
406.1366380744
 20
218.4589863927
 30
0.0
 11
447.1366380744
 21
218.4589863927
 31
0.0
  0
LINE
  5
94
330
1F
100
AcDbEntity
  8
0
  6
Continuous
 62
     7
370
    15
100
AcDbLine
 10
447.1366380744
 20
243.2589863927
 30
0.0
 11
456.1366380744
 21
243.2589863927
 31
0.0
  0
LINE
  5
95
330
1F
100
AcDbEntity
  8
0
  6
Continuous
 62
     7
370
    15
100
AcDbLine
 10
438.1366380744
 20
243.2589863927
 30
0.0
 11
447.1366380744
 21
243.2589863927
 31
0.0
  0
CIRCLE
  5
96
330
1F
100
AcDbEntity
  8
0
  6
Continuous
 62
     7
370
    15
100
AcDbCircle
 10
447.1366380744
 20
487.616967748
 30
0.0
 40
4.828718707889834
  0
CIRCLE
  5
97
330
1F
100
AcDbEntity
  8
0
  6
Continuous
 62
     7
370
    15
100
AcDbCircle
 10
447.1366380744
 20
487.616967748
 30
0.0
 40
7.600000000000023
  0
CIRCLE
  5
98
330
1F
100
AcDbEntity
  8
0
  6
Continuous
 62
     7
370
    15
100
AcDbCircle
 10
447.1366380744
 20
487.616967748
 30
0.0
 40
0.5
  0
CIRCLE
  5
99
330
1F
100
AcDbEntity
  8
0
  6
Continuous
 62
     7
370
    15
100
AcDbCircle
 10
447.1053264566
 20
487.4729161288
 30
0.0
 40
44.0
  0
CIRCLE
  5
9A
330
1F
100
AcDbEntity
  8
0
  6
Continuous
 62
     7
370
    15
100
AcDbCircle
 10
447.1366380744
 20
487.616967748
 30
0.0
 40
9.0
  0
CIRCLE
  5
9B
330
1F
100
AcDbEntity
  8
0
  6
Continuous
 62
     7
370
    15
100
AcDbCircle
 10
447.1366380744
 20
487.616967748
 30
0.0
 40
41.00000000000006
  0
ARC
  5
9C
330
1F
100
AcDbEntity
  8
0
  6
Continuous
 62
     7
370
    15
100
AcDbCircle
 10
447.1366380744
 20
487.616967748
 30
0.0
 40
44.00000000000006
100
AcDbArc
 50
347.6407465324
 51
167.8327075405
  0
LINE
  5
9D
330
1F
100
AcDbEntity
  8
0
  6
Continuous
 62
     7
370
    15
100
AcDbLine
 10
737.3295235588
 20
520.1793764646
 30
0.0
 11
737.3295235588
 21
521.8124580884
 31
0.0
  0
LINE
  5
9E
330
1F
100
AcDbEntity
  8
0
  6
Continuous
 62
     7
370
    15
100
AcDbLine
 10
722.1295235588
 20
521.8124580884
 30
0.0
 11
722.1295235588
 21
520.1793764646
 31
0.0
  0
LINE
  5
9F
330
1F
100
AcDbEntity
  8
0
  6
Continuous
 62
     7
370
    15
100
AcDbLine
 10
773.6055230247
 20
484.695484303
 30
0.0
 11
773.6055230247
 21
484.7708597041
 31
0.0
  0
LINE
  5
A0
330
1F
100
AcDbEntity
  8
0
  6
Continuous
 62
     7
370
    15
100
AcDbLine
 10
685.6055230247
 20
484.7708597041
 30
0.0
 11
685.6055230247
 21
483.4643944051
 31
0.0
  0
LINE
  5
A1
330
1F
100
AcDbEntity
  8
0
  6
Continuous
 62
     7
370
    15
100
AcDbLine
 10
698.4877691965
 20
465.506334872
 30
0.0
 11
699.9022125523
 21
464.6895286815
 31
0.0
  0
LINE
  5
A2
330
1F
100
AcDbEntity
  8
0
  6
Continuous
 62
     7
370
    15
100
AcDbLine
 10
759.3088334971
 20
464.6895286815
 30
0.0
 11
760.7232768529
 21
465.506334872
 31
0.0
  0
LINE
  5
A3
330
1F
100
AcDbEntity
  8
0
  6
Continuous
 62
     7
370
    15
100
AcDbLine
 10
746.5247357192
 20
512.5390171839
 30
0.0
 11
738.2192657718
 21
514.6920242119
 31
0.0
  0
LINE
  5
A4
330
1F
100
AcDbEntity
  8
0
  6
Continuous
 62
     7
370
    15
100
AcDbLine
 10
721.2397813458
 20
514.6920242119
 30
0.0
 11
712.9343113983
 21
512.5390171839
 31
0.0
  0
LINE
  5
A5
330
1F
100
AcDbEntity
  8
0
  6
Continuous
 62
     7
370
    15
100
AcDbLine
 10
771.5353076046
 20
487.071726262
 30
0.0
 11
770.5517373219
 21
493.1490109758
 31
0.0
  0
LINE
  5
A6
330
1F
100
AcDbEntity
  8
0
  6
Continuous
 62
     7
370
    15
100
AcDbLine
 10
688.9073097957
 20
493.1490109758
 30
0.0
 11
687.9237395129
 21
487.071726262
 31
0.0
  0
LINE
  5
A7
330
1F
100
AcDbEntity
  8
0
  6
Continuous
 62
     7
370
    15
100
AcDbLine
 10
773.7295235588
 20
484.414888904
 30
0.0
 11
773.7295235588
 21
484.7415052288
 31
0.0
  0
LINE
  5
A8
330
1F
100
AcDbEntity
  8
0
  6
Continuous
 62
     7
370
    15
100
AcDbLine
 10
738.6930150746
 20
511.6649307366
 30
0.0
 11
737.3295235588
 21
520.377167876
 31
0.0
  0
LINE
  5
A9
330
1F
100
AcDbEntity
  8
0
  6
Continuous
 62
     7
370
    15
100
AcDbLine
 10
722.1295235588
 20
520.377167876
 30
0.0
 11
720.7660320429
 21
511.6649307366
 31
0.0
  0
LWPOLYLINE
  5
AA
330
1F
100
AcDbEntity
  8
0
  6
Continuous
 62
     7
370
    15
100
AcDbPolyline
 90
       53
 70
   128
 43
0.0
 10
726.315103816
 20
521.147820826
 10
726.751561601
 20
520.9246022237
 10
727.2314447771
 20
520.7333817652
 10
727.7477555671
 20
520.5769478754
 10
728.292964997
 20
520.4575817125
 10
728.8591226855
 20
520.377023904
 10
729.4379727787
 20
520.3364491643
 10
730.0210743388
 20
520.3364491643
 10
730.599924432
 20
520.377023904
 10
731.1660821206
 20
520.4575817125
 10
731.7112915504
 20
520.5769478754
 10
732.2276023404
 20
520.7333817652
 10
732.7074855165
 20
520.9246022237
 10
733.1439433016
 20
521.147820826
 10
733.5306111581
 20
521.3997825421
 10
733.8618505982
 20
521.676813203
 10
734.1328314048
 20
521.9748730776
 10
734.3396020677
 20
522.289615782
 10
734.4791474049
 20
522.6164516587
 10
734.5494325312
 20
522.9506147046
 10
734.5494325312
 20
523.2872320702
 10
734.4791474049
 20
523.6213951161
 10
734.3396020677
 20
523.9482309928
 10
734.1328314048
 20
524.2629736972
 10
733.8618505982
 20
524.5610335719
 10
733.5306111581
 20
524.8380642327
 10
733.1439433016
 20
525.0900259488
 10
732.7074855165
 20
525.3132445511
 10
732.2276023404
 20
525.5044650096
 10
731.7112915504
 20
525.6608988995
 10
731.1660821206
 20
525.7802650624
 10
730.599924432
 20
525.8608228708
 10
730.0210743388
 20
525.9013976106
 10
729.4379727787
 20
525.9013976106
 10
728.8591226855
 20
525.8608228708
 10
728.292964997
 20
525.7802650624
 10
727.7477555671
 20
525.6608988995
 10
727.2314447771
 20
525.5044650096
 10
726.751561601
 20
525.3132445511
 10
726.315103816
 20
525.0900259488
 10
725.9284359594
 20
524.8380642327
 10
725.5971965193
 20
524.5610335719
 10
725.3262157127
 20
524.2629736972
 10
725.1194450498
 20
523.9482309928
 10
724.9798997126
 20
523.6213951161
 10
724.9096145863
 20
523.2872320702
 10
724.9096145863
 20
522.9506147046
 10
724.9798997126
 20
522.6164516587
 10
725.1194450498
 20
522.289615782
 10
725.3262157127
 20
521.9748730776
 10
725.5971965193
 20
521.676813203
 10
725.9284359594
 20
521.3997825421
 10
726.315103816
 20
521.147820826
  0
LWPOLYLINE
  5
AB
330
1F
100
AcDbEntity
  8
0
  6
Continuous
 62
     7
370
    15
100
AcDbPolyline
 90
       66
 70
   128
 43
0.0
 10
724.3555120217
 20
518.7101072635
 10
723.8619329462
 20
519.0240102125
 10
723.4231379832
 20
519.3639481481
 10
723.0432240432
 20
519.7267471612
 10
722.7257382802
 20
520.1090198954
 10
722.4736449733
 20
520.5071971729
 10
722.2892978498
 20
520.91756132
 10
722.174418109
 20
521.336280877
 10
722.1300783523
 20
521.7594463724
 10
722.1566925678
 20
522.1831068239
 10
722.254012266
 20
522.603306628
 10
722.4211287989
 20
523.0161224924
 10
722.6564818445
 20
523.4177000666
 10
722.9578739749
 20
523.8042899289
 10
723.322491173
 20
524.1722825939
 10
723.7469291061
 20
524.5182422134
 10
724.2272249118
 20
524.8389386556
 10
724.7588941974
 20
525.1313776641
 10
725.33697291
 20
525.3928288148
 10
725.9560636846
 20
525.6208510087
 10
726.6103862373
 20
525.813315264
 10
727.2938313348
 20
525.9684245939
 10
728.0000178343
 20
526.0847307842
 10
728.7223522628
 20
526.1611479155
 10
729.4540903783
 20
526.1969625016
 10
730.1884001392
 20
526.1918401513
 10
730.9184254931
 20
526.1458286906
 10
731.6373503899
 20
526.0593577162
 10
732.3384624217
 20
525.9332345842
 10
733.0152154943
 20
525.7686368724
 10
733.6612909465
 20
525.5671013852
 10
734.270656546
 20
525.3305098051
 10
734.8376228103
 20
525.0610711241
 10
735.3568961283
 20
524.7613010184
 10
735.8236281847
 20
524.4339983609
 10
736.2334612283
 20
524.0822190881
 10
736.5825687582
 20
523.7092476685
 10
736.8676912515
 20
523.3185664356
 10
737.0861665963
 20
522.9138230748
 10
737.2359549473
 20
522.4987965659
 10
737.3156577709
 20
522.0773618996
 10
737.3245309033
 20
521.6534538978
 10
737.2624914985
 20
521.2310304753
 10
737.1301188017
 20
520.8140356857
 10
736.928648741
 20
520.4063628971
 10
736.6599623883
 20
520.0118184404
 10
736.3265683955
 20
519.634086071
 10
735.9315795726
 20
519.2766925742
 10
735.4786838237
 20
518.9429748367
 10
734.9721097144
 20
518.6360486913
 10
734.4165869907
 20
518.3587798245
 10
733.8173024187
 20
518.1137570211
 10
733.1798513568
 20
517.9032679931
 10
732.5101855139
 20
517.7292780197
 10
731.8145573795
 20
517.5934115984
 10
731.0994618461
 20
517.4969372775
 10
730.3715755681
 20
517.4407558116
 10
729.6376946234
 20
517.425391752
 10
728.9046710608
 20
517.4509885488
 10
728.1793489237
 20
517.5173072115
 10
727.4685003495
 20
517.6237285406
 10
726.7787623398
 20
517.769258909
 10
726.1165747925
 20
517.9525395387
 10
725.4881203744
 20
518.1718591879
 10
724.8992667951
 20
518.4251701282
 10
724.3555120217
 20
518.7101072635
  0
LWPOLYLINE
  5
AC
330
1F
100
AcDbEntity
  8
0
  6
Continuous
 62
     7
370
    15
100
AcDbPolyline
 90
       26
 70
   128
 43
0.0
 10
724.3555120217
 20
517.0770256397
 10
724.8992667951
 20
516.7920885044
 10
725.4881203744
 20
516.5387775642
 10
726.1165747925
 20
516.3194579149
 10
726.7787623398
 20
516.1361772852
 10
727.4685003495
 20
515.9906469169
 10
728.1793489237
 20
515.8842255877
 10
728.9046710608
 20
515.817906925
 10
729.6376946234
 20
515.7923101282
 10
730.3715755681
 20
515.8076741879
 10
731.0994618461
 20
515.8638556537
 10
731.8145573795
 20
515.9603299747
 10
732.5101855139
 20
516.0961963959
 10
733.1798513568
 20
516.2701863693
 10
733.8173024187
 20
516.4806753974
 10
734.4165869907
 20
516.7256982007
 10
734.9721097144
 20
517.0029670675
 10
735.4786838237
 20
517.309893213
 10
735.9315795726
 20
517.6436109504
 10
736.3265683955
 20
518.0010044472
 10
736.6599623883
 20
518.3787368166
 10
736.928648741
 20
518.7732812733
 10
737.1301188017
 20
519.1809540619
 10
737.2624914985
 20
519.5979488515
 10
737.3245309033
 20
520.020372274
 10
737.3295235588
 20
520.1793764646
  0
LWPOLYLINE
  5
AD
330
1F
100
AcDbEntity
  8
0
  6
Continuous
 62
     7
370
    15
100
AcDbPolyline
 90
       10
 70
   128
 43
0.0
 10
722.1295235588
 20
520.1793764646
 10
722.1300783523
 20
520.1263647486
 10
722.174418109
 20
519.7031992533
 10
722.2892978498
 20
519.2844796962
 10
722.4736449733
 20
518.8741155492
 10
722.7257382802
 20
518.4759382716
 10
723.0432240432
 20
518.0936655375
 10
723.4231379832
 20
517.7308665243
 10
723.8619329462
 20
517.3909285887
 10
724.3555120217
 20
517.0770256397
  0
LWPOLYLINE
  5
AE
330
1F
100
AcDbEntity
  8
0
  6
Continuous
 62
     7
370
    15
100
AcDbPolyline
 90
       17
 70
   128
 43
0.0
 10
729.3759701682
 20
522.9148213595
 10
729.5381818426
 20
522.8522512366
 10
729.7295235588
 20
522.8302795314
 10
729.9208652749
 20
522.8522512366
 10
730.0830769494
 20
522.9148213595
 10
730.191463325
 20
523.0084641659
 10
730.2295235588
 20
523.1189233874
 10
730.191463325
 20
523.229382609
 10
730.0830769494
 20
523.3230254154
 10
729.9208652749
 20
523.3855955382
 10
729.7295235588
 20
523.4075672435
 10
729.5381818426
 20
523.3855955382
 10
729.3759701682
 20
523.3230254154
 10
729.2675837925
 20
523.229382609
 10
729.2295235588
 20
523.1189233874
 10
729.2675837925
 20
523.0084641659
 10
729.3759701682
 20
522.9148213595
  0
LWPOLYLINE
  5
AF
330
1F
100
AcDbEntity
  8
0
  6
Continuous
 62
     7
370
    15
100
AcDbPolyline
 90
       70
 70
   128
 43
0.0
 10
698.4928246525
 20
466.809881244
 10
699.7625435616
 20
466.1056510059
 10
701.0800533088
 20
465.4313114148
 10
702.4432440211
 20
464.7879423648
 10
703.8499326717
 20
464.1765741533
 10
705.2978665756
 20
463.5981858313
 10
706.7847269974
 20
463.0537036356
 10
708.3081328642
 20
462.5439995052
 10
709.8656445792
 20
462.0698896852
 10
711.4547679278
 20
461.6321334198
 10
713.0729580725
 20
461.2314317362
 10
714.7176236278
 20
460.8684263218
 10
716.3861308102
 20
460.5436984971
 10
718.0758076561
 20
460.2577682845
 10
719.7839483006
 20
460.0110935752
 10
721.5078173105
 20
459.8040693967
 10
723.2446540652
 20
459.6370272794
 10
724.9916771774
 20
459.5102347263
 10
726.7460889474
 20
459.4238947841
 10
728.5050798429
 20
459.3781457184
 10
730.2658329989
 20
459.3730607924
 10
732.025528728
 20
459.408648149
 10
733.7813490365
 20
459.4848507983
 10
735.5304821364
 20
459.6015467086
 10
737.2701269491
 20
459.7585490019
 10
738.9974975905
 20
459.9556062533
 10
740.7098278322
 20
460.1924028934
 10
742.404375532
 20
460.4685597137
 10
744.0784270248
 20
460.7836344739
 10
745.729301468
 20
461.1371226103
 10
747.3543551354
 20
461.5284580436
 10
748.9509856501
 20
461.9570140854
 10
750.5166361524
 20
462.4221044418
 10
752.0487993945
 20
462.9229843126
 10
753.5450217551
 20
463.458851584
 10
755.0029071692
 20
464.0288481127
 10
756.4201209649
 20
464.632061101
 10
757.7943936022
 20
465.2675245575
 10
759.1235243075
 20
465.934220845
 10
760.405384598
 20
466.6310823094
 10
761.63792169
 20
467.3569929902
 10
762.8191617868
 20
468.1107904067
 10
763.9472132388
 20
468.8912674205
 10
765.0202695735
 20
469.6971741681
 10
766.0366123881
 20
470.5272200626
 10
766.9946141012
 20
471.3800758604
 10
767.8927405595
 20
472.25437579
 10
768.7295534947
 20
473.1487197388
 10
769.5037128263
 20
474.0616754957
 10
770.213978808
 20
474.9917810446
 10
770.859214013
 20
475.9375469054
 10
771.4383851553
 20
476.8974585193
 10
771.9505647446
 20
477.8699786746
 10
772.3949325715
 20
478.853549968
 10
772.7707770211
 20
479.8465972989
 10
773.0774962123
 20
480.8475303916
 10
773.3145989622
 20
481.8547463421
 10
773.481705572
 20
482.8666321849
 10
773.5785484355
 20
483.8815674762
 10
773.6049724678
 20
484.8979268887
 10
773.560935353
 20
485.9140828146
 10
773.4465076127
 20
486.9284079719
 10
773.2618724925
 20
487.9392780104
 10
773.0073256689
 20
488.9450741129
 10
772.6832747757
 20
489.9441855879
 10
772.2902387511
 20
490.9350124483
 10
771.8288470069
 20
491.9159679745
 10
771.2998384203
 20
492.8854812546
 10
770.7040601508
 20
493.8419997008
 10
770.2736544048
 20
494.466940707
  0
LWPOLYLINE
  5
B0
330
1F
100
AcDbEntity
  8
0
  6
Continuous
 62
     7
370
    15
100
AcDbPolyline
 90
       31
 70
   128
 43
0.0
 10
689.3375932958
 20
495.0084650054
 10
688.6662537504
 20
494.0789188719
 10
688.0539279915
 20
493.1258893416
 10
687.5081433616
 20
492.1594799854
 10
687.0297738858
 20
491.1812384208
 10
686.6195856294
 20
490.1927312132
 10
686.2782354719
 20
489.1955413677
 10
686.0062700549
 20
488.1912657939
 10
685.8041249064
 20
487.1815127485
 10
685.6721237436
 20
486.1678992598
 10
685.6104779544
 20
485.1520485384
 10
685.6192862591
 20
484.1355873774
 10
685.6985345518
 20
483.1201435478
 10
685.8480959237
 20
482.1073431911
 10
686.0677308657
 20
481.0988082156
 10
686.3570876522
 20
480.0961536992
 10
686.7157029046
 20
479.1009853026
 10
687.1430023327
 20
478.114896698
 10
687.6383016552
 20
477.1394670175
 10
688.2008076948
 20
476.1762583235
 10
688.829619649
 20
475.226813108
 10
689.5237305322
 20
474.2926518216
 10
690.2820287884
 20
473.3752704395
 10
691.1033000713
 20
472.476138065
 10
691.9862291892
 20
471.5966945775
 10
692.9294022108
 20
470.7383483265
 10
693.9313087297
 20
469.9024738758
 10
694.9903442828
 20
469.0904098031
 10
696.1048129205
 20
468.3034565557
 10
697.2729299217
 20
467.5428743681
 10
698.4928246525
 20
466.809881244
  0
LWPOLYLINE
  5
B1
330
1F
100
AcDbEntity
  8
0
  6
Continuous
 62
     7
370
    15
100
AcDbPolyline
 90
       59
 70
   128
 43
0.0
 10
698.4928246525
 20
465.503415945
 10
699.7625435616
 20
464.7991857069
 10
701.0800533088
 20
464.1248461158
 10
702.4432440211
 20
463.4814770658
 10
703.8499326717
 20
462.8701088543
 10
705.2978665756
 20
462.2917205323
 10
706.7847269974
 20
461.7472383366
 10
708.3081328642
 20
461.2375342061
 10
709.8656445792
 20
460.7634243862
 10
711.4547679278
 20
460.3256681208
 10
713.0729580725
 20
459.9249664372
 10
714.7176236278
 20
459.5619610228
 10
716.3861308102
 20
459.2372331981
 10
718.0758076561
 20
458.9513029854
 10
719.7839483006
 20
458.7046282762
 10
721.5078173105
 20
458.4976040977
 10
723.2446540652
 20
458.3305619804
 10
724.9916771774
 20
458.2037694272
 10
726.7460889474
 20
458.117429485
 10
728.5050798429
 20
458.0716804194
 10
730.2658329989
 20
458.0665954934
 10
732.025528728
 20
458.10218285
 10
733.7813490365
 20
458.1783854992
 10
735.5304821364
 20
458.2950814095
 10
737.2701269491
 20
458.4520837029
 10
738.9974975905
 20
458.6491409543
 10
740.7098278322
 20
458.8859375944
 10
742.404375532
 20
459.1620944146
 10
744.0784270248
 20
459.4771691749
 10
745.729301468
 20
459.8306573113
 10
747.3543551354
 20
460.2219927446
 10
748.9509856501
 20
460.6505487864
 10
750.5166361524
 20
461.1156391428
 10
752.0487993945
 20
461.6165190136
 10
753.5450217551
 20
462.1523862849
 10
755.0029071692
 20
462.7223828137
 10
756.4201209649
 20
463.325595802
 10
757.7943936022
 20
463.9610592585
 10
759.1235243075
 20
464.627755546
 10
760.405384598
 20
465.3246170104
 10
761.63792169
 20
466.0505276911
 10
762.8191617868
 20
466.8043251077
 10
763.9472132388
 20
467.5848021215
 10
765.0202695735
 20
468.3907088691
 10
766.0366123881
 20
469.2207547636
 10
766.9946141012
 20
470.0736105614
 10
767.8927405595
 20
470.9479104909
 10
768.7295534947
 20
471.8422544397
 10
769.5037128263
 20
472.7552101967
 10
770.213978808
 20
473.6853157456
 10
770.859214013
 20
474.6310816064
 10
771.4383851553
 20
475.5909932203
 10
771.9505647446
 20
476.5635133756
 10
772.3949325715
 20
477.547084669
 10
772.7707770211
 20
478.5401319999
 10
773.0774962123
 20
479.5410650926
 10
773.3145989622
 20
480.548281043
 10
773.481705572
 20
481.5601668858
 10
773.5355447503
 20
482.0323960533
  0
LWPOLYLINE
  5
B2
330
1F
100
AcDbEntity
  8
0
  6
Continuous
 62
     7
370
    15
100
AcDbPolyline
 90
       21
 70
   128
 43
0.0
 10
685.6055230247
 20
483.4643944051
 10
685.6192862591
 20
482.8291220784
 10
685.6985345518
 20
481.8136782488
 10
685.8480959237
 20
480.800877892
 10
686.0677308657
 20
479.7923429166
 10
686.3570876522
 20
478.7896884002
 10
686.7157029046
 20
477.7945200035
 10
687.1430023327
 20
476.808431399
 10
687.6383016552
 20
475.8330017185
 10
688.2008076948
 20
474.8697930245
 10
688.829619649
 20
473.920347809
 10
689.5237305322
 20
472.9861865226
 10
690.2820287884
 20
472.0688051405
 10
691.1033000713
 20
471.169672766
 10
691.9862291892
 20
470.2902292785
 10
692.9294022108
 20
469.4318830275
 10
693.9313087297
 20
468.5960085768
 10
694.9903442828
 20
467.7839445041
 10
696.1048129205
 20
466.9969912567
 10
697.2729299217
 20
466.2364090691
 10
698.4928246525
 20
465.503415945
  0
LWPOLYLINE
  5
B3
330
1F
100
AcDbEntity
  8
0
  6
Continuous
 62
     7
370
    15
100
AcDbPolyline
 90
       40
 70
   128
 43
0.0
 10
759.3088334971
 20
464.6895286815
 10
758.9975443047
 20
464.5116318927
 10
757.741038005
 20
463.8296268729
 10
756.4370888621
 20
463.1779767679
 10
755.0878956292
 20
462.5577804073
 10
753.6957333514
 20
461.9700835824
 10
752.2629495293
 20
461.4158772831
 10
750.7919601604
 20
460.8960960264
 10
749.2852456656
 20
460.4116162812
 10
747.7453467064
 20
459.96325499
 10
746.1748599008
 20
459.5517681913
 10
744.5764334448
 20
459.1778497449
 10
742.9527626471
 20
458.842130162
 10
741.306585384
 20
458.5451755416
 10
739.6406774826
 20
458.2874866166
 10
737.9578480407
 20
458.0694979086
 10
736.2609346893
 20
457.891576996
 10
734.5527988081
 20
457.7540238936
 10
732.8363207009
 20
457.6570705472
 10
731.1143947378
 20
457.600880442
 10
729.3899244757
 20
457.5855483272
 10
727.6658177616
 20
457.6111000562
 10
725.9449818293
 20
457.6774925431
 10
724.2303183976
 20
457.7846138351
 10
722.5247187769
 20
457.9322833014
 10
720.8310589939
 20
458.120251938
 10
719.1521949424
 20
458.3482027872
 10
717.4909575668
 20
458.6157514722
 10
715.8501480891
 20
458.9224468456
 10
714.2325332854
 20
459.2677717494
 10
712.6408408201
 20
459.6511438878
 10
711.0777546468
 20
460.0719168087
 10
709.5459104824
 20
460.5293809937
 10
708.0478913628
 20
461.0227650546
 10
706.586223287
 20
461.5512370345
 10
705.163370958
 20
462.1139058098
 10
703.7817336269
 20
462.7098225939
 10
702.4436410466
 20
463.3379825362
 10
701.151349544
 20
463.9973264169
 10
699.9070382149
 20
464.6867424331
  0
LWPOLYLINE
  5
B4
330
1F
100
AcDbEntity
  8
0
  6
Continuous
 62
     7
370
    15
100
AcDbPolyline
 90
       86
 70
   128
 43
0.0
 10
700.7381455301
 20
474.2108491067
 10
701.9609791221
 20
473.5335161012
 10
703.2312548065
 20
472.8859341089
 10
704.5468023385
 20
472.2692095126
 10
705.9053741273
 20
471.6843959761
 10
707.3046490757
 20
471.1324926434
 10
708.7422365461
 20
470.6144424322
 10
710.2156804442
 20
470.1311304225
 10
711.722463416
 20
469.6833823448
 10
713.260011148
 20
469.2719631692
 10
714.8256967656
 20
468.8975757985
 10
716.4168453214
 20
468.5608598671
 10
718.0307383645
 20
468.2623906486
 10
719.664618586
 20
468.0026780727
 10
721.3156945287
 20
467.782165854
 10
722.9811453573
 20
467.6012307337
 10
724.6581256767
 20
467.4601818367
 10
726.3437703944
 20
467.3592601425
 10
728.0351996146
 20
467.2986380742
 10
729.7295235588
 20
467.2784192036
 10
731.423847503
 20
467.2986380742
 10
733.1152767231
 20
467.3592601425
 10
734.8009214408
 20
467.4601818367
 10
736.4779017603
 20
467.6012307337
 10
738.1433525888
 20
467.782165854
 10
739.7944285315
 20
468.0026780727
 10
741.428308753
 20
468.2623906486
 10
743.0422017962
 20
468.5608598671
 10
744.6333503519
 20
468.8975757985
 10
746.1990359695
 20
469.2719631692
 10
747.7365837015
 20
469.6833823448
 10
749.2433666733
 20
470.1311304225
 10
750.7168105714
 20
470.6144424322
 10
752.1543980418
 20
471.1324926434
 10
753.5536729902
 20
471.6843959761
 10
754.912244779
 20
472.2692095126
 10
756.2277923111
 20
472.8859341089
 10
757.4980679954
 20
473.5335161012
 10
758.7209015874
 20
474.2108491067
 10
759.8942038964
 20
474.9167759133
 10
761.015970355
 20
475.6500904569
 10
762.084284444
 20
476.4095398818
 10
763.0973209668
 20
477.1938266814
 10
764.0533491675
 20
478.001610915
 10
764.9507356879
 20
478.8315124967
 10
765.7879473582
 20
479.6821135535
 10
766.5635538163
 20
480.5519608479
 10
767.2762299516
 20
481.4395682603
 10
767.9247581689
 20
482.3434193284
 10
768.5080304685
 20
483.2619698377
 10
769.0250503395
 20
484.1936504602
 10
769.4749344623
 20
485.136869435
 10
769.8569142172
 20
486.0900152885
 10
770.1703369983
 20
487.0514595869
 10
770.414667328
 20
488.0195597187
 10
770.589487772
 20
488.9926617012
 10
770.6944996526
 20
489.9691030058
 10
770.7295235588
 20
490.9472153991
 10
770.6944996526
 20
491.9253277924
 10
770.589487772
 20
492.9017690971
 10
770.414667328
 20
493.8748710795
 10
770.1703369983
 20
494.8429712114
 10
769.8569142172
 20
495.8044155097
 10
769.4749344623
 20
496.7575613632
 10
769.0250503395
 20
497.7007803381
 10
768.5080304685
 20
498.6324609605
 10
767.9247581689
 20
499.5510114698
 10
767.2762299516
 20
500.4548625379
 10
766.5635538163
 20
501.3424699503
 10
765.7879473582
 20
502.2123172447
 10
764.9507356879
 20
503.0629183015
 10
764.0533491675
 20
503.8928198832
 10
763.0973209668
 20
504.7006041168
 10
762.084284444
 20
505.4848909165
 10
761.015970355
 20
506.2443403414
 10
759.8942038964
 20
506.9776548849
 10
758.7209015874
 20
507.6835816915
 10
757.4980679954
 20
508.360914697
 10
756.2277923111
 20
509.0084966894
 10
754.912244779
 20
509.6252212856
 10
753.5536729902
 20
510.2100348222
 10
752.1543980418
 20
510.7619381548
 10
750.7168105714
 20
511.279988366
 10
749.2433666733
 20
511.7633003757
 10
747.7365837015
 20
512.2110484534
 10
746.5247357192
 20
512.5390171839
  0
LWPOLYLINE
  5
B5
330
1F
100
AcDbEntity
  8
0
  6
Continuous
 62
     7
370
    15
100
AcDbPolyline
 90
       48
 70
   128
 43
0.0
 10
712.9343113983
 20
512.5390171839
 10
711.722463416
 20
512.2110484534
 10
710.2156804442
 20
511.7633003757
 10
708.7422365461
 20
511.279988366
 10
707.3046490757
 20
510.7619381548
 10
705.9053741273
 20
510.2100348222
 10
704.5468023385
 20
509.6252212856
 10
703.2312548065
 20
509.0084966894
 10
701.9609791221
 20
508.360914697
 10
700.7381455301
 20
507.6835816915
 10
699.5648432212
 20
506.9776548849
 10
698.4430767626
 20
506.2443403414
 10
697.3747626735
 20
505.4848909165
 10
696.3617261507
 20
504.7006041168
 10
695.40569795
 20
503.8928198832
 10
694.5083114296
 20
503.0629183015
 10
693.6710997593
 20
502.2123172447
 10
692.8954933012
 20
501.3424699503
 10
692.1828171659
 20
500.4548625379
 10
691.5342889487
 20
499.5510114698
 10
690.951016649
 20
498.6324609605
 10
690.433996778
 20
497.7007803381
 10
689.9841126552
 20
496.7575613632
 10
689.6021329003
 20
495.8044155097
 10
689.2887101192
 20
494.8429712114
 10
689.0443797895
 20
493.8748710795
 10
688.8695593455
 20
492.9017690971
 10
688.7645474649
 20
491.9253277924
 10
688.7295235588
 20
490.9472153991
 10
688.7645474649
 20
489.9691030058
 10
688.8695593455
 20
488.9926617012
 10
689.0443797895
 20
488.0195597187
 10
689.2887101193
 20
487.0514595869
 10
689.6021329003
 20
486.0900152885
 10
689.9841126552
 20
485.136869435
 10
690.433996778
 20
484.1936504602
 10
690.951016649
 20
483.2619698377
 10
691.5342889487
 20
482.3434193284
 10
692.1828171659
 20
481.4395682603
 10
692.8954933012
 20
480.5519608479
 10
693.6710997593
 20
479.6821135535
 10
694.5083114296
 20
478.8315124967
 10
695.40569795
 20
478.001610915
 10
696.3617261507
 20
477.1938266814
 10
697.3747626735
 20
476.4095398818
 10
698.4430767626
 20
475.6500904569
 10
699.5648432212
 20
474.9167759133
 10
700.7381455301
 20
474.2108491067
  0
LWPOLYLINE
  5
B6
330
1F
100
AcDbEntity
  8
0
  6
Continuous
 62
     7
370
    15
100
AcDbPolyline
 90
       29
 70
   128
 43
0.0
 10
723.3655625281
 20
507.5235910307
 10
723.9529133814
 20
507.2132733522
 10
724.5854740417
 20
506.934137082
 10
725.2582938639
 20
506.6883668401
 10
725.9661071209
 20
506.4778861116
 10
726.703374214
 20
506.3043421938
 10
727.4643250289
 20
506.1690933031
 10
728.2430040934
 20
506.0731979454
 10
729.0333171883
 20
506.0174066319
 10
729.829079042
 20
506.0021560053
 10
730.6240617391
 20
506.0275654224
 10
731.412043462
 20
506.0934360201
 10
732.1868571855
 20
506.1992522717
 10
732.9424389415
 20
506.3441860214
 10
733.6728752784
 20
506.5271029663
 10
734.3724495416
 20
506.7465715331
 10
735.0356866138
 20
507.0008740829
 10
735.6573957657
 20
507.2880203533
 10
736.2327112804
 20
507.6057630354
 10
736.7571305337
 20
507.9516153621
 10
737.2265492341
 20
508.3228705698
 10
737.6372935437
 20
508.7166230832
 10
737.9861488315
 20
509.129791255
 10
738.2703848317
 20
509.5591414841
 10
738.4877770124
 20
510.0013135229
 10
738.6366239849
 20
510.4528467755
 10
738.7157608199
 20
510.9102073821
 10
738.7245681643
 20
511.3698158758
 10
738.6930150746
 20
511.6649307366
  0
LWPOLYLINE
  5
B7
330
1F
100
AcDbEntity
  8
0
  6
Continuous
 62
     7
370
    15
100
AcDbPolyline
 90
       11
 70
   128
 43
0.0
 10
720.7660320429
 20
511.6649307366
 10
720.7300742031
 20
511.254899691
 10
720.7564919256
 20
510.7955161512
 10
720.8531357867
 20
510.3392781128
 10
721.0192494173
 20
509.8897562571
 10
721.2535327528
 20
509.4504687022
 10
721.5541522085
 20
509.0248534688
 10
721.9187550296
 20
508.6162415731
 10
722.3444877047
 20
508.2278309573
 10
722.8280182984
 20
507.862661461
 10
723.3655625281
 20
507.5235910307
  0
LWPOLYLINE
  5
B8
330
1F
100
AcDbEntity
  8
0
  6
Continuous
 62
     7
370
    15
100
AcDbPolyline
 90
       27
 70
   128
 43
0.0
 10
753.4617933975
 20
463.0257803251
 10
753.6690222892
 20
463.1028807839
 10
755.1269077033
 20
463.6728773126
 10
756.544121499
 20
464.2760903009
 10
757.9183941363
 20
464.9115537574
 10
759.2475248416
 20
465.5782500449
 10
760.529385132
 20
466.2751115093
 10
761.7619222241
 20
467.0010221901
 10
762.9431623208
 20
467.7548196066
 10
764.0712137728
 20
468.5352966204
 10
765.1442701076
 20
469.341203368
 10
766.1606129221
 20
470.1712492625
 10
767.1186146352
 20
471.0241050603
 10
768.0167410936
 20
471.8984049899
 10
768.8535540288
 20
472.7927489387
 10
769.6277133603
 20
473.7057046956
 10
770.3379793421
 20
474.6358102445
 10
770.983214547
 20
475.5815761053
 10
771.5623856893
 20
476.5414877192
 10
772.0745652786
 20
477.5140078745
 10
772.5189331055
 20
478.4975791679
 10
772.8947775551
 20
479.4906264988
 10
773.2014967464
 20
480.4915595915
 10
773.4385994962
 20
481.498775542
 10
773.605706106
 20
482.5106613848
 10
773.7025489696
 20
483.5255966761
 10
773.7295235588
 20
484.414888904
  0
LWPOLYLINE
  5
B9
330
1F
100
AcDbEntity
  8
0
  6
Continuous
 62
     7
370
    15
100
AcDbPolyline
 90
       37
 70
   128
 43
0.0
 10
753.4617933975
 20
463.3523966498
 10
753.6690222892
 20
463.4294971086
 10
755.1269077033
 20
463.9994936374
 10
756.544121499
 20
464.6027066256
 10
757.9183941363
 20
465.2381700822
 10
759.2475248416
 20
465.9048663696
 10
760.529385132
 20
466.6017278341
 10
761.7619222241
 20
467.3276385148
 10
762.9431623208
 20
468.0814359313
 10
764.0712137728
 20
468.8619129452
 10
765.1442701076
 20
469.6678196928
 10
766.1606129221
 20
470.4978655873
 10
767.1186146352
 20
471.3507213851
 10
768.0167410936
 20
472.2250213146
 10
768.8535540288
 20
473.1193652634
 10
769.6277133603
 20
474.0323210204
 10
770.3379793421
 20
474.9624265693
 10
770.983214547
 20
475.90819243
 10
771.5623856893
 20
476.868104044
 10
772.0745652786
 20
477.8406241993
 10
772.5189331055
 20
478.8241954927
 10
772.8947775551
 20
479.8172428236
 10
773.2014967464
 20
480.8181759162
 10
773.4385994962
 20
481.8253918667
 10
773.605706106
 20
482.8372777095
 10
773.7025489696
 20
483.8522130008
 10
773.7289730018
 20
484.8685724134
 10
773.6849358871
 20
485.8847283393
 10
773.5705081467
 20
486.8990534966
 10
773.3858730265
 20
487.9099235351
 10
773.1313262029
 20
488.9157196376
 10
772.8072753097
 20
489.9148311125
 10
772.4142392852
 20
490.9056579729
 10
771.952847541
 20
491.8866134991
 10
771.4238389543
 20
492.8561267793
 10
770.8280606848
 20
493.8126452254
 10
770.2132728957
 20
494.6914075343
  0
LWPOLYLINE
  5
BA
330
1F
100
AcDbEntity
  8
0
  6
Continuous
 62
     7
370
    15
100
AcDbPolyline
 90
       26
 70
   128
 43
0.0
 10
724.3555120217
 20
517.0770256397
 10
724.8992667951
 20
516.7920885044
 10
725.4881203744
 20
516.5387775642
 10
726.1165747925
 20
516.3194579149
 10
726.7787623398
 20
516.1361772852
 10
727.4685003495
 20
515.9906469169
 10
728.1793489237
 20
515.8842255877
 10
728.9046710608
 20
515.817906925
 10
729.6376946234
 20
515.7923101282
 10
730.3715755681
 20
515.8076741879
 10
731.0994618461
 20
515.8638556537
 10
731.8145573795
 20
515.9603299747
 10
732.5101855139
 20
516.0961963959
 10
733.1798513568
 20
516.2701863693
 10
733.8173024187
 20
516.4806753974
 10
734.4165869907
 20
516.7256982007
 10
734.9721097144
 20
517.0029670675
 10
735.4786838237
 20
517.309893213
 10
735.9315795726
 20
517.6436109504
 10
736.3265683955
 20
518.0010044472
 10
736.6599623883
 20
518.3787368166
 10
736.928648741
 20
518.7732812733
 10
737.1301188017
 20
519.1809540619
 10
737.2624914985
 20
519.5979488515
 10
737.3245309033
 20
520.020372274
 10
737.3295235588
 20
520.1793764646
  0
LWPOLYLINE
  5
BB
330
1F
100
AcDbEntity
  8
0
  6
Continuous
 62
     7
370
    15
100
AcDbPolyline
 90
       10
 70
   128
 43
0.0
 10
722.1295235588
 20
520.1793764646
 10
722.1300783523
 20
520.1263647486
 10
722.174418109
 20
519.7031992533
 10
722.2892978498
 20
519.2844796962
 10
722.4736449733
 20
518.8741155492
 10
722.7257382802
 20
518.4759382716
 10
723.0432240432
 20
518.0936655375
 10
723.4231379832
 20
517.7308665243
 10
723.8619329462
 20
517.3909285887
 10
724.3555120217
 20
517.0770256397
  0
LINE
  5
BC
330
1F
100
AcDbEntity
  8
0
  6
Continuous
 62
     7
370
    15
100
AcDbLine
 10
744.6637864559
 20
256.2589863927
 30
0.0
 11
741.8925051638
 21
257.8589863927
 31
0.0
  0
LINE
  5
BD
330
1F
100
AcDbEntity
  8
0
  6
Continuous
 62
     7
370
    15
100
AcDbLine
 10
732.2350677481
 20
257.8589863927
 30
0.0
 11
729.4637864559
 21
256.2589863927
 31
0.0
  0
LINE
  5
BE
330
1F
100
AcDbEntity
  8
0
  6
Continuous
 62
     7
370
    15
100
AcDbLine
 10
744.6637864559
 20
254.2589863927
 30
0.0
 11
744.6637864559
 21
256.2589863927
 31
0.0
  0
LINE
  5
BF
330
1F
100
AcDbEntity
  8
0
  6
Continuous
 62
     7
370
    15
100
AcDbLine
 10
729.4637864559
 20
256.2589863927
 30
0.0
 11
729.4637864559
 21
254.2589863927
 31
0.0
  0
LINE
  5
C0
330
1F
100
AcDbEntity
  8
0
  6
Continuous
 62
     7
370
    15
100
AcDbLine
 10
692.9197348368
 20
209.3512970281
 30
0.0
 11
694.9197348368
 21
207.3512970281
 31
0.0
  0
LINE
  5
C1
330
1F
100
AcDbEntity
  8
0
  6
Continuous
 62
     7
370
    15
100
AcDbLine
 10
778.9197348368
 20
207.3512970281
 30
0.0
 11
780.9197348368
 21
209.3512970281
 31
0.0
  0
LINE
  5
C2
330
1F
100
AcDbEntity
  8
0
  6
Continuous
 62
     7
370
    15
100
AcDbLine
 10
780.9197348368
 20
209.3512970281
 30
0.0
 11
780.9197348368
 21
210.4589863927
 31
0.0
  0
LINE
  5
C3
330
1F
100
AcDbEntity
  8
0
  6
Continuous
 62
     7
370
    15
100
AcDbLine
 10
780.9197348368
 20
210.8589863927
 30
0.0
 11
780.9197348368
 21
210.9512970281
 31
0.0
  0
LINE
  5
C4
330
1F
100
AcDbEntity
  8
0
  6
Continuous
 62
     7
370
    15
100
AcDbLine
 10
692.9197348368
 20
210.9512970281
 30
0.0
 11
692.9197348368
 21
209.3512970281
 31
0.0
  0
LINE
  5
C5
330
1F
100
AcDbEntity
  8
0
  6
Continuous
 62
     7
370
    15
100
AcDbLine
 10
781.0637864559
 20
210.4589863927
 30
0.0
 11
781.0637864559
 21
210.8589863927
 31
0.0
  0
LINE
  5
C6
330
1F
100
AcDbEntity
  8
0
  6
Continuous
 62
     7
370
    15
100
AcDbLine
 10
779.0516403197
 20
210.9512970281
 30
0.0
 11
778.0637864559
 21
218.4589863927
 31
0.0
  0
LINE
  5
C7
330
1F
100
AcDbEntity
  8
0
  6
Continuous
 62
     7
370
    15
100
AcDbLine
 10
696.0637864559
 20
218.4589863927
 30
0.0
 11
695.0759325922
 21
210.9512970281
 31
0.0
  0
LINE
  5
C8
330
1F
100
AcDbEntity
  8
0
  6
Continuous
 62
     7
370
    15
100
AcDbLine
 10
778.0637864559
 20
218.4589863927
 30
0.0
 11
746.0637864559
 21
243.2589863927
 31
0.0
  0
LINE
  5
C9
330
1F
100
AcDbEntity
  8
0
  6
Continuous
 62
     7
370
    15
100
AcDbLine
 10
728.0637864559
 20
243.2589863927
 30
0.0
 11
696.0637864559
 21
218.4589863927
 31
0.0
  0
LINE
  5
CA
330
1F
100
AcDbEntity
  8
0
  6
Continuous
 62
     7
370
    15
100
AcDbLine
 10
746.0637864559
 20
243.2589863927
 30
0.0
 11
744.6637864559
 21
254.2589863927
 31
0.0
  0
LINE
  5
CB
330
1F
100
AcDbEntity
  8
0
  6
Continuous
 62
     7
370
    15
100
AcDbLine
 10
729.4637864559
 20
254.2589863927
 30
0.0
 11
728.0637864559
 21
243.2589863927
 31
0.0
  0
LINE
  5
CC
330
1F
100
AcDbEntity
  8
0
  6
Continuous
 62
     7
370
    15
100
AcDbLine
 10
732.2350677481
 20
257.8589863927
 30
0.0
 11
741.8925051638
 21
257.8589863927
 31
0.0
  0
LINE
  5
CD
330
1F
100
AcDbEntity
  8
0
  6
Continuous
 62
     7
370
    15
100
AcDbLine
 10
744.6637864559
 20
256.2589863927
 30
0.0
 11
729.4637864559
 21
256.2589863927
 31
0.0
  0
LINE
  5
CE
330
1F
100
AcDbEntity
  8
0
  6
Continuous
 62
     7
370
    15
100
AcDbLine
 10
729.4637864559
 20
254.2589863927
 30
0.0
 11
744.6637864559
 21
254.2589863927
 31
0.0
  0
LINE
  5
CF
330
1F
100
AcDbEntity
  8
0
  6
Continuous
 62
     7
370
    15
100
AcDbLine
 10
692.9197348368
 20
209.3512970281
 30
0.0
 11
780.9197348368
 21
209.3512970281
 31
0.0
  0
LINE
  5
D0
330
1F
100
AcDbEntity
  8
0
  6
Continuous
 62
     7
370
    15
100
AcDbLine
 10
778.9197348368
 20
207.3512970281
 30
0.0
 11
694.9197348368
 21
207.3512970281
 31
0.0
  0
LINE
  5
D1
330
1F
100
AcDbEntity
  8
0
  6
Continuous
 62
     7
370
    15
100
AcDbLine
 10
692.9197348368
 20
210.9512970281
 30
0.0
 11
780.9197348368
 21
210.9512970281
 31
0.0
  0
LINE
  5
D2
330
1F
100
AcDbEntity
  8
0
  6
Continuous
 62
     7
370
    15
100
AcDbLine
 10
727.6459956356
 20
210.8589863927
 30
0.0
 11
781.0637864559
 21
210.8589863927
 31
0.0
  0
LINE
  5
D3
330
1F
100
AcDbEntity
  8
0
  6
Continuous
 62
     7
370
    15
100
AcDbLine
 10
727.6459956356
 20
210.4589863927
 30
0.0
 11
781.0637864559
 21
210.4589863927
 31
0.0
  0
LINE
  5
D4
330
1F
100
AcDbEntity
  8
0
  6
Continuous
 62
     7
370
    15
100
AcDbLine
 10
696.0637864559
 20
218.4589863927
 30
0.0
 11
778.0637864559
 21
218.4589863927
 31
0.0
  0
LINE
  5
D5
330
1F
100
AcDbEntity
  8
0
  6
Continuous
 62
     7
370
    15
100
AcDbLine
 10
728.0637864559
 20
243.2589863927
 30
0.0
 11
746.0637864559
 21
243.2589863927
 31
0.0
  0
ENDSEC
  0
SECTION
  2
OBJECTS
  0
DICTIONARY
  5
C
330
0
100
AcDbDictionary
281
     1
  3
ACAD_GROUP
350
D
  3
ACAD_LAYOUT
350
1A
  3
ACAD_MLINESTYLE
350
17
  3
ACAD_PLOTSETTINGS
350
19
  3
ACAD_PLOTSTYLENAME
350
E
  3
ACAD_SCALELIST
350
47
  0
DICTIONARY
  5
D
102
{ACAD_REACTORS
330
C
102
}
330
C
100
AcDbDictionary
281
     1
  0
DICTIONARY
  5
1A
102
{ACAD_REACTORS
330
C
102
}
330
C
100
AcDbDictionary
281
     1
  3
Layout1
350
1E
  3
Layout2
350
26
  3
Model
350
22
  0
DICTIONARY
  5
17
102
{ACAD_REACTORS
330
C
102
}
330
C
100
AcDbDictionary
281
     1
  3
Standard
350
18
  0
DICTIONARY
  5
19
102
{ACAD_REACTORS
330
C
102
}
330
C
100
AcDbDictionary
281
     1
  0
ACDBDICTIONARYWDFLT
  5
E
102
{ACAD_REACTORS
330
C
102
}
330
C
100
AcDbDictionary
281
     1
  3
Normal
350
F
100
AcDbDictionaryWithDefault
340
F
  0
DICTIONARY
  5
47
102
{ACAD_REACTORS
330
C
102
}
330
C
100
AcDbDictionary
281
     1
  3
A0
350
48
  3
A1
350
49
  3
A2
350
4A
  3
A3
350
4B
  3
A4
350
4C
  3
A5
350
4D
  3
A6
350
4E
  3
A7
350
4F
  3
A8
350
50
  3
A9
350
51
  3
B0
350
52
  3
B1
350
53
  3
B2
350
54
  3
B3
350
55
  3
B4
350
56
  3
B5
350
57
  3
B6
350
58
  3
B7
350
59
  3
B8
350
5A
  3
B9
350
5B
  3
C0
350
5C
  3
C1
350
5D
  3
C2
350
5E
  3
C3
350
5F
  3
C4
350
60
  3
C5
350
61
  3
C6
350
62
  3
C7
350
63
  3
C8
350
64
  3
C9
350
65
  3
D0
350
66
  3
D1
350
67
  3
D2
350
68
  0
LAYOUT
  5
1E
102
{ACAD_REACTORS
330
1A
102
}
330
1A
100
AcDbPlotSettings
  1

  2
none_device
  4

  6

 40
0.0
 41
0.0
 42
0.0
 43
0.0
 44
0.0
 45
0.0
 46
0.0
 47
0.0
 48
0.0
 49
0.0
140
0.0
141
0.0
142
1.0
143
1.0
 70
   688
 72
     1
 73
     0
 74
     5
  7

 75
    16
147
1.0
148
0.0
149
0.0
100
AcDbLayout
  1
Layout1
 70
     1
 71
     1
 10
0.0
 20
0.0
 11
420.0
 21
297.0
 12
0.0
 22
0.0
 32
0.0
 14
1.0000000000E+20
 24
1.0000000000E+20
 34
1.0000000000E+20
 15
-1.0000000000E+20
 25
-1.0000000000E+20
 35
-1.0000000000E+20
146
0.0
 13
0.0
 23
0.0
 33
0.0
 16
1.0
 26
0.0
 36
0.0
 17
0.0
 27
1.0
 37
0.0
 76
     0
330
1B
  0
LAYOUT
  5
26
102
{ACAD_REACTORS
330
1A
102
}
330
1A
100
AcDbPlotSettings
  1

  2
none_device
  4

  6

 40
0.0
 41
0.0
 42
0.0
 43
0.0
 44
0.0
 45
0.0
 46
0.0
 47
0.0
 48
0.0
 49
0.0
140
0.0
141
0.0
142
1.0
143
1.0
 70
   688
 72
     1
 73
     0
 74
     5
  7

 75
    16
147
1.0
148
0.0
149
0.0
100
AcDbLayout
  1
Layout2
 70
     1
 71
     2
 10
0.0
 20
0.0
 11
0.0
 21
0.0
 12
0.0
 22
0.0
 32
0.0
 14
0.0
 24
0.0
 34
0.0
 15
0.0
 25
0.0
 35
0.0
146
0.0
 13
0.0
 23
0.0
 33
0.0
 16
1.0
 26
0.0
 36
0.0
 17
0.0
 27
1.0
 37
0.0
 76
     0
330
23
  0
LAYOUT
  5
22
102
{ACAD_REACTORS
330
1A
102
}
330
1A
100
AcDbPlotSettings
  1

  2
none_device
  4
Letter_(8.50_x_11.00_Inches)
  6

 40
6.35
 41
6.35
 42
6.35000508
 43
6.35000508
 44
215.9
 45
279.4
 46
0.0
 47
0.0
 48
0.0
 49
0.0
140
0.0
141
0.0
142
1.0
143
1.0
 70
  1712
 72
     1
 73
     0
 74
     0
  7

 75
     0
147
1.0
148
0.0
149
0.0
100
AcDbLayout
  1
Model
 70
     1
 71
     0
 10
0.0
 20
0.0
 11
1189.0
 21
841.0
 12
0.0
 22
0.0
 32
0.0
 14
0.0
 24
0.0
 34
0.0
 15
1189.0
 25
841.0
 35
0.0
146
0.0
 13
0.0
 23
0.0
 33
0.0
 16
1.0
 26
0.0
 36
0.0
 17
0.0
 27
1.0
 37
0.0
 76
     0
330
1F
331
29
  0
MLINESTYLE
  5
18
102
{ACAD_REACTORS
330
17
102
}
330
17
100
AcDbMlineStyle
  2
Standard
 70
     0
  3

 62
   256
 51
90.0
 52
90.0
 71
     2
 49
0.5
 62
   256
  6
BYLAYER
 49
-0.5
 62
   256
  6
BYLAYER
  0
ACDBPLACEHOLDER
  5
F
102
{ACAD_REACTORS
330
E
102
}
330
E
  0
SCALE
  5
48
102
{ACAD_REACTORS
330
47
102
}
330
47
100
AcDbScale
 70
     0
300
1:1
140
1.0
141
1.0
290
     1
  0
SCALE
  5
49
102
{ACAD_REACTORS
330
47
102
}
330
47
100
AcDbScale
 70
     0
300
1:2
140
1.0
141
2.0
290
     0
  0
SCALE
  5
4A
102
{ACAD_REACTORS
330
47
102
}
330
47
100
AcDbScale
 70
     0
300
1:4
140
1.0
141
4.0
290
     0
  0
SCALE
  5
4B
102
{ACAD_REACTORS
330
47
102
}
330
47
100
AcDbScale
 70
     0
300
1:5
140
1.0
141
5.0
290
     0
  0
SCALE
  5
4C
102
{ACAD_REACTORS
330
47
102
}
330
47
100
AcDbScale
 70
     0
300
1:8
140
1.0
141
8.0
290
     0
  0
SCALE
  5
4D
102
{ACAD_REACTORS
330
47
102
}
330
47
100
AcDbScale
 70
     0
300
1:10
140
1.0
141
10.0
290
     0
  0
SCALE
  5
4E
102
{ACAD_REACTORS
330
47
102
}
330
47
100
AcDbScale
 70
     0
300
1:16
140
1.0
141
16.0
290
     0
  0
SCALE
  5
4F
102
{ACAD_REACTORS
330
47
102
}
330
47
100
AcDbScale
 70
     0
300
1:20
140
1.0
141
20.0
290
     0
  0
SCALE
  5
50
102
{ACAD_REACTORS
330
47
102
}
330
47
100
AcDbScale
 70
     0
300
1:30
140
1.0
141
30.0
290
     0
  0
SCALE
  5
51
102
{ACAD_REACTORS
330
47
102
}
330
47
100
AcDbScale
 70
     0
300
1:40
140
1.0
141
40.0
290
     0
  0
SCALE
  5
52
102
{ACAD_REACTORS
330
47
102
}
330
47
100
AcDbScale
 70
     0
300
1:50
140
1.0
141
50.0
290
     0
  0
SCALE
  5
53
102
{ACAD_REACTORS
330
47
102
}
330
47
100
AcDbScale
 70
     0
300
1:100
140
1.0
141
100.0
290
     0
  0
SCALE
  5
54
102
{ACAD_REACTORS
330
47
102
}
330
47
100
AcDbScale
 70
     0
300
2:1
140
2.0
141
1.0
290
     0
  0
SCALE
  5
55
102
{ACAD_REACTORS
330
47
102
}
330
47
100
AcDbScale
 70
     0
300
4:1
140
4.0
141
1.0
290
     0
  0
SCALE
  5
56
102
{ACAD_REACTORS
330
47
102
}
330
47
100
AcDbScale
 70
     0
300
8:1
140
8.0
141
1.0
290
     0
  0
SCALE
  5
57
102
{ACAD_REACTORS
330
47
102
}
330
47
100
AcDbScale
 70
     0
300
10:1
140
10.0
141
1.0
290
     0
  0
SCALE
  5
58
102
{ACAD_REACTORS
330
47
102
}
330
47
100
AcDbScale
 70
     0
300
100:1
140
100.0
141
1.0
290
     0
  0
SCALE
  5
59
102
{ACAD_REACTORS
330
47
102
}
330
47
100
AcDbScale
 70
     0
300
1/128" = 1'-0"
140
0.0078125
141
12.0
290
     0
  0
SCALE
  5
5A
102
{ACAD_REACTORS
330
47
102
}
330
47
100
AcDbScale
 70
     0
300
1/64" = 1'-0"
140
0.015625
141
12.0
290
     0
  0
SCALE
  5
5B
102
{ACAD_REACTORS
330
47
102
}
330
47
100
AcDbScale
 70
     0
300
1/32" = 1'-0"
140
0.03125
141
12.0
290
     0
  0
SCALE
  5
5C
102
{ACAD_REACTORS
330
47
102
}
330
47
100
AcDbScale
 70
     0
300
1/16" = 1'-0"
140
0.0625
141
12.0
290
     0
  0
SCALE
  5
5D
102
{ACAD_REACTORS
330
47
102
}
330
47
100
AcDbScale
 70
     0
300
3/32" = 1'-0"
140
0.09375
141
12.0
290
     0
  0
SCALE
  5
5E
102
{ACAD_REACTORS
330
47
102
}
330
47
100
AcDbScale
 70
     0
300
1/8" = 1'-0"
140
0.125
141
12.0
290
     0
  0
SCALE
  5
5F
102
{ACAD_REACTORS
330
47
102
}
330
47
100
AcDbScale
 70
     0
300
3/16" = 1'-0"
140
0.1875
141
12.0
290
     0
  0
SCALE
  5
60
102
{ACAD_REACTORS
330
47
102
}
330
47
100
AcDbScale
 70
     0
300
1/4" = 1'-0"
140
0.25
141
12.0
290
     0
  0
SCALE
  5
61
102
{ACAD_REACTORS
330
47
102
}
330
47
100
AcDbScale
 70
     0
300
3/8" = 1'-0"
140
0.375
141
12.0
290
     0
  0
SCALE
  5
62
102
{ACAD_REACTORS
330
47
102
}
330
47
100
AcDbScale
 70
     0
300
1/2" = 1'-0"
140
0.5
141
12.0
290
     0
  0
SCALE
  5
63
102
{ACAD_REACTORS
330
47
102
}
330
47
100
AcDbScale
 70
     0
300
3/4" = 1'-0"
140
0.75
141
12.0
290
     0
  0
SCALE
  5
64
102
{ACAD_REACTORS
330
47
102
}
330
47
100
AcDbScale
 70
     0
300
1" = 1'-0"
140
1.0
141
12.0
290
     0
  0
SCALE
  5
65
102
{ACAD_REACTORS
330
47
102
}
330
47
100
AcDbScale
 70
     0
300
1-1/2" = 1'-0"
140
1.5
141
12.0
290
     0
  0
SCALE
  5
66
102
{ACAD_REACTORS
330
47
102
}
330
47
100
AcDbScale
 70
     0
300
3" = 1'-0"
140
3.0
141
12.0
290
     0
  0
SCALE
  5
67
102
{ACAD_REACTORS
330
47
102
}
330
47
100
AcDbScale
 70
     0
300
6" = 1'-0"
140
6.0
141
12.0
290
     0
  0
SCALE
  5
68
102
{ACAD_REACTORS
330
47
102
}
330
47
100
AcDbScale
 70
     0
300
1'-0" = 1'-0"
140
12.0
141
12.0
290
     0
  0
ENDSEC
  0
EOF
