  0
SECTION
  2
HEADER
  9
$ACADVER
  1
AC1015
  9
$ACADMAINTVER
 70
     6
  9
$DWGCODEPAGE
  3
ANSI_1252
  9
$INSBASE
 10
0.0
 20
0.0
 30
0.0
  9
$EXTMIN
 10
0.0
 20
0.0
 30
0.0
  9
$EXTMAX
 10
1189.0
 20
841.0
 30
0.0
  9
$LIMMIN
 10
0.0
 20
0.0
  9
$LIMMAX
 10
1189.0
 20
841.0
  9
$ORTHOMODE
 70
     0
  9
$REGENMODE
 70
     1
  9
$FILLMODE
 70
     1
  9
$QTEXTMODE
 70
     0
  9
$MIRRTEXT
 70
     1
  9
$LTSCALE
 40
1.0
  9
$ATTMODE
 70
     1
  9
$TEXTSIZE
 40
3.5
  9
$TRACEWID
 40
1.0
  9
$TEXTSTYLE
  7
Standard
  9
$CLAYER
  8
0
  9
$CELTYPE
  6
ByLayer
  9
$CECOLOR
 62
   256
  9
$CELTSCALE
 40
1.0
  9
$DISPSILH
 70
     0
  9
$DIMSCALE
 40
1.0
  9
$DIMASZ
 40
3.302
  9
$DIMEXO
 40
1.0
  9
$DIMDLI
 40
3.75
  9
$DIMRND
 40
0.0
  9
$DIMDLE
 40
0.0
  9
$DIMEXE
 40
1.0
  9
$DIMTP
 40
0.0
  9
$DIMTM
 40
0.0
  9
$DIMTXT
 40
3.5
  9
$DIMCEN
 40
2.5
  9
$DIMTSZ
 40
0.0
  9
$DIMTOL
 70
     0
  9
$DIMLIM
 70
     0
  9
$DIMTIH
 70
     1
  9
$DIMTOH
 70
     1
  9
$DIMSE1
 70
     0
  9
$DIMSE2
 70
     0
  9
$DIMTAD
 70
     1
  9
$DIMZIN
 70
     0
  9
$DIMBLK
  1

  9
$DIMASO
 70
     1
  9
$DIMSHO
 70
     1
  9
$DIMPOST
  1

  9
$DIMAPOST
  1

  9
$DIMALT
 70
     0
  9
$DIMALTD
 70
     3
  9
$DIMALTF
 40
0.0393700787
  9
$DIMLFAC
 40
5.0
  9
$DIMTOFL
 70
     1
  9
$DIMTVP
 40
0.0
  9
$DIMTIX
 70
     0
  9
$DIMSOXD
 70
     0
  9
$DIMSAH
 70
     0
  9
$DIMBLK1
  1

  9
$DIMBLK2
  1

  9
$DIMSTYLE
  2
ISO-25
  9
$DIMCLRD
 70
     0
  9
$DIMCLRE
 70
     0
  9
$DIMCLRT
 70
     0
  9
$DIMTFAC
 40
1.0
  9
$DIMGAP
 40
1.524
  9
$DIMJUST
 70
     0
  9
$DIMSD1
 70
     0
  9
$DIMSD2
 70
     0
  9
$DIMTOLJ
 70
     0
  9
$DIMTZIN
 70
     0
  9
$DIMALTZ
 70
     0
  9
$DIMALTTZ
 70
     0
  9
$DIMUPT
 70
     0
  9
$DIMDEC
 70
     2
  9
$DIMTDEC
 70
     2
  9
$DIMALTU
 70
     2
  9
$DIMALTTD
 70
     3
  9
$DIMTXSTY
  7
Standard
  9
$DIMAUNIT
 70
     0
  9
$DIMADEC
 70
     2
  9
$DIMALTRND
 40
0.0
  9
$DIMAZIN
 70
     0
  9
$DIMDSEP
 70
    44
  9
$DIMATFIT
 70
     3
  9
$DIMFRAC
 70
     0
  9
$DIMLDRBLK
  1

  9
$DIMLUNIT
 70
     2
  9
$DIMLWD
 70
    -2
  9
$DIMLWE
 70
    -2
  9
$DIMTMOVE
 70
     0
  9
$LUNITS
 70
     2
  9
$LUPREC
 70
     2
  9
$SKETCHINC
 40
1.0
  9
$FILLETRAD
 40
10.0
  9
$AUNITS
 70
     0
  9
$AUPREC
 70
     2
  9
$MENU
  1
.
  9
$ELEVATION
 40
0.0
  9
$PELEVATION
 40
0.0
  9
$THICKNESS
 40
0.0
  9
$LIMCHECK
 70
     0
  9
$CHAMFERA
 40
0.0
  9
$CHAMFERB
 40
0.0
  9
$CHAMFERC
 40
0.0
  9
$CHAMFERD
 40
0.0
  9
$SKPOLY
 70
     0
  9
$TDCREATE
 40
2458057.49098419
  9
$TDUCREATE
 40
2458057.49098419
  9
$TDUPDATE
 40
2458057.490984653
  9
$TDUUPDATE
 40
2458057.490984653
  9
$TDINDWG
 40
0.0000000116
  9
$TDUSRTIMER
 40
0.0000000116
  9
$USRTIMER
 70
     1
  9
$ANGBASE
 50
0.0
  9
$ANGDIR
 70
     0
  9
$PDMODE
 70
     0
  9
$PDSIZE
 40
-1.0
  9
$PLINEWID
 40
0.0
  9
$SPLFRAME
 70
     0
  9
$SPLINETYPE
 70
     6
  9
$SPLINESEGS
 70
     8
  9
$HANDSEED
  5
129
  9
$SURFTAB1
 70
     6
  9
$SURFTAB2
 70
     6
  9
$SURFTYPE
 70
     6
  9
$SURFU
 70
     6
  9
$SURFV
 70
     6
  9
$UCSBASE
  2

  9
$UCSNAME
  2

  9
$UCSORG
 10
0.0
 20
0.0
 30
0.0
  9
$UCSXDIR
 10
1.0
 20
0.0
 30
0.0
  9
$UCSYDIR
 10
0.0
 20
1.0
 30
0.0
  9
$UCSORTHOREF
  2

  9
$UCSORTHOVIEW
 70
     0
  9
$UCSORGTOP
 10
0.0
 20
0.0
 30
0.0
  9
$UCSORGBOTTOM
 10
0.0
 20
0.0
 30
0.0
  9
$UCSORGLEFT
 10
0.0
 20
0.0
 30
0.0
  9
$UCSORGRIGHT
 10
0.0
 20
0.0
 30
0.0
  9
$UCSORGFRONT
 10
0.0
 20
0.0
 30
0.0
  9
$UCSORGBACK
 10
0.0
 20
0.0
 30
0.0
  9
$PUCSBASE
  2

  9
$PUCSNAME
  2

  9
$PUCSORG
 10
0.0
 20
0.0
 30
0.0
  9
$PUCSXDIR
 10
1.0
 20
0.0
 30
0.0
  9
$PUCSYDIR
 10
0.0
 20
1.0
 30
0.0
  9
$PUCSORTHOREF
  2

  9
$PUCSORTHOVIEW
 70
     0
  9
$PUCSORGTOP
 10
0.0
 20
0.0
 30
0.0
  9
$PUCSORGBOTTOM
 10
0.0
 20
0.0
 30
0.0
  9
$PUCSORGLEFT
 10
0.0
 20
0.0
 30
0.0
  9
$PUCSORGRIGHT
 10
0.0
 20
0.0
 30
0.0
  9
$PUCSORGFRONT
 10
0.0
 20
0.0
 30
0.0
  9
$PUCSORGBACK
 10
0.0
 20
0.0
 30
0.0
  9
$USERI1
 70
     0
  9
$USERI2
 70
     0
  9
$USERI3
 70
     0
  9
$USERI4
 70
     0
  9
$USERI5
 70
     0
  9
$USERR1
 40
0.0
  9
$USERR2
 40
0.0
  9
$USERR3
 40
0.0
  9
$USERR4
 40
0.0
  9
$USERR5
 40
0.0
  9
$WORLDVIEW
 70
     1
  9
$SHADEDGE
 70
     3
  9
$SHADEDIF
 70
    70
  9
$TILEMODE
 70
     1
  9
$MAXACTVP
 70
    64
  9
$PINSBASE
 10
0.0
 20
0.0
 30
0.0
  9
$PLIMCHECK
 70
     0
  9
$PEXTMIN
 10
1.0000000000E+20
 20
1.0000000000E+20
 30
1.0000000000E+20
  9
$PEXTMAX
 10
-1.0000000000E+20
 20
-1.0000000000E+20
 30
-1.0000000000E+20
  9
$PLIMMIN
 10
0.0
 20
0.0
  9
$PLIMMAX
 10
420.0
 20
297.0
  9
$UNITMODE
 70
     0
  9
$VISRETAIN
 70
     1
  9
$PLINEGEN
 70
     0
  9
$PSLTSCALE
 70
     1
  9
$TREEDEPTH
 70
  3020
  9
$CMLSTYLE
  2
Standard
  9
$CMLJUST
 70
     0
  9
$CMLSCALE
 40
20.0
  9
$PROXYGRAPHICS
 70
     1
  9
$MEASUREMENT
 70
     1
  9
$CELWEIGHT
370
    -1
  9
$ENDCAPS
280
     0
  9
$JOINSTYLE
280
     0
  9
$LWDISPLAY
290
     1
  9
$INSUNITS
 70
     4
  9
$HYPERLINKBASE
  1

  9
$STYLESHEET
  1

  9
$XEDIT
290
     1
  9
$CEPSNTYPE
380
     0
  9
$PSTYLEMODE
290
     1
  9
$FINGERPRINTGUID
  2
{E51EBD4B-0CF4-4C28-A8DC-4349CDCE27AA}
  9
$VERSIONGUID
  2
{FAEB1C32-E019-11D5-929B-00C0DF256EC4}
  9
$EXTNAMES
290
     1
  9
$PSVPSCALE
 40
0.0
  9
$OLESTARTUP
290
     0
  0
ENDSEC
  0
SECTION
  2
CLASSES
  0
CLASS
  1
ACDBDICTIONARYWDFLT
  2
AcDbDictionaryWithDefault
  3
ObjectDBX Classes
 90
        0
280
     0
281
     0
  0
CLASS
  1
VISUALSTYLE
  2
AcDbVisualStyle
  3
ObjectDBX Classes
 90
     4095
280
     0
281
     0
  0
CLASS
  1
MATERIAL
  2
AcDbMaterial
  3
ObjectDBX Classes
 90
     1153
280
     0
281
     0
  0
CLASS
  1
SCALE
  2
AcDbScale
  3
ObjectDBX Classes
 90
     1153
280
     0
281
     0
  0
CLASS
  1
TABLESTYLE
  2
AcDbTableStyle
  3
ObjectDBX Classes
 90
     4095
280
     0
281
     0
  0
CLASS
  1
MLEADERSTYLE
  2
AcDbMLeaderStyle
  3
ACDB_MLEADERSTYLE_CLASS
 90
     4095
280
     0
281
     0
  0
CLASS
  1
SUN
  2
AcDbSun
  3
SCENEOE
 90
     1153
280
     0
281
     0
  0
CLASS
  1
ACDBPLACEHOLDER
  2
AcDbPlaceHolder
  3
ObjectDBX Classes
 90
        0
280
     0
281
     0
  0
CLASS
  1
LAYOUT
  2
AcDbLayout
  3
ObjectDBX Classes
 90
        0
280
     0
281
     0
  0
ENDSEC
  0
SECTION
  2
TABLES
  0
TABLE
  2
VPORT
  5
8
330
0
100
AcDbSymbolTable
 70
     1
  0
VPORT
  5
29
330
8
100
AcDbSymbolTableRecord
100
AcDbViewportTableRecord
  2
*Active
 70
     0
 10
0.0
 20
0.0
 11
1.0
 21
1.0
 12
594.5
 22
420.5
 13
0.0
 23
0.0
 14
10.0
 24
10.0
 15
10.0
 25
10.0
 16
0.0
 26
0.0
 36
1.0
 17
0.0
 27
0.0
 37
0.0
 40
841.0
 41
1.4137931034
 42
50.0
 43
0.0
 44
0.0
 50
0.0
 51
0.0
 71
     0
 72
  2000
 73
     1
 74
     3
 75
     0
 76
     0
 77
     0
 78
     0
281
     0
 65
     1
110
0.0
120
0.0
130
0.0
111
1.0
121
0.0
131
0.0
112
0.0
122
1.0
132
0.0
 79
     0
146
0.0
  0
ENDTAB
  0
TABLE
  2
LTYPE
  5
5
330
0
100
AcDbSymbolTable
 70
     6
  0
LTYPE
  5
14
330
5
100
AcDbSymbolTableRecord
100
AcDbLinetypeTableRecord
  2
ByBlock
 70
     0
  3

 72
    65
 73
     0
 40
0.0
  0
LTYPE
  5
15
330
5
100
AcDbSymbolTableRecord
100
AcDbLinetypeTableRecord
  2
ByLayer
 70
     0
  3

 72
    65
 73
     0
 40
0.0
  0
LTYPE
  5
16
330
5
100
AcDbSymbolTableRecord
100
AcDbLinetypeTableRecord
  2
Continuous
 70
     0
  3
Solid line
 72
    65
 73
     0
 40
0.0
  0
LTYPE
  5
6E
330
5
100
AcDbSymbolTableRecord
100
AcDbLinetypeTableRecord
  2
HIDDEN
 70
     0
  3
Hidden __ __ __ __ __ __ __ __ __ __ __ __ __ __
 72
    65
 73
     2
 40
1.905
 49
1.27
 74
     0
 49
-0.635
 74
     0
  0
LTYPE
  5
6F
330
5
100
AcDbSymbolTableRecord
100
AcDbLinetypeTableRecord
  2
PHANTOM
 70
     0
  3
Phantom ______  __  __  ______  __  __  ______
 72
    65
 73
     6
 40
12.7
 49
6.35
 74
     0
 49
-1.27
 74
     0
 49
1.27
 74
     0
 49
-1.27
 74
     0
 49
1.27
 74
     0
 49
-1.27
 74
     0
  0
LTYPE
  5
70
330
5
100
AcDbSymbolTableRecord
100
AcDbLinetypeTableRecord
  2
CENTER
 70
     0
  3
Center ____ _ ____ _ ____ _ ____ _ ____ _ ____
 72
    65
 73
     4
 40
10.16
 49
6.35
 74
     0
 49
-1.27
 74
     0
 49
1.27
 74
     0
 49
-1.27
 74
     0
  0
LTYPE
  5
71
330
5
100
AcDbSymbolTableRecord
100
AcDbLinetypeTableRecord
  2
CENTERX2
 70
     0
  3
Center (2x) ________  __  ________  __  _____
 72
    65
 73
     4
 40
20.32
 49
12.7
 74
     0
 49
-2.54
 74
     0
 49
2.54
 74
     0
 49
-2.54
 74
     0
  0
LTYPE
  5
72
330
5
100
AcDbSymbolTableRecord
100
AcDbLinetypeTableRecord
  2
DOT2
 70
     0
  3
Dot (.5x) ........................................
 72
    65
 73
     2
 40
0.635
 49
0.0
 74
     0
 49
-0.635
 74
     0
  0
ENDTAB
  0
TABLE
  2
LAYER
  5
2
330
0
100
AcDbSymbolTable
 70
     2
  0
LAYER
  5
10
330
2
100
AcDbSymbolTableRecord
100
AcDbLayerTableRecord
  2
0
 70
     0
 62
     7
  6
Continuous
370
    -3
390
F
  0
LAYER
  5
73
330
2
100
AcDbSymbolTableRecord
100
AcDbLayerTableRecord
  2
FORMAT
 70
     0
 62
     7
  6
Continuous
370
    -3
390
F
  0
ENDTAB
  0
TABLE
  2
STYLE
  5
3
330
0
100
AcDbSymbolTable
 70
     1
  0
STYLE
  5
11
330
3
100
AcDbSymbolTableRecord
100
AcDbTextStyleTableRecord
  2
Standard
 70
     0
 40
0.0
 41
1.0
 50
0.0
 71
     0
 42
3.5
  3
txt
  4

  0
ENDTAB
  0
TABLE
  2
VIEW
  5
6
330
0
100
AcDbSymbolTable
 70
     0
  0
ENDTAB
  0
TABLE
  2
UCS
  5
7
330
0
100
AcDbSymbolTable
 70
     0
  0
ENDTAB
  0
TABLE
  2
APPID
  5
9
330
0
100
AcDbSymbolTable
 70
     1
  0
APPID
  5
12
330
9
100
AcDbSymbolTableRecord
100
AcDbRegAppTableRecord
  2
ACAD
 70
     0
  0
ENDTAB
  0
TABLE
  2
DIMSTYLE
  5
A
330
0
100
AcDbSymbolTable
 70
     1
100
AcDbDimStyleTable
  0
DIMSTYLE
105
27
330
A
100
AcDbSymbolTableRecord
100
AcDbDimStyleTableRecord
  2
ISO-25
 70
     0
 41
2.5
 42
0.625
 43
3.75
 44
1.25
 73
     0
 74
     0
 77
     1
 78
     8
140
2.5
141
2.5
143
0.0393700787
147
0.625
171
     3
172
     1
178
     0
271
     2
272
     2
274
     3
278
    44
283
     0
284
     8
340
11
  0
ENDTAB
  0
TABLE
  2
BLOCK_RECORD
  5
1
330
0
100
AcDbSymbolTable
 70
     5
  0
BLOCK_RECORD
  5
1F
330
1
100
AcDbSymbolTableRecord
100
AcDbBlockTableRecord
  2
*Model_Space
340
22
  0
BLOCK_RECORD
  5
1B
330
1
100
AcDbSymbolTableRecord
100
AcDbBlockTableRecord
  2
*Paper_Space
340
1E
  0
BLOCK_RECORD
  5
23
330
1
100
AcDbSymbolTableRecord
100
AcDbBlockTableRecord
  2
*Paper_Space0
340
26
  0
BLOCK_RECORD
  5
9C
330
1
100
AcDbSymbolTableRecord
100
AcDbBlockTableRecord
  2
SW_CENTERMARKSYMBOL_0
340
0
102
{BLKREFS
331
A7
102
}
  0
BLOCK_RECORD
  5
A8
330
1
100
AcDbSymbolTableRecord
100
AcDbBlockTableRecord
  2
SW_CENTERMARKSYMBOL_1
340
0
102
{BLKREFS
331
B3
102
}
  0
BLOCK_RECORD
  5
B4
330
1
100
AcDbSymbolTableRecord
100
AcDbBlockTableRecord
  2
SW_CENTERMARKSYMBOL_2
340
0
102
{BLKREFS
331
BF
102
}
  0
BLOCK_RECORD
  5
C0
330
1
100
AcDbSymbolTableRecord
100
AcDbBlockTableRecord
  2
SW_CENTERMARKSYMBOL_3
340
0
102
{BLKREFS
331
CB
102
}
  0
ENDTAB
  0
ENDSEC
  0
SECTION
  2
BLOCKS
  0
BLOCK
  5
20
330
1F
100
AcDbEntity
  8
0
100
AcDbBlockBegin
  2
*Model_Space
 70
     0
 10
0.0
 20
0.0
 30
0.0
  3
*Model_Space
  1

  0
ENDBLK
  5
21
330
1F
100
AcDbEntity
  8
0
100
AcDbBlockEnd
  0
BLOCK
  5
1C
330
1B
100
AcDbEntity
 67
     1
  8
0
100
AcDbBlockBegin
  2
*Paper_Space
 70
     0
 10
0.0
 20
0.0
 30
0.0
  3
*Paper_Space
  1

  0
ENDBLK
  5
1D
330
1B
100
AcDbEntity
 67
     1
  8
0
100
AcDbBlockEnd
  0
BLOCK
  5
24
330
23
100
AcDbEntity
  8
0
100
AcDbBlockBegin
  2
*Paper_Space0
 70
     0
 10
0.0
 20
0.0
 30
0.0
  3
*Paper_Space0
  1

  0
ENDBLK
  5
25
330
23
100
AcDbEntity
  8
0
100
AcDbBlockEnd
  0
BLOCK
  5
9D
330
9C
100
AcDbEntity
  8
0
100
AcDbBlockBegin
  2
SW_CENTERMARKSYMBOL_0
 70
     0
 10
0.0
 20
0.0
 30
0.0
  3
SW_CENTERMARKSYMBOL_0
  1

  0
LINE
  5
9F
330
9C
100
AcDbEntity
  8
0
  6
Continuous
 62
     0
370
     0
100
AcDbLine
 10
0.0
 20
0.0
 30
0.0
 11
0.0
 21
0.5
 31
0.0
  0
LINE
  5
A0
330
9C
100
AcDbEntity
  8
0
  6
Continuous
 62
     0
370
     0
100
AcDbLine
 10
0.0
 20
0.0
 30
0.0
 11
-0.5
 21
0.0
 31
0.0
  0
LINE
  5
A1
330
9C
100
AcDbEntity
  8
0
  6
Continuous
 62
     0
370
     0
100
AcDbLine
 10
0.0
 20
0.0
 30
0.0
 11
0.0
 21
-0.5
 31
0.0
  0
LINE
  5
A2
330
9C
100
AcDbEntity
  8
0
  6
Continuous
 62
     0
370
     0
100
AcDbLine
 10
0.0
 20
0.0
 30
0.0
 11
0.5
 21
0.0
 31
0.0
  0
LINE
  5
A3
330
9C
100
AcDbEntity
  8
0
  6
Continuous
 62
     0
370
     0
100
AcDbLine
 10
0.0
 20
1.0
 30
0.0
 11
0.0
 21
3.0
 31
0.0
  0
LINE
  5
A4
330
9C
100
AcDbEntity
  8
0
  6
Continuous
 62
     0
370
     0
100
AcDbLine
 10
-1.0
 20
0.0
 30
0.0
 11
-3.0
 21
0.0
 31
0.0
  0
LINE
  5
A5
330
9C
100
AcDbEntity
  8
0
  6
Continuous
 62
     0
370
     0
100
AcDbLine
 10
0.0
 20
-1.0
 30
0.0
 11
0.0
 21
-3.0
 31
0.0
  0
LINE
  5
A6
330
9C
100
AcDbEntity
  8
0
  6
Continuous
 62
     0
370
     0
100
AcDbLine
 10
1.0
 20
0.0
 30
0.0
 11
3.0
 21
0.0
 31
0.0
  0
ENDBLK
  5
9E
330
9C
100
AcDbEntity
  8
0
100
AcDbBlockEnd
  0
BLOCK
  5
A9
330
A8
100
AcDbEntity
  8
0
100
AcDbBlockBegin
  2
SW_CENTERMARKSYMBOL_1
 70
     0
 10
0.0
 20
0.0
 30
0.0
  3
SW_CENTERMARKSYMBOL_1
  1

  0
LINE
  5
AB
330
A8
100
AcDbEntity
  8
0
  6
Continuous
 62
     0
370
     0
100
AcDbLine
 10
0.0
 20
0.0
 30
0.0
 11
0.0
 21
0.5
 31
0.0
  0
LINE
  5
AC
330
A8
100
AcDbEntity
  8
0
  6
Continuous
 62
     0
370
     0
100
AcDbLine
 10
0.0
 20
0.0
 30
0.0
 11
-0.5
 21
0.0
 31
0.0
  0
LINE
  5
AD
330
A8
100
AcDbEntity
  8
0
  6
Continuous
 62
     0
370
     0
100
AcDbLine
 10
0.0
 20
0.0
 30
0.0
 11
0.0
 21
-0.5
 31
0.0
  0
LINE
  5
AE
330
A8
100
AcDbEntity
  8
0
  6
Continuous
 62
     0
370
     0
100
AcDbLine
 10
0.0
 20
0.0
 30
0.0
 11
0.5
 21
0.0
 31
0.0
  0
LINE
  5
AF
330
A8
100
AcDbEntity
  8
0
  6
Continuous
 62
     0
370
     0
100
AcDbLine
 10
0.0
 20
1.0
 30
0.0
 11
0.0
 21
3.0
 31
0.0
  0
LINE
  5
B0
330
A8
100
AcDbEntity
  8
0
  6
Continuous
 62
     0
370
     0
100
AcDbLine
 10
-1.0
 20
0.0
 30
0.0
 11
-3.0
 21
0.0
 31
0.0
  0
LINE
  5
B1
330
A8
100
AcDbEntity
  8
0
  6
Continuous
 62
     0
370
     0
100
AcDbLine
 10
0.0
 20
-1.0
 30
0.0
 11
0.0
 21
-3.0
 31
0.0
  0
LINE
  5
B2
330
A8
100
AcDbEntity
  8
0
  6
Continuous
 62
     0
370
     0
100
AcDbLine
 10
1.0
 20
0.0
 30
0.0
 11
3.0
 21
0.0
 31
0.0
  0
ENDBLK
  5
AA
330
A8
100
AcDbEntity
  8
0
100
AcDbBlockEnd
  0
BLOCK
  5
B5
330
B4
100
AcDbEntity
  8
0
100
AcDbBlockBegin
  2
SW_CENTERMARKSYMBOL_2
 70
     0
 10
0.0
 20
0.0
 30
0.0
  3
SW_CENTERMARKSYMBOL_2
  1

  0
LINE
  5
B7
330
B4
100
AcDbEntity
  8
0
  6
Continuous
 62
     0
370
     0
100
AcDbLine
 10
0.0
 20
0.0
 30
0.0
 11
0.0
 21
0.5
 31
0.0
  0
LINE
  5
B8
330
B4
100
AcDbEntity
  8
0
  6
Continuous
 62
     0
370
     0
100
AcDbLine
 10
0.0
 20
0.0
 30
0.0
 11
-0.5
 21
0.0
 31
0.0
  0
LINE
  5
B9
330
B4
100
AcDbEntity
  8
0
  6
Continuous
 62
     0
370
     0
100
AcDbLine
 10
0.0
 20
0.0
 30
0.0
 11
0.0
 21
-0.5
 31
0.0
  0
LINE
  5
BA
330
B4
100
AcDbEntity
  8
0
  6
Continuous
 62
     0
370
     0
100
AcDbLine
 10
0.0
 20
0.0
 30
0.0
 11
0.5
 21
0.0
 31
0.0
  0
LINE
  5
BB
330
B4
100
AcDbEntity
  8
0
  6
Continuous
 62
     0
370
     0
100
AcDbLine
 10
0.0
 20
1.0
 30
0.0
 11
0.0
 21
3.0
 31
0.0
  0
LINE
  5
BC
330
B4
100
AcDbEntity
  8
0
  6
Continuous
 62
     0
370
     0
100
AcDbLine
 10
-1.0
 20
0.0
 30
0.0
 11
-3.0
 21
0.0
 31
0.0
  0
LINE
  5
BD
330
B4
100
AcDbEntity
  8
0
  6
Continuous
 62
     0
370
     0
100
AcDbLine
 10
0.0
 20
-1.0
 30
0.0
 11
0.0
 21
-3.0
 31
0.0
  0
LINE
  5
BE
330
B4
100
AcDbEntity
  8
0
  6
Continuous
 62
     0
370
     0
100
AcDbLine
 10
1.0
 20
0.0
 30
0.0
 11
3.0
 21
0.0
 31
0.0
  0
ENDBLK
  5
B6
330
B4
100
AcDbEntity
  8
0
100
AcDbBlockEnd
  0
BLOCK
  5
C1
330
C0
100
AcDbEntity
  8
0
100
AcDbBlockBegin
  2
SW_CENTERMARKSYMBOL_3
 70
     0
 10
0.0
 20
0.0
 30
0.0
  3
SW_CENTERMARKSYMBOL_3
  1

  0
LINE
  5
C3
330
C0
100
AcDbEntity
  8
0
  6
Continuous
 62
     0
370
     0
100
AcDbLine
 10
0.0
 20
0.0
 30
0.0
 11
0.0
 21
0.5
 31
0.0
  0
LINE
  5
C4
330
C0
100
AcDbEntity
  8
0
  6
Continuous
 62
     0
370
     0
100
AcDbLine
 10
0.0
 20
0.0
 30
0.0
 11
-0.5
 21
0.0
 31
0.0
  0
LINE
  5
C5
330
C0
100
AcDbEntity
  8
0
  6
Continuous
 62
     0
370
     0
100
AcDbLine
 10
0.0
 20
0.0
 30
0.0
 11
0.0
 21
-0.5
 31
0.0
  0
LINE
  5
C6
330
C0
100
AcDbEntity
  8
0
  6
Continuous
 62
     0
370
     0
100
AcDbLine
 10
0.0
 20
0.0
 30
0.0
 11
0.5
 21
0.0
 31
0.0
  0
LINE
  5
C7
330
C0
100
AcDbEntity
  8
0
  6
Continuous
 62
     0
370
     0
100
AcDbLine
 10
0.0
 20
1.0
 30
0.0
 11
0.0
 21
3.0
 31
0.0
  0
LINE
  5
C8
330
C0
100
AcDbEntity
  8
0
  6
Continuous
 62
     0
370
     0
100
AcDbLine
 10
-1.0
 20
0.0
 30
0.0
 11
-3.0
 21
0.0
 31
0.0
  0
LINE
  5
C9
330
C0
100
AcDbEntity
  8
0
  6
Continuous
 62
     0
370
     0
100
AcDbLine
 10
0.0
 20
-1.0
 30
0.0
 11
0.0
 21
-3.0
 31
0.0
  0
LINE
  5
CA
330
C0
100
AcDbEntity
  8
0
  6
Continuous
 62
     0
370
     0
100
AcDbLine
 10
1.0
 20
0.0
 30
0.0
 11
3.0
 21
0.0
 31
0.0
  0
ENDBLK
  5
C2
330
C0
100
AcDbEntity
  8
0
100
AcDbBlockEnd
  0
ENDSEC
  0
SECTION
  2
ENTITIES
  0
LINE
  5
74
330
1F
100
AcDbEntity
  8
0
  6
Continuous
 62
     7
370
    15
100
AcDbLine
 10
511.8728089556
 20
207.3882997957
 30
0.0
 11
515.2432554838
 21
195.6591458777
 31
0.0
  0
LINE
  5
75
330
1F
100
AcDbEntity
  8
0
  6
Continuous
 62
     7
370
    15
100
AcDbLine
 10
520.0487853104
 20
197.0400452531
 30
0.0
 11
516.6783387823
 21
208.7691991712
 31
0.0
  0
LINE
  5
76
330
1F
100
AcDbEntity
  8
0
  6
Continuous
 62
     7
370
    15
100
AcDbLine
 10
492.9487662077
 20
273.2439685584
 30
0.0
 11
511.8728089556
 21
207.3882997957
 31
0.0
  0
LINE
  5
77
330
1F
100
AcDbEntity
  8
0
  6
Continuous
 62
     7
370
    15
100
AcDbLine
 10
516.6783387823
 20
208.7691991712
 30
0.0
 11
497.7542960343
 21
274.6248679339
 31
0.0
  0
LINE
  5
78
330
1F
100
AcDbEntity
  8
0
  6
Continuous
 62
     7
370
    15
100
AcDbLine
 10
490.795615234
 20
280.736933947
 30
0.0
 11
492.9487662077
 21
273.2439685584
 31
0.0
  0
LINE
  5
79
330
1F
100
AcDbEntity
  8
0
  6
Continuous
 62
     7
370
    15
100
AcDbLine
 10
497.7542960343
 20
274.6248679339
 30
0.0
 11
495.6011450606
 21
282.1178333225
 31
0.0
  0
ARC
  5
7A
330
1F
100
AcDbEntity
  8
0
  6
Continuous
 62
     7
370
    15
100
AcDbCircle
 10
464.0430999969
 20
277.8495955654
 30
0.0
 40
1.500000000000057
100
AcDbArc
 50
180.0
 51
215.6832106572
  0
ARC
  5
7B
330
1F
100
AcDbEntity
  8
0
  6
Continuous
 62
     7
370
    15
100
AcDbCircle
 10
464.0430999969
 20
277.8495955654
 30
0.0
 40
1.500000000000057
100
AcDbArc
 50
90.0
 51
180.0
  0
ARC
  5
7C
330
1F
100
AcDbEntity
  8
0
  6
Continuous
 62
     7
370
    15
100
AcDbCircle
 10
464.0430999969
 20
277.8495955654
 30
0.0
 40
6.500000000000029
100
AcDbArc
 50
122.204227504
 51
215.6832106572
  0
LINE
  5
7D
330
1F
100
AcDbEntity
  8
0
  6
Continuous
 62
     7
370
    15
100
AcDbLine
 10
464.0430999969
 20
279.3495955654
 30
0.0
 11
491.1942756884
 21
279.3495955654
 31
0.0
  0
LINE
  5
7E
330
1F
100
AcDbEntity
  8
0
  6
Continuous
 62
     7
370
    15
100
AcDbLine
 10
511.2565309883
 20
209.5329471218
 30
0.0
 11
462.8247182668
 21
276.9746407324
 31
0.0
  0
LINE
  5
7F
330
1F
100
AcDbEntity
  8
0
  6
Continuous
 62
     7
370
    15
100
AcDbLine
 10
458.7634458333
 20
274.0581246222
 30
0.0
 11
515.6153841803
 21
194.8913375103
 31
0.0
  0
LINE
  5
80
330
1F
100
AcDbEntity
  8
0
  6
Continuous
 62
     7
370
    15
100
AcDbLine
 10
220.0487853104
 20
195.6591458777
 30
0.0
 11
223.4192318386
 21
207.3882997957
 31
0.0
  0
LINE
  5
81
330
1F
100
AcDbEntity
  8
0
  6
Continuous
 62
     7
370
    15
100
AcDbLine
 10
218.6137020119
 20
208.7691991712
 30
0.0
 11
215.2432554838
 21
197.0400452531
 31
0.0
  0
LINE
  5
82
330
1F
100
AcDbEntity
  8
0
  6
Continuous
 62
     7
370
    15
100
AcDbLine
 10
237.5377447598
 20
274.6248679339
 30
0.0
 11
218.6137020119
 21
208.7691991712
 31
0.0
  0
LINE
  5
83
330
1F
100
AcDbEntity
  8
0
  6
Continuous
 62
     7
370
    15
100
AcDbLine
 10
223.4192318386
 20
207.3882997957
 30
0.0
 11
242.3432745865
 21
273.2439685584
 31
0.0
  0
LINE
  5
84
330
1F
100
AcDbEntity
  8
0
  6
Continuous
 62
     7
370
    15
100
AcDbLine
 10
242.3432745865
 20
273.2439685584
 30
0.0
 11
244.4964255602
 21
280.736933947
 31
0.0
  0
LINE
  5
85
330
1F
100
AcDbEntity
  8
0
  6
Continuous
 62
     7
370
    15
100
AcDbLine
 10
239.6908957336
 20
282.1178333225
 30
0.0
 11
237.5377447598
 21
274.6248679339
 31
0.0
  0
ARC
  5
86
330
1F
100
AcDbEntity
  8
0
  6
Continuous
 62
     7
370
    15
100
AcDbCircle
 10
271.2489407973
 20
277.8495955654
 30
0.0
 40
1.5
100
AcDbArc
 50
324.3167893428
 51
90.0
  0
ARC
  5
87
330
1F
100
AcDbEntity
  8
0
  6
Continuous
 62
     7
370
    15
100
AcDbCircle
 10
271.2489407973
 20
277.8495955654
 30
0.0
 40
6.500000000000029
100
AcDbArc
 50
324.3167893428
 51
57.795772496
  0
LINE
  5
88
330
1F
100
AcDbEntity
  8
0
  6
Continuous
 62
     7
370
    15
100
AcDbLine
 10
244.0977651057
 20
279.3495955654
 30
0.0
 11
271.2489407973
 21
279.3495955654
 31
0.0
  0
LINE
  5
89
330
1F
100
AcDbEntity
  8
0
  6
Continuous
 62
     7
370
    15
100
AcDbLine
 10
219.6766566138
 20
194.8913375103
 30
0.0
 11
276.5285949609
 21
274.0581246222
 31
0.0
  0
LINE
  5
8A
330
1F
100
AcDbEntity
  8
0
  6
Continuous
 62
     7
370
    15
100
AcDbLine
 10
272.4673225273
 20
276.9746407324
 30
0.0
 11
224.0355098059
 21
209.5329471218
 31
0.0
  0
ARC
  5
8B
330
1F
100
AcDbEntity
  8
0
  6
Continuous
 62
     7
370
    15
100
AcDbCircle
 10
517.6460203971
 20
196.3495955654
 30
0.0
 40
2.500000000000005
100
AcDbArc
 50
212.0646787079
 51
16.0323393539
  0
LWPOLYLINE
  5
8C
330
1F
100
AcDbEntity
  8
0
  6
Continuous
 62
     7
370
    15
100
AcDbPolyline
 90
        3
 70
   128
 43
0.0
 10
515.2432554838
 20
195.6591458777
 10
515.3335751781
 20
195.3995444568
 10
515.5273970141
 20
195.0224049381
  0
ARC
  5
8D
330
1F
100
AcDbEntity
  8
0
  6
Continuous
 62
     7
370
    15
100
AcDbCircle
 10
493.1983801473
 20
281.4273836348
 30
0.0
 40
2.500000000000057
100
AcDbArc
 50
129.7461522663
 51
180.0
  0
ARC
  5
8E
330
1F
100
AcDbEntity
  8
0
  6
Continuous
 62
     7
370
    15
100
AcDbCircle
 10
493.1983801473
 20
281.4273836348
 30
0.0
 40
2.499999999999935
100
AcDbArc
 50
16.0323393539
 51
50.2538477337
  0
LWPOLYLINE
  5
8F
330
1F
100
AcDbEntity
  8
0
  6
Continuous
 62
     7
370
    15
100
AcDbPolyline
 90
        3
 70
   128
 43
0.0
 10
490.795615234
 20
280.736933947
 10
490.7343403714
 20
281.0048815839
 10
490.6983801473
 20
281.4273836348
  0
LINE
  5
90
330
1F
100
AcDbEntity
  8
0
  6
Continuous
 62
     7
370
    15
100
AcDbLine
 10
517.6460203971
 20
288.3495955654
 30
0.0
 11
217.6460203971
 21
288.3495955654
 31
0.0
  0
LINE
  5
91
330
1F
100
AcDbEntity
  8
0
  6
Continuous
 62
     7
370
    15
100
AcDbLine
 10
517.6460203971
 20
285.3495955654
 30
0.0
 11
517.6460203971
 21
288.3495955654
 31
0.0
  0
LINE
  5
92
330
1F
100
AcDbEntity
  8
0
  6
Continuous
 62
     7
370
    15
100
AcDbLine
 10
217.6460203971
 20
285.3495955654
 30
0.0
 11
517.6460203971
 21
285.3495955654
 31
0.0
  0
LINE
  5
93
330
1F
100
AcDbEntity
  8
0
  6
Continuous
 62
     7
370
    15
100
AcDbLine
 10
217.6460203971
 20
288.3495955654
 30
0.0
 11
217.6460203971
 21
285.3495955654
 31
0.0
  0
LINE
  5
94
330
1F
100
AcDbEntity
  8
0
  6
Continuous
 62
     7
370
    15
100
AcDbLine
 10
515.6460203971
 20
283.3495955654
 30
0.0
 11
219.6460203971
 21
283.3495955654
 31
0.0
  0
LINE
  5
95
330
1F
100
AcDbEntity
  8
0
  6
Continuous
 62
     7
370
    15
100
AcDbLine
 10
219.6460203971
 20
283.3495955654
 30
0.0
 11
217.6460203971
 21
285.3495955654
 31
0.0
  0
LINE
  5
96
330
1F
100
AcDbEntity
  8
0
  6
Continuous
 62
     7
370
    15
100
AcDbLine
 10
515.6460203971
 20
283.3495955654
 30
0.0
 11
517.6460203971
 21
285.3495955654
 31
0.0
  0
ARC
  5
97
330
1F
100
AcDbEntity
  8
0
  6
Continuous
 62
     7
370
    15
100
AcDbCircle
 10
217.6460203971
 20
196.3495955654
 30
0.0
 40
2.499999999999987
100
AcDbArc
 50
163.9676606461
 51
327.9353212921
  0
LWPOLYLINE
  5
98
330
1F
100
AcDbEntity
  8
0
  6
Continuous
 62
     7
370
    15
100
AcDbPolyline
 90
        3
 70
   128
 43
0.0
 10
220.0487853104
 20
195.6591458777
 10
219.9584656161
 20
195.3995444568
 10
219.7646437801
 20
195.0224049381
  0
ARC
  5
99
330
1F
100
AcDbEntity
  8
0
  6
Continuous
 62
     7
370
    15
100
AcDbCircle
 10
242.0936606469
 20
281.4273836348
 30
0.0
 40
2.500000000000028
100
AcDbArc
 50
0.0
 51
50.2538477337
  0
ARC
  5
9A
330
1F
100
AcDbEntity
  8
0
  6
Continuous
 62
     7
370
    15
100
AcDbCircle
 10
242.0936606469
 20
281.4273836348
 30
0.0
 40
2.499999999999989
100
AcDbArc
 50
129.7461522663
 51
163.9676606461
  0
LWPOLYLINE
  5
9B
330
1F
100
AcDbEntity
  8
0
  6
Continuous
 62
     7
370
    15
100
AcDbPolyline
 90
        3
 70
   128
 43
0.0
 10
244.4964255602
 20
280.736933947
 10
244.5577004228
 20
281.0048815839
 10
244.5936606469
 20
281.4273836348
  0
INSERT
  5
A7
330
1F
100
AcDbEntity
  8
0
  6
Continuous
 62
     7
370
     0
100
AcDbBlockReference
  2
SW_CENTERMARKSYMBOL_0
 10
242.0936606469
 20
281.4273836348
 30
0.0
  0
INSERT
  5
B3
330
1F
100
AcDbEntity
  8
0
  6
Continuous
 62
     7
370
     0
100
AcDbBlockReference
  2
SW_CENTERMARKSYMBOL_1
 10
217.6460203971
 20
196.3495955654
 30
0.0
  0
INSERT
  5
BF
330
1F
100
AcDbEntity
  8
0
  6
Continuous
 62
     7
370
     0
100
AcDbBlockReference
  2
SW_CENTERMARKSYMBOL_2
 10
493.1983801473
 20
281.4273836348
 30
0.0
  0
INSERT
  5
CB
330
1F
100
AcDbEntity
  8
0
  6
Continuous
 62
     7
370
     0
100
AcDbBlockReference
  2
SW_CENTERMARKSYMBOL_3
 10
517.6460203971
 20
196.3495955654
 30
0.0
  0
LWPOLYLINE
  5
CC
330
1F
100
AcDbEntity
  8
0
  6
Continuous
 62
     7
370
    15
100
AcDbPolyline
 90
       27
 70
   128
 43
0.0
 10
870.7539742534
 20
193.8495955654
 10
871.2722207125
 20
193.8600063231
 10
872.1607064685
 20
193.9265136204
 10
873.0422763385
 20
194.0542104956
 10
873.9123001789
 20
194.242462249
 10
874.7663288256
 20
194.4903257108
 10
875.5999918595
 20
194.7965480405
 10
876.4090210578
 20
195.1595722609
 10
877.1892736842
 20
195.5775445839
 10
877.9367553991
 20
196.0483236
 10
878.6476425851
 20
196.5694913927
 10
879.3183038508
 20
197.1383666047
 10
879.9453204397
 20
197.7520194321
 10
880.5255052584
 20
198.4072884604
 10
881.0559202452
 20
199.1007991862
 10
881.5338918256
 20
199.8289839963
 10
881.9570242546
 20
200.5881033147
 10
882.3232107194
 20
201.3742675818
 10
882.630642159
 20
202.1834597069
 10
882.8778138521
 20
203.0115576401
 10
883.0635299084
 20
203.8543567458
 10
883.1869058727
 20
204.7075917146
 10
883.2473696963
 20
205.5669578349
 10
883.2446613527
 20
206.4281315302
 10
883.1788315233
 20
207.2867887283
 10
883.0502451631
 20
208.1385955075
 10
882.9417726951
 20
208.6508517099
  0
LWPOLYLINE
  5
CD
330
1F
100
AcDbEntity
  8
0
  6
Continuous
 62
     7
370
    15
100
AcDbPolyline
 90
       22
 70
   128
 43
0.0
 10
878.0744534977
 20
207.506647257
 10
878.1355153996
 20
207.2190698314
 10
878.2260607359
 20
206.5733727885
 10
878.2538639459
 20
205.9221023204
 10
878.218551708
 20
205.2705992044
 10
878.120305399
 20
204.6245712918
 10
877.9599266538
 20
203.9896884976
 10
877.7388041176
 20
203.3714558549
 10
877.4588895097
 20
202.7752032812
 10
877.1226616201
 20
202.206025121
 10
876.7330838419
 20
201.66873208
 10
876.2935600641
 20
201.1678147982
 10
875.8078921352
 20
200.7074163822
 10
875.2802401843
 20
200.2913106279
 10
874.7150855059
 20
199.9228831188
 10
874.1171947906
 20
199.6051133876
 10
873.491584206
 20
199.3405574271
 10
872.8434820249
 20
199.1313307274
 10
872.1782889433
 20
198.9790926014
 10
871.5015357538
 20
198.885032832
 10
870.8550554887
 20
198.8502418837
 10
870.7539742534
 20
198.8495955654
  0
LINE
  5
CE
330
1F
100
AcDbEntity
  8
0
  6
Continuous
 62
     7
370
    15
100
AcDbLine
 10
795.7768071173
 20
193.8495955654
 30
0.0
 11
870.7539742534
 21
193.8495955654
 31
0.0
  0
LINE
  5
CF
330
1F
100
AcDbEntity
  8
0
  6
Continuous
 62
     7
370
    15
100
AcDbLine
 10
831.2347544686
 20
198.8495955654
 30
0.0
 11
795.7768071173
 21
198.8495955654
 31
0.0
  0
LINE
  5
D0
330
1F
100
AcDbEntity
  8
0
  6
Continuous
 62
     7
370
    15
100
AcDbLine
 10
870.7539742534
 20
198.8495955654
 30
0.0
 11
835.7833795941
 21
198.8495955654
 31
0.0
  0
LWPOLYLINE
  5
D1
330
1F
100
AcDbEntity
  8
0
  6
Continuous
 62
     7
370
    15
100
AcDbPolyline
 90
       27
 70
   128
 43
0.0
 10
783.5890086755
 20
208.6508517099
 10
783.4829390926
 20
208.1512954686
 10
783.3533576497
 20
207.2991158268
 10
783.2866059201
 20
206.4401671381
 10
783.2830143899
 20
205.5789794898
 10
783.3425634179
 20
204.7198766147
 10
783.4649192614
 20
203.8671949551
 10
783.6494413154
 20
203.0252025321
 10
783.8951880363
 20
202.1981084722
 10
784.2009215153
 20
201.3900471572
 10
784.565112701
 20
200.6050605981
 10
784.9859473221
 20
199.8470808063
 10
785.4613326796
 20
199.1199120774
 10
785.9889055069
 20
198.4272131753
 10
786.5660410972
 20
197.77247948
 10
787.1898638721
 20
197.1590252396
 10
787.857259515
 20
196.5899661178
 10
788.5648887342
 20
196.0682022735
 10
789.3092026462
 20
195.5964022162
 10
790.0864597056
 20
195.1769876807
 10
790.8927440534
 20
194.8121197278
 10
791.723985111
 20
194.5036862467
 10
792.575978226
 20
194.2532909774
 10
793.444406173
 20
194.06224413
 10
794.3248613194
 20
193.9315546323
 10
795.212868292
 20
193.8619240039
 10
795.7768071173
 20
193.8495955654
  0
LWPOLYLINE
  5
D2
330
1F
100
AcDbEntity
  8
0
  6
Continuous
 62
     7
370
    15
100
AcDbPolyline
 90
       22
 70
   128
 43
0.0
 10
795.7768071173
 20
198.8495955654
 10
795.4593693123
 20
198.8559722842
 10
794.7788781629
 20
198.912868263
 10
794.1067406983
 20
199.0282563648
 10
793.4486851883
 20
199.2011060935
 10
792.8101108239
 20
199.4299323244
 10
792.1962414161
 20
199.7128055871
 10
791.6120860085
 20
200.0473742867
 10
791.062403812
 20
200.4308898689
 10
790.5516739249
 20
200.8602334681
 10
790.0840696623
 20
201.3319424197
 10
789.6634366672
 20
201.8422350557
 10
789.2932732665
 20
202.3870325556
 10
788.9767109237
 20
202.9619773704
 10
788.7164923267
 20
203.5624489032
 10
788.5149449111
 20
204.183578594
 10
788.3739486574
 20
204.8202679901
 10
788.2948988579
 20
205.4672142829
 10
788.278666895
 20
206.1189475603
 10
788.3255642131
 20
206.7698823049
 10
788.4278203762
 20
207.3799527908
 10
788.456327873
 20
207.506647257
  0
LINE
  5
D3
330
1F
100
AcDbEntity
  8
0
  6
Continuous
 62
     7
370
    15
100
AcDbLine
 10
835.7653906853
 20
198.9189982483
 30
0.0
 11
835.7653906853
 21
275.5163826773
 31
0.0
  0
LINE
  5
D4
330
1F
100
AcDbEntity
  8
0
  6
Continuous
 62
     7
370
    15
100
AcDbLine
 10
830.7653906853
 20
275.5163826773
 30
0.0
 11
830.7653906853
 21
198.8495955654
 31
0.0
  0
LWPOLYLINE
  5
D5
330
1F
100
AcDbEntity
  8
0
  6
Continuous
 62
     7
370
    15
100
AcDbPolyline
 90
        5
 70
   128
 43
0.0
 10
835.8334254711
 20
198.8466650951
 10
835.8248968265
 20
198.8509519695
 10
835.7838083828
 20
198.8850918749
 10
835.7612922219
 20
198.9202853656
 10
835.7617778761
 20
198.9171225437
  0
LINE
  5
D6
330
1F
100
AcDbEntity
  8
0
  6
Continuous
 62
     7
370
    15
100
AcDbLine
 10
882.9417726951
 20
208.6508517099
 30
0.0
 11
867.4604889765
 21
274.5065204726
 31
0.0
  0
LINE
  5
D7
330
1F
100
AcDbEntity
  8
0
  6
Continuous
 62
     7
370
    15
100
AcDbLine
 10
862.593169779
 20
273.3623160197
 30
0.0
 11
878.0744534977
 21
207.506647257
 31
0.0
  0
LINE
  5
D8
330
1F
100
AcDbEntity
  8
0
  6
Continuous
 62
     7
370
    15
100
AcDbLine
 10
799.0702923942
 20
274.5065204726
 30
0.0
 11
783.5890086755
 21
208.6508517099
 31
0.0
  0
LINE
  5
D9
330
1F
100
AcDbEntity
  8
0
  6
Continuous
 62
     7
370
    15
100
AcDbLine
 10
788.456327873
 20
207.506647257
 30
0.0
 11
803.9376115916
 21
273.3623160197
 31
0.0
  0
ARC
  5
DA
330
1F
100
AcDbEntity
  8
0
  6
Continuous
 62
     7
370
    15
100
AcDbCircle
 10
855.5391808526
 20
271.6039235461
 30
0.0
 40
12.26958256431403
100
AcDbArc
 50
13.6840994127
 51
73.1961455526
  0
LWPOLYLINE
  5
DB
330
1F
100
AcDbEntity
  8
0
  6
Continuous
 62
     7
370
    15
100
AcDbPolyline
 90
       17
 70
   128
 43
0.0
 10
855.2726905347
 20
278.9273836348
 10
855.5901283397
 20
278.921006916
 10
856.2706194892
 20
278.8641109371
 10
856.9427569538
 20
278.7487228354
 10
857.6008124637
 20
278.5758731066
 10
858.2393868282
 20
278.3470468757
 10
858.853256236
 20
278.064173613
 10
859.4374116436
 20
277.7296049134
 10
859.98709384
 20
277.3460893312
 10
860.4978237271
 20
276.916745732
 10
860.9654279897
 20
276.4450367805
 10
861.3860609849
 20
275.9347441445
 10
861.7562243855
 20
275.3899466445
 10
862.0727867284
 20
274.8150018298
 10
862.3330053254
 20
274.214530297
 10
862.534552741
 20
273.5934006062
 10
862.593169779
 20
273.3623160197
  0
ARC
  5
DC
330
1F
100
AcDbEntity
  8
0
  6
Continuous
 62
     7
370
    15
100
AcDbCircle
 10
810.9643020699
 20
271.6225903747
 30
0.0
 40
12.23864857636971
100
AcDbArc
 50
106.6256756947
 51
166.3705764199
  0
LWPOLYLINE
  5
DD
330
1F
100
AcDbEntity
  8
0
  6
Continuous
 62
     7
370
    15
100
AcDbPolyline
 90
       17
 70
   128
 43
0.0
 10
803.9376115916
 20
273.3623160197
 10
804.0111827305
 20
273.6474224019
 10
804.2188031582
 20
274.269437311
 10
804.4858093706
 20
274.8710390762
 10
804.8097251445
 20
275.4466794891
 10
805.1876910536
 20
275.9914805034
 10
805.6163976233
 20
276.5008774906
 10
806.0921281691
 20
276.9706478411
 10
806.6107991336
 20
277.3969337365
 10
807.1679976885
 20
277.7762614961
 10
807.7590176759
 20
278.1055595528
 10
808.3788953689
 20
278.3821760093
 10
809.0224464271
 20
278.6038957683
 10
809.6843050162
 20
278.7689565782
 10
810.3589655426
 20
278.8760629983
 10
811.0408269524
 20
278.9243972088
 10
811.2580908359
 20
278.9273836348
  0
LINE
  5
DE
330
1F
100
AcDbEntity
  8
0
  6
Continuous
 62
     7
370
    15
100
AcDbLine
 10
811.2580908359
 20
278.9273836348
 30
0.0
 11
855.2726905347
 21
278.9273836348
 31
0.0
  0
LINE
  5
DF
330
1F
100
AcDbEntity
  8
0
  6
Continuous
 62
     7
370
    15
100
AcDbLine
 10
830.7653906853
 20
278.9273836348
 30
0.0
 11
830.7653906853
 21
275.5163826773
 31
0.0
  0
LINE
  5
E0
330
1F
100
AcDbEntity
  8
0
  6
Continuous
 62
     7
370
    15
100
AcDbLine
 10
835.7653906853
 20
275.5163826773
 30
0.0
 11
835.7653906853
 21
278.9273836348
 31
0.0
  0
ELLIPSE
  5
E1
330
1F
100
AcDbEntity
  8
0
  6
Continuous
 62
     7
370
    15
100
AcDbEllipse
 10
833.2653906853
 20
196.3495955654
 30
0.0
 11
3.01414032705577
 21
2.315222154249199
 31
0.0
210
0.0
220
0.0
230
1.0
 40
0.3129461741
 41
0.3704558314381226
 42
0.386884989024259
  0
ELLIPSE
  5
E2
330
1F
100
AcDbEntity
  8
0
  6
Continuous
 62
     7
370
    15
100
AcDbEllipse
 10
833.2653906853
 20
196.3495955654
 30
0.0
 11
-2.379767902747517
 21
2.379767902747517
 31
0.0
210
0.0
220
0.0
230
1.0
 40
0.3218660659
 41
5.023783737210278
 42
5.971790550354068
  0
LINE
  5
E3
330
1F
100
AcDbEntity
  8
0
  6
Continuous
 62
     7
370
    15
100
AcDbLine
 10
876.2653906853
 20
283.3495955654
 30
0.0
 11
790.2653906853
 21
283.3495955654
 31
0.0
  0
LINE
  5
E4
330
1F
100
AcDbEntity
  8
0
  6
Continuous
 62
     7
370
    15
100
AcDbLine
 10
790.2653906853
 20
283.3495955654
 30
0.0
 11
788.2653906853
 21
285.3495955654
 31
0.0
  0
LINE
  5
E5
330
1F
100
AcDbEntity
  8
0
  6
Continuous
 62
     7
370
    15
100
AcDbLine
 10
788.2653906853
 20
285.3495955654
 30
0.0
 11
878.2653906853
 21
285.3495955654
 31
0.0
  0
LINE
  5
E6
330
1F
100
AcDbEntity
  8
0
  6
Continuous
 62
     7
370
    15
100
AcDbLine
 10
878.2653906853
 20
285.3495955654
 30
0.0
 11
876.2653906853
 21
283.3495955654
 31
0.0
  0
LINE
  5
E7
330
1F
100
AcDbEntity
  8
0
  6
Continuous
 62
     7
370
    15
100
AcDbLine
 10
788.2653906853
 20
288.3495955654
 30
0.0
 11
878.2653906853
 21
288.3495955654
 31
0.0
  0
LINE
  5
E8
330
1F
100
AcDbEntity
  8
0
  6
Continuous
 62
     7
370
    15
100
AcDbLine
 10
788.2653906853
 20
285.3495955654
 30
0.0
 11
788.2653906853
 21
288.3495955654
 31
0.0
  0
LINE
  5
E9
330
1F
100
AcDbEntity
  8
0
  6
Continuous
 62
     7
370
    15
100
AcDbLine
 10
878.2653906853
 20
285.3495955654
 30
0.0
 11
878.2653906853
 21
288.3495955654
 31
0.0
  0
LINE
  5
EA
330
1F
100
AcDbEntity
  8
0
  6
Continuous
 62
     7
370
    15
100
AcDbLine
 10
512.6926033638
 20
614.8414031139
 30
0.0
 11
507.5858371484
 21
610.663686031
 31
0.0
  0
LINE
  5
EB
330
1F
100
AcDbEntity
  8
0
  6
Continuous
 62
     7
370
    15
100
AcDbLine
 10
515.4823835208
 20
610.663686031
 30
0.0
 11
515.8585443741
 21
610.9714137703
 31
0.0
  0
LINE
  5
EC
330
1F
100
AcDbEntity
  8
0
  6
Continuous
 62
     7
370
    15
100
AcDbLine
 10
507.5858371484
 20
520.663686031
 30
0.0
 11
512.6926033638
 21
516.4859689482
 31
0.0
  0
LINE
  5
ED
330
1F
100
AcDbEntity
  8
0
  6
Continuous
 62
     7
370
    15
100
AcDbLine
 10
515.8585443741
 20
520.3559582918
 30
0.0
 11
515.4823835208
 21
520.663686031
 31
0.0
  0
LWPOLYLINE
  5
EE
330
1F
100
AcDbEntity
  8
0
  6
Continuous
 62
     7
370
    15
100
AcDbPolyline
 90
       30
 70
   128
 43
0.0
 10
520.1460203971
 20
603.1522695991
 10
520.1434416656
 20
603.5989849201
 10
520.1243940042
 20
604.4439652345
 10
520.0868418453
 20
605.2825921307
 10
520.0308364668
 20
606.1109758624
 10
519.9564083086
 20
606.9255340856
 10
519.8635354945
 20
607.7229164151
 10
519.7520890838
 20
608.5000968574
 10
519.6217454155
 20
609.2544857092
 10
519.4718450776
 20
609.984070725
 10
519.3011616562
 20
610.6875992922
 10
519.1075141289
 20
611.3648078499
 10
518.8871110749
 20
612.0166623547
 10
518.6334912683
 20
612.6453706762
 10
518.336258915
 20
613.2530853736
 10
518.0285775749
 20
613.7667867299
 10
517.7110268927
 20
614.1995661774
 10
517.3840876823
 20
614.5623033552
 10
517.0427021905
 20
614.8682198828
 10
516.6827378625
 20
615.1241947449
 10
516.302379128
 20
615.331988249
 10
515.902504547
 20
615.4902470501
 10
515.4865624705
 20
615.5962949761
 10
515.0221967749
 20
615.6493512336
 10
514.5653284653
 20
615.6366564336
 10
514.1246287037
 20
615.5628956292
 10
513.7064526381
 20
615.4340527909
 10
513.313615995
 20
615.2558308498
 10
512.9466506044
 20
615.0326710708
 10
512.6926033638
 20
614.8414031139
  0
LWPOLYLINE
  5
EF
330
1F
100
AcDbEntity
  8
0
  6
Continuous
 62
     7
370
    15
100
AcDbPolyline
 90
       30
 70
   128
 43
0.0
 10
512.6926033638
 20
516.4859689482
 10
513.010967887
 20
516.2512667726
 10
513.3872735377
 20
516.0335978829
 10
513.783390834
 20
515.8650956576
 10
514.1964615999
 20
515.7482290671
 10
514.6613679372
 20
515.682720148
 10
515.1204083451
 20
515.6836598897
 10
515.5647483712
 20
515.7466857051
 10
515.9873218279
 20
515.8658981881
 10
516.3849024998
 20
516.0354686673
 10
516.7565366782
 20
516.250647031
 10
517.1035568172
 20
516.5088501737
 10
517.4293868727
 20
516.8109370168
 10
517.7390350814
 20
517.1625360735
 10
518.0380482662
 20
517.5749019348
 10
518.3301704905
 20
518.0630746109
 10
518.6128013085
 20
518.6355553602
 10
518.8749778795
 20
519.2779135394
 10
519.1051096436
 20
519.9548263898
 10
519.3053480412
 20
520.6557082487
 10
519.4797681278
 20
521.378932319
 10
519.6314067807
 20
522.1244275634
 10
519.762148732
 20
522.8915684382
 10
519.8730913091
 20
523.6788922533
 10
519.9648462931
 20
524.4842159103
 10
520.0377374474
 20
525.3047988524
 10
520.0919244022
 20
526.1374846886
 10
520.1274799678
 20
526.9788164787
 10
520.1444379165
 20
527.8251319647
 10
520.1460203971
 20
528.175102463
  0
LINE
  5
F0
330
1F
100
AcDbEntity
  8
0
  6
Continuous
 62
     7
370
    15
100
AcDbLine
 10
520.1460203971
 20
528.175102463
 30
0.0
 11
520.1460203971
 21
603.1522695991
 31
0.0
  0
LINE
  5
F1
330
1F
100
AcDbEntity
  8
0
  6
Continuous
 62
     7
370
    15
100
AcDbLine
 10
219.4334964201
 20
610.9714137703
 30
0.0
 11
219.8096572733
 21
610.663686031
 31
0.0
  0
LINE
  5
F2
330
1F
100
AcDbEntity
  8
0
  6
Continuous
 62
     7
370
    15
100
AcDbLine
 10
227.7062036457
 20
610.663686031
 30
0.0
 11
222.5994374304
 21
614.8414031139
 31
0.0
  0
LINE
  5
F3
330
1F
100
AcDbEntity
  8
0
  6
Continuous
 62
     7
370
    15
100
AcDbLine
 10
219.8096572733
 20
520.663686031
 30
0.0
 11
219.4334964201
 21
520.3559582918
 31
0.0
  0
LINE
  5
F4
330
1F
100
AcDbEntity
  8
0
  6
Continuous
 62
     7
370
    15
100
AcDbLine
 10
222.5994374304
 20
516.4859689482
 30
0.0
 11
227.7062036457
 21
520.663686031
 31
0.0
  0
LWPOLYLINE
  5
F5
330
1F
100
AcDbEntity
  8
0
  6
Continuous
 62
     7
370
    15
100
AcDbPolyline
 90
       30
 70
   128
 43
0.0
 10
222.5994374304
 20
614.8414031139
 10
222.2810729071
 20
615.0761052894
 10
221.9047672565
 20
615.2937741792
 10
221.5086499602
 20
615.4622764045
 10
221.0955791943
 20
615.579142995
 10
220.630672857
 20
615.644651914
 10
220.171632449
 20
615.6437121724
 10
219.727292423
 20
615.580686357
 10
219.3047189662
 20
615.461473874
 10
218.9071382944
 20
615.2919033948
 10
218.535504116
 20
615.0767250311
 10
218.1884839769
 20
614.8185218884
 10
217.8626539215
 20
614.5164350453
 10
217.5530057128
 20
614.1648359886
 10
217.253992528
 20
613.7524701272
 10
216.9618703037
 20
613.2642974512
 10
216.6792394857
 20
612.6918167019
 10
216.4170629147
 20
612.0494585227
 10
216.1869311506
 20
611.3725456723
 10
215.9866927529
 20
610.6716638134
 10
215.8122726664
 20
609.9484397431
 10
215.6606340135
 20
609.2029444987
 10
215.5298920622
 20
608.4358036239
 10
215.4189494851
 20
607.6484798088
 10
215.3271945011
 20
606.8431561518
 10
215.2543033468
 20
606.0225732097
 10
215.200116392
 20
605.1898873735
 10
215.1645608264
 20
604.3485555834
 10
215.1476028777
 20
603.5022400973
 10
215.1460203971
 20
603.1522695991
  0
LWPOLYLINE
  5
F6
330
1F
100
AcDbEntity
  8
0
  6
Continuous
 62
     7
370
    15
100
AcDbPolyline
 90
       30
 70
   128
 43
0.0
 10
215.1460203971
 20
528.175102463
 10
215.1485991286
 20
527.728387142
 10
215.16764679
 20
526.8834068276
 10
215.2051989489
 20
526.0447799314
 10
215.2612043274
 20
525.2163961997
 10
215.3356324856
 20
524.4018379765
 10
215.4285052997
 20
523.604455647
 10
215.5399517104
 20
522.8272752046
 10
215.6702953787
 20
522.0728863529
 10
215.8201957165
 20
521.3433013371
 10
215.990879138
 20
520.6397727699
 10
216.1845266653
 20
519.9625642122
 10
216.4049297193
 20
519.3107097074
 10
216.6585495259
 20
518.6820013859
 10
216.9557818792
 20
518.0742866885
 10
217.2634632192
 20
517.5605853322
 10
217.5810139014
 20
517.1278058847
 10
217.9079531119
 20
516.7650687069
 10
218.2493386037
 20
516.4591521793
 10
218.6093029317
 20
516.2031773172
 10
218.9896616662
 20
515.9953838131
 10
219.3895362472
 20
515.837125012
 10
219.8054783237
 20
515.731077086
 10
220.2698440193
 20
515.6780208285
 10
220.7267123289
 20
515.6907156284
 10
221.1674120905
 20
515.7644764329
 10
221.5855881561
 20
515.8933192712
 10
221.9784247992
 20
516.0715412122
 10
222.3453901898
 20
516.2947009913
 10
222.5994374304
 20
516.4859689482
  0
LINE
  5
F7
330
1F
100
AcDbEntity
  8
0
  6
Continuous
 62
     7
370
    15
100
AcDbLine
 10
215.1460203971
 20
603.1522695991
 30
0.0
 11
215.1460203971
 21
528.175102463
 31
0.0
  0
ELLIPSE
  5
F8
330
1F
100
AcDbEntity
  8
0
  6
Continuous
 62
     7
370
    15
100
AcDbEllipse
 10
517.6460203971
 20
565.663686031
 30
0.0
 11
2.224370151041398
 21
2.224370151041512
 31
0.0
210
0.0
220
0.0
230
1.0
 40
0.51301259
 41
4.238385573812794
 42
5.186392386956611
  0
LINE
  5
F9
330
1F
100
AcDbEntity
  8
0
  6
Continuous
 62
     7
370
    15
100
AcDbLine
 10
517.6460203971
 20
520.663686031
 30
0.0
 11
517.6460203971
 21
610.663686031
 31
0.0
  0
LINE
  5
FA
330
1F
100
AcDbEntity
  8
0
  6
Continuous
 62
     7
370
    15
100
AcDbLine
 10
517.6460203971
 20
520.663686031
 30
0.0
 11
217.6460203971
 21
520.663686031
 31
0.0
  0
LINE
  5
FB
330
1F
100
AcDbEntity
  8
0
  6
Continuous
 62
     7
370
    15
100
AcDbLine
 10
217.6460203971
 20
520.663686031
 30
0.0
 11
217.6460203971
 21
610.663686031
 31
0.0
  0
LINE
  5
FC
330
1F
100
AcDbEntity
  8
0
  6
Continuous
 62
     7
370
    15
100
AcDbLine
 10
517.6460203971
 20
610.663686031
 30
0.0
 11
217.6460203971
 21
610.663686031
 31
0.0
  0
ELLIPSE
  5
FD
330
1F
100
AcDbEntity
  8
0
  6
Continuous
 62
     7
370
    15
100
AcDbEllipse
 10
217.6460203971
 20
565.663686031
 30
0.0
 11
2.224370151041398
 21
-2.224370151041285
 31
0.0
210
0.0
220
0.0
230
1.0
 40
0.51301259
 41
4.238385573812753
 42
5.186392386956562
  0
LINE
  5
FE
330
1F
100
AcDbEntity
  8
0
  6
Continuous
 62
     7
370
    15
100
AcDbLine
 10
880.8066101555
 20
512.225765116
 30
0.0
 11
883.2410084111
 21
444.4075300686
 31
0.0
  0
LINE
  5
FF
330
1F
100
AcDbEntity
  8
0
  6
Continuous
 62
     7
370
    15
100
AcDbLine
 10
888.2377902273
 20
444.5868941722
 30
0.0
 11
885.9140677319
 21
509.3218889558
 31
0.0
  0
LINE
  5
100
330
1F
100
AcDbEntity
  8
0
  6
Continuous
 62
     7
370
    15
100
AcDbLine
 10
880.8055274826
 20
512.2709864683
 30
0.0
 11
880.8066101555
 21
512.225765116
 31
0.0
  0
LINE
  5
101
330
1F
100
AcDbEntity
  8
0
  6
Continuous
 62
     7
370
    15
100
AcDbLine
 10
922.7622935172
 20
456.1401965865
 30
0.0
 11
897.3974402951
 21
511.5701300314
 31
0.0
  0
LINE
  5
102
330
1F
100
AcDbEntity
  8
0
  6
Continuous
 62
     7
370
    15
100
AcDbLine
 10
893.047832351
 20
509.0591548129
 30
0.0
 11
918.3085957259
 21
453.8566894022
 31
0.0
  0
LWPOLYLINE
  5
103
330
1F
100
AcDbEntity
  8
0
  6
Continuous
 62
     7
370
    15
100
AcDbPolyline
 90
       28
 70
   128
 43
0.0
 10
883.2410084111
 20
444.4075300686
 10
883.2660779132
 20
443.9253907501
 10
883.3508729944
 20
443.0611500388
 10
883.4866048498
 20
442.2121378752
 10
883.6731806513
 20
441.3832266553
 10
883.9102277331
 20
440.5790734895
 10
884.1970454936
 20
439.8043153063
 10
884.5325162329
 20
439.0636405469
 10
884.9150342166
 20
438.3617142024
 10
885.3424585093
 20
437.7030602325
 10
885.8121100042
 20
437.0919119139
 10
886.3208253741
 20
436.5320561246
 10
886.8650646562
 20
436.0267065872
 10
887.4410519588
 20
435.5784360682
 10
888.0449198012
 20
435.1891793359
 10
888.6728312091
 20
434.860297147
 10
889.3210657795
 20
434.5926777671
 10
889.9860682298
 20
434.3868507032
 10
890.6644647349
 20
434.2430936426
 10
891.3528550277
 20
434.1615359182
 10
892.0478202492
 20
434.1421354462
 10
892.7464424164
 20
434.1847074326
 10
893.4458702465
 20
434.2890372234
 10
894.1432357034
 20
434.4548600027
 10
894.8355714731
 20
434.6818008339
 10
895.5197455895
 20
434.9692811013
 10
896.1671042742
 20
435.3021309659
 10
896.2697810512
 20
435.3606061961
  0
LWPOLYLINE
  5
104
330
1F
100
AcDbEntity
  8
0
  6
Continuous
 62
     7
370
    15
100
AcDbPolyline
 90
       22
 70
   128
 43
0.0
 10
893.7699842196
 20
439.690850508
 10
893.5724477404
 20
439.5826591212
 10
893.1710535193
 20
439.3985707627
 10
892.7790825607
 20
439.2651763342
 10
892.39518426
 20
439.180130446
 10
892.0179048547
 20
439.1428283545
 10
891.6432049992
 20
439.1546378046
 10
891.2655026917
 20
439.2205263938
 10
890.8828387041
 20
439.3486889164
 10
890.5485753948
 20
439.5172725963
 10
890.2366345646
 20
439.7284506181
 10
889.9112277653
 20
440.0126660041
 10
889.6108412909
 20
440.3442021233
 10
889.3351804829
 20
440.7215209634
 10
889.0848996469
 20
441.1437232083
 10
888.861855844
 20
441.6092558432
 10
888.6685118743
 20
442.1157400853
 10
888.5075080338
 20
442.6599856225
 10
888.3813801456
 20
443.2380679744
 10
888.2924025628
 20
443.845191691
 10
888.2440381048
 20
444.4419510502
 10
888.2377902273
 20
444.5868941722
  0
LINE
  5
105
330
1F
100
AcDbEntity
  8
0
  6
Continuous
 62
     7
370
    15
100
AcDbLine
 10
954.8382301304
 20
484.0751158193
 30
0.0
 11
933.5214144016
 21
532.4240563948
 31
0.0
  0
LINE
  5
106
330
1F
100
AcDbEntity
  8
0
  6
Continuous
 62
     7
370
    15
100
AcDbLine
 10
929.16565317
 20
529.909528959
 30
0.0
 11
950.2631660224
 21
482.0579920234
 31
0.0
  0
LINE
  5
107
330
1F
100
AcDbEntity
  8
0
  6
Continuous
 62
     7
370
    15
100
AcDbLine
 10
896.2697810512
 20
435.3606061961
 30
0.0
 11
949.2866443673
 21
465.9665899218
 31
0.0
  0
LINE
  5
108
330
1F
100
AcDbEntity
  8
0
  6
Continuous
 62
     7
370
    15
100
AcDbLine
 10
918.5339454906
 20
453.9867810523
 30
0.0
 11
893.7699842196
 21
439.690850508
 31
0.0
  0
LINE
  5
109
330
1F
100
AcDbEntity
  8
0
  6
Continuous
 62
     7
370
    15
100
AcDbLine
 10
946.7868475357
 20
470.2968342337
 30
0.0
 11
922.65820367
 21
456.3676646207
 31
0.0
  0
LWPOLYLINE
  5
10A
330
1F
100
AcDbEntity
  8
0
  6
Continuous
 62
     7
370
    15
100
AcDbPolyline
 90
       26
 70
   128
 43
0.0
 10
949.2866443673
 20
465.9665899218
 10
949.6747464872
 20
466.2022728899
 10
950.3215840321
 20
466.6492001947
 10
950.9452736487
 20
467.1497889336
 10
951.5442194515
 20
467.7026109779
 10
952.1150189498
 20
468.3045264154
 10
952.6545379208
 20
468.9520560359
 10
953.1599406944
 20
469.6414707655
 10
953.6286986818
 20
470.3688778127
 10
954.0585189863
 20
471.1301793765
 10
954.4474703083
 20
471.9213702388
 10
954.7938398648
 20
472.7384130936
 10
955.0961069567
 20
473.5772474849
 10
955.3529224486
 20
474.4337932702
 10
955.5630939162
 20
475.3039512974
 10
955.7255748768
 20
476.1835977661
 10
955.8394546056
 20
477.068526874
 10
955.9039787096
 20
477.9545808032
 10
955.9185312806
 20
478.83757986
 10
955.8826392363
 20
479.7133127208
 10
955.7959835909
 20
480.5775226115
 10
955.6584204867
 20
481.4258899581
 10
955.4700215226
 20
482.2539902263
 10
955.2311701113
 20
483.057167088
 10
954.9425805289
 20
483.8307809275
 10
954.8382301304
 20
484.0751158193
  0
LWPOLYLINE
  5
10B
330
1F
100
AcDbEntity
  8
0
  6
Continuous
 62
     7
370
    15
100
AcDbPolyline
 90
       23
 70
   128
 43
0.0
 10
950.2631660224
 20
482.0579920234
 10
950.3637562943
 20
481.8167754102
 10
950.5451654541
 20
481.2970820372
 10
950.6936851479
 20
480.7399642144
 10
950.8064550744
 20
480.1506795272
 10
950.8813646611
 20
479.5341599312
 10
950.9167912654
 20
478.8955404108
 10
950.9115837745
 20
478.2403453709
 10
950.8651069763
 20
477.5743873893
 10
950.7772660888
 20
476.9036698844
 10
950.6485172917
 20
476.2342948489
 10
950.4798683442
 20
475.5723751063
 10
950.2728785379
 20
474.9239688551
 10
950.0296794223
 20
474.295060846
 10
949.7528841575
 20
473.6912710034
 10
949.4455841599
 20
473.117885248
 10
949.1113117179
 20
472.5797717348
 10
948.7539902696
 20
472.0812948123
 10
948.3778675841
 20
471.6262278508
 10
947.9874254837
 20
471.2176679909
 10
947.5872698179
 20
470.8579687806
 10
947.1822273084
 20
470.5488559335
 10
946.7868475357
 20
470.2968342337
  0
LINE
  5
10C
330
1F
100
AcDbEntity
  8
0
  6
Continuous
 62
     7
370
    15
100
AcDbLine
 10
699.9836239643
 20
616.6572494454
 30
0.0
 11
676.1066102064
 21
565.2600564466
 31
0.0
  0
LINE
  5
10D
330
1F
100
AcDbEntity
  8
0
  6
Continuous
 62
     7
370
    15
100
AcDbLine
 10
680.6411821029
 20
563.1534815688
 30
0.0
 11
704.330942218
 21
614.147596037
 31
0.0
  0
LINE
  5
10E
330
1F
100
AcDbEntity
  8
0
  6
Continuous
 62
     7
370
    15
100
AcDbLine
 10
711.4760617046
 20
573.8433618622
 30
0.0
 11
733.9754782758
 21
597.0341696404
 31
0.0
  0
LINE
  5
10F
330
1F
100
AcDbEntity
  8
0
  6
Continuous
 62
     7
370
    15
100
AcDbLine
 10
729.5100191359
 20
599.6120243306
 30
0.0
 11
707.8321861378
 21
577.2680468094
 31
0.0
  0
ARC
  5
110
330
1F
100
AcDbEntity
  8
0
  6
Continuous
 62
     7
370
    15
100
AcDbCircle
 10
678.006873963
 20
568.1441527716
 30
0.0
 40
7.006411400840415
100
AcDbArc
 50
286.9945604793
 51
301.2149685228
  0
LWPOLYLINE
  5
111
330
1F
100
AcDbEntity
  8
0
  6
Continuous
 62
     7
370
    15
100
AcDbPolyline
 90
       11
 70
   128
 43
0.0
 10
680.0137809421
 20
560.8448299116
 10
680.0134549104
 20
560.848130627
 10
680.0066580731
 20
560.9167547288
 10
680.0061671867
 20
561.0457385284
 10
680.0213808148
 20
561.2327168005
 10
680.0597090386
 20
561.4753069374
 10
680.1271069986
 20
561.7708731257
 10
680.2281947083
 20
562.1159784541
 10
680.366289235
 20
562.5063836945
 10
680.5434620256
 20
562.9371819014
 10
680.6411821029
 20
563.1534815688
  0
LWPOLYLINE
  5
112
330
1F
100
AcDbEntity
  8
0
  6
Continuous
 62
     7
370
    15
100
AcDbPolyline
 90
       29
 70
   128
 43
0.0
 10
676.1066102064
 20
565.2600564466
 10
675.9418191084
 20
564.8934862444
 10
675.6564763486
 20
564.1873658675
 10
675.4166602966
 20
563.482666938
 10
675.2259701974
 20
562.7776792396
 10
675.0901569197
 20
562.0733236514
 10
675.0165212266
 20
561.3758395742
 10
675.0083222002
 20
560.7763767823
 10
675.0537277015
 20
560.2131596092
 10
675.1498598605
 20
559.6858141155
 10
675.294438586
 20
559.1924522696
 10
675.4858989657
 20
558.7319181242
 10
675.7524196836
 20
558.2585854068
 10
676.0676978434
 20
557.8352925781
 10
676.4255085256
 20
557.4643497689
 10
676.8204265356
 20
557.1464818582
 10
677.2467724073
 20
556.8823663643
 10
677.6996682228
 20
556.6718258884
 10
678.1764581423
 20
556.5138019834
 10
678.6763375384
 20
556.4073976192
 10
679.2004886176
 20
556.3523949925
 10
679.7517887477
 20
556.349769645
 10
680.3337599662
 20
556.4019232156
 10
680.9484346349
 20
556.5121604422
 10
681.5935790148
 20
556.6830044992
 10
682.2615278529
 20
556.914017838
 10
682.9415066094
 20
557.2010468483
 10
683.6231157387
 20
557.5374188479
 10
684.1377466953
 20
557.8218229695
  0
LINE
  5
113
330
1F
100
AcDbEntity
  8
0
  6
Continuous
 62
     7
370
    15
100
AcDbLine
 10
684.1377466953
 20
557.8218229695
 30
0.0
 11
737.1546100113
 21
588.4278066952
 31
0.0
  0
LINE
  5
114
330
1F
100
AcDbEntity
  8
0
  6
Continuous
 62
     7
370
    15
100
AcDbLine
 10
707.8446049382
 20
577.2808472308
 30
0.0
 11
681.6379498637
 21
562.1520672814
 31
0.0
  0
LINE
  5
115
330
1F
100
AcDbEntity
  8
0
  6
Continuous
 62
     7
370
    15
100
AcDbLine
 10
734.6548131798
 20
592.7580510071
 30
0.0
 11
723.6802373834
 21
586.4225632545
 31
0.0
  0
ARC
  5
116
330
1F
100
AcDbEntity
  8
0
  6
Continuous
 62
     7
370
    15
100
AcDbCircle
 10
726.3088296443
 20
606.8341269959
 30
0.0
 40
16.36433183537298
100
AcDbArc
 50
300.6645392147
 51
313.4789227651
  0
ARC
  5
117
330
1F
100
AcDbEntity
  8
0
  6
Continuous
 62
     7
370
    15
100
AcDbCircle
 10
725.2583709727
 20
608.2942799687
 30
0.0
 40
23.15593365837521
100
AcDbArc
 50
300.9135882896
 51
316.5333215536
  0
ELLIPSE
  5
118
330
1F
100
AcDbEntity
  8
0
  6
Continuous
 62
     7
370
    15
100
AcDbEllipse
 10
921.5283142935
 20
452.8287202149
 30
0.0
 11
3.135203806081791
 21
-1.00098590639459
 31
0.0
210
0.0
220
0.0
230
1.0
 40
0.2569280143
 41
1.178639843608952
 42
2.91196355608813
  0
LINE
  5
119
330
1F
100
AcDbEntity
  8
0
  6
Continuous
 62
     7
370
    15
100
AcDbLine
 10
889.7085091401
 20
509.5812923924
 30
0.0
 11
677.5764747841
 21
632.0425091658
 31
0.0
  0
LINE
  5
11A
330
1F
100
AcDbEntity
  8
0
  6
Continuous
 62
     7
370
    15
100
AcDbLine
 10
889.7085091401
 20
507.1316699567
 30
0.0
 11
889.7085091401
 21
509.5812923924
 31
0.0
  0
LINE
  5
11B
330
1F
100
AcDbEntity
  8
0
  6
Continuous
 62
     7
370
    15
100
AcDbLine
 10
677.5764747841
 20
629.5928867301
 30
0.0
 11
889.7085091401
 21
507.1316699567
 31
0.0
  0
LINE
  5
11C
330
1F
100
AcDbEntity
  8
0
  6
Continuous
 62
     7
370
    15
100
AcDbLine
 10
677.5764747841
 20
632.0425091658
 30
0.0
 11
677.5764747841
 21
629.5928867301
 31
0.0
  0
LINE
  5
11D
330
1F
100
AcDbEntity
  8
0
  6
Continuous
 62
     7
370
    15
100
AcDbLine
 10
889.7085091401
 20
509.5812923924
 30
0.0
 11
953.3481194469
 21
546.3196574244
 31
0.0
  0
LINE
  5
11E
330
1F
100
AcDbEntity
  8
0
  6
Continuous
 62
     7
370
    15
100
AcDbLine
 10
953.3481194469
 20
543.8700349887
 30
0.0
 11
953.3481194469
 21
546.3196574244
 31
0.0
  0
LINE
  5
11F
330
1F
100
AcDbEntity
  8
0
  6
Continuous
 62
     7
370
    15
100
AcDbLine
 10
889.7085091401
 20
507.1316699567
 30
0.0
 11
953.3481194469
 21
543.8700349887
 31
0.0
  0
LINE
  5
120
330
1F
100
AcDbEntity
  8
0
  6
Continuous
 62
     7
370
    15
100
AcDbLine
 10
677.5764747841
 20
632.0425091658
 30
0.0
 11
741.2160850909
 21
668.7808741978
 31
0.0
  0
LINE
  5
121
330
1F
100
AcDbEntity
  8
0
  6
Continuous
 62
     7
370
    15
100
AcDbLine
 10
953.3481194469
 20
546.3196574244
 30
0.0
 11
741.2160850909
 21
668.7808741978
 31
0.0
  0
LINE
  5
122
330
1F
100
AcDbEntity
  8
0
  6
Continuous
 62
     7
370
    15
100
AcDbLine
 10
950.5196923221
 20
542.236953365
 30
0.0
 11
889.7085091401
 21
507.1314045566
 31
0.0
  0
LINE
  5
123
330
1F
100
AcDbEntity
  8
0
  6
Continuous
 62
     7
370
    15
100
AcDbLine
 10
889.7085091401
 20
507.1314045566
 30
0.0
 11
889.7085091401
 21
507.1316699567
 31
0.0
  0
LINE
  5
124
330
1F
100
AcDbEntity
  8
0
  6
Continuous
 62
     7
370
    15
100
AcDbLine
 10
953.3481194469
 20
543.8700349887
 30
0.0
 11
950.5196923221
 21
542.236953365
 31
0.0
  0
LINE
  5
125
330
1F
100
AcDbEntity
  8
0
  6
Continuous
 62
     7
370
    15
100
AcDbLine
 10
889.7085091401
 20
507.1314045566
 30
0.0
 11
680.4049019089
 21
627.9598051063
 31
0.0
  0
LINE
  5
126
330
1F
100
AcDbEntity
  8
0
  6
Continuous
 62
     7
370
    15
100
AcDbLine
 10
680.4049019089
 20
627.9598051063
 30
0.0
 11
677.5764747841
 21
629.5928867301
 31
0.0
  0
ELLIPSE
  5
127
330
1F
100
AcDbEntity
  8
0
  6
Continuous
 62
     7
370
    15
100
AcDbEllipse
 10
709.3962799375
 20
575.2899369883
 30
0.0
 11
2.985903826713411
 21
2.418086256127594
 31
0.0
210
0.0
220
0.0
230
1.0
 40
0.6442079076
 41
4.897149569331898
 42
4.910020086727547
  0
ELLIPSE
  5
128
330
1F
100
AcDbEntity
  8
0
  6
Continuous
 62
     7
370
    15
100
AcDbEllipse
 10
709.3962799375
 20
575.2899369883
 30
0.0
 11
-1.550918079083544
 21
1.989939059656649
 31
0.0
210
0.0
220
0.0
230
1.0
 40
0.2241792763
 41
0.0312361368857145
 42
2.947666602896314
  0
ENDSEC
  0
SECTION
  2
OBJECTS
  0
DICTIONARY
  5
C
330
0
100
AcDbDictionary
281
     1
  3
ACAD_GROUP
350
D
  3
ACAD_LAYOUT
350
1A
  3
ACAD_MLINESTYLE
350
17
  3
ACAD_PLOTSETTINGS
350
19
  3
ACAD_PLOTSTYLENAME
350
E
  3
ACAD_SCALELIST
350
47
  0
DICTIONARY
  5
D
102
{ACAD_REACTORS
330
C
102
}
330
C
100
AcDbDictionary
281
     1
  0
DICTIONARY
  5
1A
102
{ACAD_REACTORS
330
C
102
}
330
C
100
AcDbDictionary
281
     1
  3
Layout1
350
1E
  3
Layout2
350
26
  3
Model
350
22
  0
DICTIONARY
  5
17
102
{ACAD_REACTORS
330
C
102
}
330
C
100
AcDbDictionary
281
     1
  3
Standard
350
18
  0
DICTIONARY
  5
19
102
{ACAD_REACTORS
330
C
102
}
330
C
100
AcDbDictionary
281
     1
  0
ACDBDICTIONARYWDFLT
  5
E
102
{ACAD_REACTORS
330
C
102
}
330
C
100
AcDbDictionary
281
     1
  3
Normal
350
F
100
AcDbDictionaryWithDefault
340
F
  0
DICTIONARY
  5
47
102
{ACAD_REACTORS
330
C
102
}
330
C
100
AcDbDictionary
281
     1
  3
A0
350
48
  3
A1
350
49
  3
A2
350
4A
  3
A3
350
4B
  3
A4
350
4C
  3
A5
350
4D
  3
A6
350
4E
  3
A7
350
4F
  3
A8
350
50
  3
A9
350
51
  3
B0
350
52
  3
B1
350
53
  3
B2
350
54
  3
B3
350
55
  3
B4
350
56
  3
B5
350
57
  3
B6
350
58
  3
B7
350
59
  3
B8
350
5A
  3
B9
350
5B
  3
C0
350
5C
  3
C1
350
5D
  3
C2
350
5E
  3
C3
350
5F
  3
C4
350
60
  3
C5
350
61
  3
C6
350
62
  3
C7
350
63
  3
C8
350
64
  3
C9
350
65
  3
D0
350
66
  3
D1
350
67
  3
D2
350
68
  0
LAYOUT
  5
1E
102
{ACAD_REACTORS
330
1A
102
}
330
1A
100
AcDbPlotSettings
  1

  2
none_device
  4

  6

 40
0.0
 41
0.0
 42
0.0
 43
0.0
 44
0.0
 45
0.0
 46
0.0
 47
0.0
 48
0.0
 49
0.0
140
0.0
141
0.0
142
1.0
143
1.0
 70
   688
 72
     1
 73
     0
 74
     5
  7

 75
    16
147
1.0
148
0.0
149
0.0
100
AcDbLayout
  1
Layout1
 70
     1
 71
     1
 10
0.0
 20
0.0
 11
420.0
 21
297.0
 12
0.0
 22
0.0
 32
0.0
 14
1.0000000000E+20
 24
1.0000000000E+20
 34
1.0000000000E+20
 15
-1.0000000000E+20
 25
-1.0000000000E+20
 35
-1.0000000000E+20
146
0.0
 13
0.0
 23
0.0
 33
0.0
 16
1.0
 26
0.0
 36
0.0
 17
0.0
 27
1.0
 37
0.0
 76
     0
330
1B
  0
LAYOUT
  5
26
102
{ACAD_REACTORS
330
1A
102
}
330
1A
100
AcDbPlotSettings
  1

  2
none_device
  4

  6

 40
0.0
 41
0.0
 42
0.0
 43
0.0
 44
0.0
 45
0.0
 46
0.0
 47
0.0
 48
0.0
 49
0.0
140
0.0
141
0.0
142
1.0
143
1.0
 70
   688
 72
     1
 73
     0
 74
     5
  7

 75
    16
147
1.0
148
0.0
149
0.0
100
AcDbLayout
  1
Layout2
 70
     1
 71
     2
 10
0.0
 20
0.0
 11
0.0
 21
0.0
 12
0.0
 22
0.0
 32
0.0
 14
0.0
 24
0.0
 34
0.0
 15
0.0
 25
0.0
 35
0.0
146
0.0
 13
0.0
 23
0.0
 33
0.0
 16
1.0
 26
0.0
 36
0.0
 17
0.0
 27
1.0
 37
0.0
 76
     0
330
23
  0
LAYOUT
  5
22
102
{ACAD_REACTORS
330
1A
102
}
330
1A
100
AcDbPlotSettings
  1

  2
none_device
  4
Letter_(8.50_x_11.00_Inches)
  6

 40
6.35
 41
6.35
 42
6.35000508
 43
6.35000508
 44
215.9
 45
279.4
 46
0.0
 47
0.0
 48
0.0
 49
0.0
140
0.0
141
0.0
142
1.0
143
1.0
 70
  1712
 72
     1
 73
     0
 74
     0
  7

 75
     0
147
1.0
148
0.0
149
0.0
100
AcDbLayout
  1
Model
 70
     1
 71
     0
 10
0.0
 20
0.0
 11
1189.0
 21
841.0
 12
0.0
 22
0.0
 32
0.0
 14
0.0
 24
0.0
 34
0.0
 15
1189.0
 25
841.0
 35
0.0
146
0.0
 13
0.0
 23
0.0
 33
0.0
 16
1.0
 26
0.0
 36
0.0
 17
0.0
 27
1.0
 37
0.0
 76
     0
330
1F
331
29
  0
MLINESTYLE
  5
18
102
{ACAD_REACTORS
330
17
102
}
330
17
100
AcDbMlineStyle
  2
Standard
 70
     0
  3

 62
   256
 51
90.0
 52
90.0
 71
     2
 49
0.5
 62
   256
  6
BYLAYER
 49
-0.5
 62
   256
  6
BYLAYER
  0
ACDBPLACEHOLDER
  5
F
102
{ACAD_REACTORS
330
E
102
}
330
E
  0
SCALE
  5
48
102
{ACAD_REACTORS
330
47
102
}
330
47
100
AcDbScale
 70
     0
300
1:1
140
1.0
141
1.0
290
     1
  0
SCALE
  5
49
102
{ACAD_REACTORS
330
47
102
}
330
47
100
AcDbScale
 70
     0
300
1:2
140
1.0
141
2.0
290
     0
  0
SCALE
  5
4A
102
{ACAD_REACTORS
330
47
102
}
330
47
100
AcDbScale
 70
     0
300
1:4
140
1.0
141
4.0
290
     0
  0
SCALE
  5
4B
102
{ACAD_REACTORS
330
47
102
}
330
47
100
AcDbScale
 70
     0
300
1:5
140
1.0
141
5.0
290
     0
  0
SCALE
  5
4C
102
{ACAD_REACTORS
330
47
102
}
330
47
100
AcDbScale
 70
     0
300
1:8
140
1.0
141
8.0
290
     0
  0
SCALE
  5
4D
102
{ACAD_REACTORS
330
47
102
}
330
47
100
AcDbScale
 70
     0
300
1:10
140
1.0
141
10.0
290
     0
  0
SCALE
  5
4E
102
{ACAD_REACTORS
330
47
102
}
330
47
100
AcDbScale
 70
     0
300
1:16
140
1.0
141
16.0
290
     0
  0
SCALE
  5
4F
102
{ACAD_REACTORS
330
47
102
}
330
47
100
AcDbScale
 70
     0
300
1:20
140
1.0
141
20.0
290
     0
  0
SCALE
  5
50
102
{ACAD_REACTORS
330
47
102
}
330
47
100
AcDbScale
 70
     0
300
1:30
140
1.0
141
30.0
290
     0
  0
SCALE
  5
51
102
{ACAD_REACTORS
330
47
102
}
330
47
100
AcDbScale
 70
     0
300
1:40
140
1.0
141
40.0
290
     0
  0
SCALE
  5
52
102
{ACAD_REACTORS
330
47
102
}
330
47
100
AcDbScale
 70
     0
300
1:50
140
1.0
141
50.0
290
     0
  0
SCALE
  5
53
102
{ACAD_REACTORS
330
47
102
}
330
47
100
AcDbScale
 70
     0
300
1:100
140
1.0
141
100.0
290
     0
  0
SCALE
  5
54
102
{ACAD_REACTORS
330
47
102
}
330
47
100
AcDbScale
 70
     0
300
2:1
140
2.0
141
1.0
290
     0
  0
SCALE
  5
55
102
{ACAD_REACTORS
330
47
102
}
330
47
100
AcDbScale
 70
     0
300
4:1
140
4.0
141
1.0
290
     0
  0
SCALE
  5
56
102
{ACAD_REACTORS
330
47
102
}
330
47
100
AcDbScale
 70
     0
300
8:1
140
8.0
141
1.0
290
     0
  0
SCALE
  5
57
102
{ACAD_REACTORS
330
47
102
}
330
47
100
AcDbScale
 70
     0
300
10:1
140
10.0
141
1.0
290
     0
  0
SCALE
  5
58
102
{ACAD_REACTORS
330
47
102
}
330
47
100
AcDbScale
 70
     0
300
100:1
140
100.0
141
1.0
290
     0
  0
SCALE
  5
59
102
{ACAD_REACTORS
330
47
102
}
330
47
100
AcDbScale
 70
     0
300
1/128" = 1'-0"
140
0.0078125
141
12.0
290
     0
  0
SCALE
  5
5A
102
{ACAD_REACTORS
330
47
102
}
330
47
100
AcDbScale
 70
     0
300
1/64" = 1'-0"
140
0.015625
141
12.0
290
     0
  0
SCALE
  5
5B
102
{ACAD_REACTORS
330
47
102
}
330
47
100
AcDbScale
 70
     0
300
1/32" = 1'-0"
140
0.03125
141
12.0
290
     0
  0
SCALE
  5
5C
102
{ACAD_REACTORS
330
47
102
}
330
47
100
AcDbScale
 70
     0
300
1/16" = 1'-0"
140
0.0625
141
12.0
290
     0
  0
SCALE
  5
5D
102
{ACAD_REACTORS
330
47
102
}
330
47
100
AcDbScale
 70
     0
300
3/32" = 1'-0"
140
0.09375
141
12.0
290
     0
  0
SCALE
  5
5E
102
{ACAD_REACTORS
330
47
102
}
330
47
100
AcDbScale
 70
     0
300
1/8" = 1'-0"
140
0.125
141
12.0
290
     0
  0
SCALE
  5
5F
102
{ACAD_REACTORS
330
47
102
}
330
47
100
AcDbScale
 70
     0
300
3/16" = 1'-0"
140
0.1875
141
12.0
290
     0
  0
SCALE
  5
60
102
{ACAD_REACTORS
330
47
102
}
330
47
100
AcDbScale
 70
     0
300
1/4" = 1'-0"
140
0.25
141
12.0
290
     0
  0
SCALE
  5
61
102
{ACAD_REACTORS
330
47
102
}
330
47
100
AcDbScale
 70
     0
300
3/8" = 1'-0"
140
0.375
141
12.0
290
     0
  0
SCALE
  5
62
102
{ACAD_REACTORS
330
47
102
}
330
47
100
AcDbScale
 70
     0
300
1/2" = 1'-0"
140
0.5
141
12.0
290
     0
  0
SCALE
  5
63
102
{ACAD_REACTORS
330
47
102
}
330
47
100
AcDbScale
 70
     0
300
3/4" = 1'-0"
140
0.75
141
12.0
290
     0
  0
SCALE
  5
64
102
{ACAD_REACTORS
330
47
102
}
330
47
100
AcDbScale
 70
     0
300
1" = 1'-0"
140
1.0
141
12.0
290
     0
  0
SCALE
  5
65
102
{ACAD_REACTORS
330
47
102
}
330
47
100
AcDbScale
 70
     0
300
1-1/2" = 1'-0"
140
1.5
141
12.0
290
     0
  0
SCALE
  5
66
102
{ACAD_REACTORS
330
47
102
}
330
47
100
AcDbScale
 70
     0
300
3" = 1'-0"
140
3.0
141
12.0
290
     0
  0
SCALE
  5
67
102
{ACAD_REACTORS
330
47
102
}
330
47
100
AcDbScale
 70
     0
300
6" = 1'-0"
140
6.0
141
12.0
290
     0
  0
SCALE
  5
68
102
{ACAD_REACTORS
330
47
102
}
330
47
100
AcDbScale
 70
     0
300
1'-0" = 1'-0"
140
12.0
141
12.0
290
     0
  0
ENDSEC
  0
EOF
