  0
SECTION
  2
HEADER
  9
$ACADVER
  1
AC1015
  9
$ACADMAINTVER
 70
     6
  9
$DWGCODEPAGE
  3
ANSI_1252
  9
$INSBASE
 10
0.0
 20
0.0
 30
0.0
  9
$EXTMIN
 10
0.0
 20
0.0
 30
0.0
  9
$EXTMAX
 10
1189.0
 20
841.0
 30
0.0
  9
$LIMMIN
 10
0.0
 20
0.0
  9
$LIMMAX
 10
1189.0
 20
841.0
  9
$ORTHOMODE
 70
     0
  9
$REGENMODE
 70
     1
  9
$FILLMODE
 70
     1
  9
$QTEXTMODE
 70
     0
  9
$MIRRTEXT
 70
     1
  9
$LTSCALE
 40
1.0
  9
$ATTMODE
 70
     1
  9
$TEXTSIZE
 40
3.5
  9
$TRACEWID
 40
1.0
  9
$TEXTSTYLE
  7
Standard
  9
$CLAYER
  8
0
  9
$CELTYPE
  6
ByLayer
  9
$CECOLOR
 62
   256
  9
$CELTSCALE
 40
1.0
  9
$DISPSILH
 70
     0
  9
$DIMSCALE
 40
1.0
  9
$DIMASZ
 40
3.302
  9
$DIMEXO
 40
1.0
  9
$DIMDLI
 40
3.75
  9
$DIMRND
 40
0.0
  9
$DIMDLE
 40
0.0
  9
$DIMEXE
 40
1.0
  9
$DIMTP
 40
0.0
  9
$DIMTM
 40
0.0
  9
$DIMTXT
 40
3.5
  9
$DIMCEN
 40
2.5
  9
$DIMTSZ
 40
0.0
  9
$DIMTOL
 70
     0
  9
$DIMLIM
 70
     0
  9
$DIMTIH
 70
     1
  9
$DIMTOH
 70
     1
  9
$DIMSE1
 70
     0
  9
$DIMSE2
 70
     0
  9
$DIMTAD
 70
     1
  9
$DIMZIN
 70
     0
  9
$DIMBLK
  1

  9
$DIMASO
 70
     1
  9
$DIMSHO
 70
     1
  9
$DIMPOST
  1

  9
$DIMAPOST
  1

  9
$DIMALT
 70
     0
  9
$DIMALTD
 70
     3
  9
$DIMALTF
 40
0.0393700787
  9
$DIMLFAC
 40
5.0
  9
$DIMTOFL
 70
     1
  9
$DIMTVP
 40
0.0
  9
$DIMTIX
 70
     0
  9
$DIMSOXD
 70
     0
  9
$DIMSAH
 70
     0
  9
$DIMBLK1
  1

  9
$DIMBLK2
  1

  9
$DIMSTYLE
  2
ISO-25
  9
$DIMCLRD
 70
     0
  9
$DIMCLRE
 70
     0
  9
$DIMCLRT
 70
     0
  9
$DIMTFAC
 40
1.0
  9
$DIMGAP
 40
1.524
  9
$DIMJUST
 70
     0
  9
$DIMSD1
 70
     0
  9
$DIMSD2
 70
     0
  9
$DIMTOLJ
 70
     0
  9
$DIMTZIN
 70
     0
  9
$DIMALTZ
 70
     0
  9
$DIMALTTZ
 70
     0
  9
$DIMUPT
 70
     0
  9
$DIMDEC
 70
     2
  9
$DIMTDEC
 70
     2
  9
$DIMALTU
 70
     2
  9
$DIMALTTD
 70
     3
  9
$DIMTXSTY
  7
Standard
  9
$DIMAUNIT
 70
     0
  9
$DIMADEC
 70
     2
  9
$DIMALTRND
 40
0.0
  9
$DIMAZIN
 70
     0
  9
$DIMDSEP
 70
    44
  9
$DIMATFIT
 70
     3
  9
$DIMFRAC
 70
     0
  9
$DIMLDRBLK
  1

  9
$DIMLUNIT
 70
     2
  9
$DIMLWD
 70
    -2
  9
$DIMLWE
 70
    -2
  9
$DIMTMOVE
 70
     0
  9
$LUNITS
 70
     2
  9
$LUPREC
 70
     2
  9
$SKETCHINC
 40
1.0
  9
$FILLETRAD
 40
10.0
  9
$AUNITS
 70
     0
  9
$AUPREC
 70
     2
  9
$MENU
  1
.
  9
$ELEVATION
 40
0.0
  9
$PELEVATION
 40
0.0
  9
$THICKNESS
 40
0.0
  9
$LIMCHECK
 70
     0
  9
$CHAMFERA
 40
0.0
  9
$CHAMFERB
 40
0.0
  9
$CHAMFERC
 40
0.0
  9
$CHAMFERD
 40
0.0
  9
$SKPOLY
 70
     0
  9
$TDCREATE
 40
2458060.462561331
  9
$TDUCREATE
 40
2458060.462561331
  9
$TDUPDATE
 40
2458060.462561528
  9
$TDUUPDATE
 40
2458060.462561528
  9
$TDINDWG
 40
0.0000000116
  9
$TDUSRTIMER
 40
0.0000000116
  9
$USRTIMER
 70
     1
  9
$ANGBASE
 50
0.0
  9
$ANGDIR
 70
     0
  9
$PDMODE
 70
     0
  9
$PDSIZE
 40
-1.0
  9
$PLINEWID
 40
0.0
  9
$SPLFRAME
 70
     0
  9
$SPLINETYPE
 70
     6
  9
$SPLINESEGS
 70
     8
  9
$HANDSEED
  5
200
  9
$SURFTAB1
 70
     6
  9
$SURFTAB2
 70
     6
  9
$SURFTYPE
 70
     6
  9
$SURFU
 70
     6
  9
$SURFV
 70
     6
  9
$UCSBASE
  2

  9
$UCSNAME
  2

  9
$UCSORG
 10
0.0
 20
0.0
 30
0.0
  9
$UCSXDIR
 10
1.0
 20
0.0
 30
0.0
  9
$UCSYDIR
 10
0.0
 20
1.0
 30
0.0
  9
$UCSORTHOREF
  2

  9
$UCSORTHOVIEW
 70
     0
  9
$UCSORGTOP
 10
0.0
 20
0.0
 30
0.0
  9
$UCSORGBOTTOM
 10
0.0
 20
0.0
 30
0.0
  9
$UCSORGLEFT
 10
0.0
 20
0.0
 30
0.0
  9
$UCSORGRIGHT
 10
0.0
 20
0.0
 30
0.0
  9
$UCSORGFRONT
 10
0.0
 20
0.0
 30
0.0
  9
$UCSORGBACK
 10
0.0
 20
0.0
 30
0.0
  9
$PUCSBASE
  2

  9
$PUCSNAME
  2

  9
$PUCSORG
 10
0.0
 20
0.0
 30
0.0
  9
$PUCSXDIR
 10
1.0
 20
0.0
 30
0.0
  9
$PUCSYDIR
 10
0.0
 20
1.0
 30
0.0
  9
$PUCSORTHOREF
  2

  9
$PUCSORTHOVIEW
 70
     0
  9
$PUCSORGTOP
 10
0.0
 20
0.0
 30
0.0
  9
$PUCSORGBOTTOM
 10
0.0
 20
0.0
 30
0.0
  9
$PUCSORGLEFT
 10
0.0
 20
0.0
 30
0.0
  9
$PUCSORGRIGHT
 10
0.0
 20
0.0
 30
0.0
  9
$PUCSORGFRONT
 10
0.0
 20
0.0
 30
0.0
  9
$PUCSORGBACK
 10
0.0
 20
0.0
 30
0.0
  9
$USERI1
 70
     0
  9
$USERI2
 70
     0
  9
$USERI3
 70
     0
  9
$USERI4
 70
     0
  9
$USERI5
 70
     0
  9
$USERR1
 40
0.0
  9
$USERR2
 40
0.0
  9
$USERR3
 40
0.0
  9
$USERR4
 40
0.0
  9
$USERR5
 40
0.0
  9
$WORLDVIEW
 70
     1
  9
$SHADEDGE
 70
     3
  9
$SHADEDIF
 70
    70
  9
$TILEMODE
 70
     1
  9
$MAXACTVP
 70
    64
  9
$PINSBASE
 10
0.0
 20
0.0
 30
0.0
  9
$PLIMCHECK
 70
     0
  9
$PEXTMIN
 10
1.0000000000E+20
 20
1.0000000000E+20
 30
1.0000000000E+20
  9
$PEXTMAX
 10
-1.0000000000E+20
 20
-1.0000000000E+20
 30
-1.0000000000E+20
  9
$PLIMMIN
 10
0.0
 20
0.0
  9
$PLIMMAX
 10
420.0
 20
297.0
  9
$UNITMODE
 70
     0
  9
$VISRETAIN
 70
     1
  9
$PLINEGEN
 70
     0
  9
$PSLTSCALE
 70
     1
  9
$TREEDEPTH
 70
  3020
  9
$CMLSTYLE
  2
Standard
  9
$CMLJUST
 70
     0
  9
$CMLSCALE
 40
20.0
  9
$PROXYGRAPHICS
 70
     1
  9
$MEASUREMENT
 70
     1
  9
$CELWEIGHT
370
    -1
  9
$ENDCAPS
280
     0
  9
$JOINSTYLE
280
     0
  9
$LWDISPLAY
290
     1
  9
$INSUNITS
 70
     4
  9
$HYPERLINKBASE
  1

  9
$STYLESHEET
  1

  9
$XEDIT
290
     1
  9
$CEPSNTYPE
380
     0
  9
$PSTYLEMODE
290
     1
  9
$FINGERPRINTGUID
  2
{7AFC0AFB-FF72-4D4A-AE48-25CD3155954E}
  9
$VERSIONGUID
  2
{FAEB1C32-E019-11D5-929B-00C0DF256EC4}
  9
$EXTNAMES
290
     1
  9
$PSVPSCALE
 40
0.0
  9
$OLESTARTUP
290
     0
  0
ENDSEC
  0
SECTION
  2
CLASSES
  0
CLASS
  1
ACDBDICTIONARYWDFLT
  2
AcDbDictionaryWithDefault
  3
ObjectDBX Classes
 90
        0
280
     0
281
     0
  0
CLASS
  1
VISUALSTYLE
  2
AcDbVisualStyle
  3
ObjectDBX Classes
 90
     4095
280
     0
281
     0
  0
CLASS
  1
MATERIAL
  2
AcDbMaterial
  3
ObjectDBX Classes
 90
     1153
280
     0
281
     0
  0
CLASS
  1
SCALE
  2
AcDbScale
  3
ObjectDBX Classes
 90
     1153
280
     0
281
     0
  0
CLASS
  1
TABLESTYLE
  2
AcDbTableStyle
  3
ObjectDBX Classes
 90
     4095
280
     0
281
     0
  0
CLASS
  1
MLEADERSTYLE
  2
AcDbMLeaderStyle
  3
ACDB_MLEADERSTYLE_CLASS
 90
     4095
280
     0
281
     0
  0
CLASS
  1
SUN
  2
AcDbSun
  3
SCENEOE
 90
     1153
280
     0
281
     0
  0
CLASS
  1
ACDBPLACEHOLDER
  2
AcDbPlaceHolder
  3
ObjectDBX Classes
 90
        0
280
     0
281
     0
  0
CLASS
  1
LAYOUT
  2
AcDbLayout
  3
ObjectDBX Classes
 90
        0
280
     0
281
     0
  0
ENDSEC
  0
SECTION
  2
TABLES
  0
TABLE
  2
VPORT
  5
8
330
0
100
AcDbSymbolTable
 70
     1
  0
VPORT
  5
29
330
8
100
AcDbSymbolTableRecord
100
AcDbViewportTableRecord
  2
*Active
 70
     0
 10
0.0
 20
0.0
 11
1.0
 21
1.0
 12
594.5
 22
420.5
 13
0.0
 23
0.0
 14
10.0
 24
10.0
 15
10.0
 25
10.0
 16
0.0
 26
0.0
 36
1.0
 17
0.0
 27
0.0
 37
0.0
 40
841.0
 41
1.4137931034
 42
50.0
 43
0.0
 44
0.0
 50
0.0
 51
0.0
 71
     0
 72
  2000
 73
     1
 74
     3
 75
     0
 76
     0
 77
     0
 78
     0
281
     0
 65
     1
110
0.0
120
0.0
130
0.0
111
1.0
121
0.0
131
0.0
112
0.0
122
1.0
132
0.0
 79
     0
146
0.0
  0
ENDTAB
  0
TABLE
  2
LTYPE
  5
5
330
0
100
AcDbSymbolTable
 70
     6
  0
LTYPE
  5
14
330
5
100
AcDbSymbolTableRecord
100
AcDbLinetypeTableRecord
  2
ByBlock
 70
     0
  3

 72
    65
 73
     0
 40
0.0
  0
LTYPE
  5
15
330
5
100
AcDbSymbolTableRecord
100
AcDbLinetypeTableRecord
  2
ByLayer
 70
     0
  3

 72
    65
 73
     0
 40
0.0
  0
LTYPE
  5
16
330
5
100
AcDbSymbolTableRecord
100
AcDbLinetypeTableRecord
  2
Continuous
 70
     0
  3
Solid line
 72
    65
 73
     0
 40
0.0
  0
LTYPE
  5
6E
330
5
100
AcDbSymbolTableRecord
100
AcDbLinetypeTableRecord
  2
HIDDEN
 70
     0
  3
Hidden __ __ __ __ __ __ __ __ __ __ __ __ __ __
 72
    65
 73
     2
 40
1.905
 49
1.27
 74
     0
 49
-0.635
 74
     0
  0
LTYPE
  5
6F
330
5
100
AcDbSymbolTableRecord
100
AcDbLinetypeTableRecord
  2
PHANTOM
 70
     0
  3
Phantom ______  __  __  ______  __  __  ______
 72
    65
 73
     6
 40
12.7
 49
6.35
 74
     0
 49
-1.27
 74
     0
 49
1.27
 74
     0
 49
-1.27
 74
     0
 49
1.27
 74
     0
 49
-1.27
 74
     0
  0
LTYPE
  5
70
330
5
100
AcDbSymbolTableRecord
100
AcDbLinetypeTableRecord
  2
CENTER
 70
     0
  3
Center ____ _ ____ _ ____ _ ____ _ ____ _ ____
 72
    65
 73
     4
 40
10.16
 49
6.35
 74
     0
 49
-1.27
 74
     0
 49
1.27
 74
     0
 49
-1.27
 74
     0
  0
LTYPE
  5
71
330
5
100
AcDbSymbolTableRecord
100
AcDbLinetypeTableRecord
  2
CENTERX2
 70
     0
  3
Center (2x) ________  __  ________  __  _____
 72
    65
 73
     4
 40
20.32
 49
12.7
 74
     0
 49
-2.54
 74
     0
 49
2.54
 74
     0
 49
-2.54
 74
     0
  0
LTYPE
  5
72
330
5
100
AcDbSymbolTableRecord
100
AcDbLinetypeTableRecord
  2
DOT2
 70
     0
  3
Dot (.5x) ........................................
 72
    65
 73
     2
 40
0.635
 49
0.0
 74
     0
 49
-0.635
 74
     0
  0
ENDTAB
  0
TABLE
  2
LAYER
  5
2
330
0
100
AcDbSymbolTable
 70
     2
  0
LAYER
  5
10
330
2
100
AcDbSymbolTableRecord
100
AcDbLayerTableRecord
  2
0
 70
     0
 62
     7
  6
Continuous
370
    -3
390
F
  0
LAYER
  5
73
330
2
100
AcDbSymbolTableRecord
100
AcDbLayerTableRecord
  2
FORMAT
 70
     0
 62
     7
  6
Continuous
370
    -3
390
F
  0
ENDTAB
  0
TABLE
  2
STYLE
  5
3
330
0
100
AcDbSymbolTable
 70
     1
  0
STYLE
  5
11
330
3
100
AcDbSymbolTableRecord
100
AcDbTextStyleTableRecord
  2
Standard
 70
     0
 40
0.0
 41
1.0
 50
0.0
 71
     0
 42
3.5
  3
txt
  4

  0
ENDTAB
  0
TABLE
  2
VIEW
  5
6
330
0
100
AcDbSymbolTable
 70
     0
  0
ENDTAB
  0
TABLE
  2
UCS
  5
7
330
0
100
AcDbSymbolTable
 70
     0
  0
ENDTAB
  0
TABLE
  2
APPID
  5
9
330
0
100
AcDbSymbolTable
 70
     1
  0
APPID
  5
12
330
9
100
AcDbSymbolTableRecord
100
AcDbRegAppTableRecord
  2
ACAD
 70
     0
  0
ENDTAB
  0
TABLE
  2
DIMSTYLE
  5
A
330
0
100
AcDbSymbolTable
 70
     1
100
AcDbDimStyleTable
  0
DIMSTYLE
105
27
330
A
100
AcDbSymbolTableRecord
100
AcDbDimStyleTableRecord
  2
ISO-25
 70
     0
 41
2.5
 42
0.625
 43
3.75
 44
1.25
 73
     0
 74
     0
 77
     1
 78
     8
140
2.5
141
2.5
143
0.0393700787
147
0.625
171
     3
172
     1
178
     0
271
     2
272
     2
274
     3
278
    44
283
     0
284
     8
340
11
  0
ENDTAB
  0
TABLE
  2
BLOCK_RECORD
  5
1
330
0
100
AcDbSymbolTable
 70
     2
  0
BLOCK_RECORD
  5
1F
330
1
100
AcDbSymbolTableRecord
100
AcDbBlockTableRecord
  2
*Model_Space
340
22
  0
BLOCK_RECORD
  5
1B
330
1
100
AcDbSymbolTableRecord
100
AcDbBlockTableRecord
  2
*Paper_Space
340
1E
  0
BLOCK_RECORD
  5
23
330
1
100
AcDbSymbolTableRecord
100
AcDbBlockTableRecord
  2
*Paper_Space0
340
26
  0
BLOCK_RECORD
  5
1F4
330
1
100
AcDbSymbolTableRecord
100
AcDbBlockTableRecord
  2
SW_CENTERMARKSYMBOL_0
340
0
102
{BLKREFS
331
1FF
102
}
  0
ENDTAB
  0
ENDSEC
  0
SECTION
  2
BLOCKS
  0
BLOCK
  5
20
330
1F
100
AcDbEntity
  8
0
100
AcDbBlockBegin
  2
*Model_Space
 70
     0
 10
0.0
 20
0.0
 30
0.0
  3
*Model_Space
  1

  0
ENDBLK
  5
21
330
1F
100
AcDbEntity
  8
0
100
AcDbBlockEnd
  0
BLOCK
  5
1C
330
1B
100
AcDbEntity
 67
     1
  8
0
100
AcDbBlockBegin
  2
*Paper_Space
 70
     0
 10
0.0
 20
0.0
 30
0.0
  3
*Paper_Space
  1

  0
ENDBLK
  5
1D
330
1B
100
AcDbEntity
 67
     1
  8
0
100
AcDbBlockEnd
  0
BLOCK
  5
24
330
23
100
AcDbEntity
  8
0
100
AcDbBlockBegin
  2
*Paper_Space0
 70
     0
 10
0.0
 20
0.0
 30
0.0
  3
*Paper_Space0
  1

  0
ENDBLK
  5
25
330
23
100
AcDbEntity
  8
0
100
AcDbBlockEnd
  0
BLOCK
  5
1F5
330
1F4
100
AcDbEntity
  8
0
100
AcDbBlockBegin
  2
SW_CENTERMARKSYMBOL_0
 70
     0
 10
0.0
 20
0.0
 30
0.0
  3
SW_CENTERMARKSYMBOL_0
  1

  0
LINE
  5
1F7
330
1F4
100
AcDbEntity
  8
0
  6
Continuous
 62
     0
370
     0
100
AcDbLine
 10
0.0
 20
0.0
 30
0.0
 11
0.0
 21
0.5
 31
0.0
  0
LINE
  5
1F8
330
1F4
100
AcDbEntity
  8
0
  6
Continuous
 62
     0
370
     0
100
AcDbLine
 10
0.0
 20
0.0
 30
0.0
 11
-0.5
 21
0.0
 31
0.0
  0
LINE
  5
1F9
330
1F4
100
AcDbEntity
  8
0
  6
Continuous
 62
     0
370
     0
100
AcDbLine
 10
0.0
 20
0.0
 30
0.0
 11
0.0
 21
-0.5
 31
0.0
  0
LINE
  5
1FA
330
1F4
100
AcDbEntity
  8
0
  6
Continuous
 62
     0
370
     0
100
AcDbLine
 10
0.0
 20
0.0
 30
0.0
 11
0.5
 21
0.0
 31
0.0
  0
LINE
  5
1FB
330
1F4
100
AcDbEntity
  8
0
  6
Continuous
 62
     0
370
     0
100
AcDbLine
 10
0.0
 20
1.0
 30
0.0
 11
0.0
 21
2.1
 31
0.0
  0
LINE
  5
1FC
330
1F4
100
AcDbEntity
  8
0
  6
Continuous
 62
     0
370
     0
100
AcDbLine
 10
-1.0
 20
0.0
 30
0.0
 11
-2.1
 21
0.0
 31
0.0
  0
LINE
  5
1FD
330
1F4
100
AcDbEntity
  8
0
  6
Continuous
 62
     0
370
     0
100
AcDbLine
 10
0.0
 20
-1.0
 30
0.0
 11
0.0
 21
-2.1
 31
0.0
  0
LINE
  5
1FE
330
1F4
100
AcDbEntity
  8
0
  6
Continuous
 62
     0
370
     0
100
AcDbLine
 10
1.0
 20
0.0
 30
0.0
 11
2.1
 21
0.0
 31
0.0
  0
ENDBLK
  5
1F6
330
1F4
100
AcDbEntity
  8
0
100
AcDbBlockEnd
  0
ENDSEC
  0
SECTION
  2
ENTITIES
  0
LINE
  5
74
330
1F
100
AcDbEntity
  8
0
  6
Continuous
 62
     7
370
    15
100
AcDbLine
 10
454.7361401863
 20
266.3611180686
 30
0.0
 11
379.7361401863
 21
266.3611180686
 31
0.0
  0
LWPOLYLINE
  5
75
330
1F
100
AcDbEntity
  8
0
  6
Continuous
 62
     7
370
    15
100
AcDbPolyline
 90
       26
 70
   128
 43
0.0
 10
468.2052766654
 20
177.7288479192
 10
468.1986864684
 20
177.8111522331
 10
468.1600134129
 20
177.997098197
 10
468.108911457
 20
178.1534984609
 10
468.0583350481
 20
178.2708277004
 10
468.0205721213
 20
178.3447195059
 10
467.9965118069
 20
178.3874384281
 10
467.9784786722
 20
178.4176618082
 10
467.9594314779
 20
178.4482141088
 10
467.9381817517
 20
178.4810841895
 10
467.8983299265
 20
178.5410298025
 10
467.81897998
 20
178.658337428
 10
467.6992758071
 20
178.8337689943
 10
467.5500635019
 20
179.0514561635
 10
467.3702408476
 20
179.3130797789
 10
467.1609665439
 20
179.6169702108
 10
466.9241638888
 20
179.9603400512
 10
466.662187635
 20
180.3397771697
 10
466.377717052
 20
180.7514021462
 10
466.0736974256
 20
181.1909538078
 10
465.7532956777
 20
181.6538537732
 10
465.4198603636
 20
182.1352644361
 10
465.0768827754
 20
182.6301452341
 10
464.7279580179
 20
183.1333088854
 10
464.3951555343
 20
183.6129530139
 10
464.2967718945
 20
183.7546960338
  0
ARC
  5
76
330
1F
100
AcDbEntity
  8
0
  6
Continuous
 62
     7
370
    15
100
AcDbCircle
 10
466.6831100299
 20
177.5584707037
 30
0.0
 40
1.531672178247991
100
AcDbArc
 50
324.2628328457
 51
6.3865753079
  0
LWPOLYLINE
  5
77
330
1F
100
AcDbEntity
  8
0
  6
Continuous
 62
     7
370
    15
100
AcDbPolyline
 90
       18
 70
   128
 43
0.0
 10
461.6680314767
 20
181.9299429503
 10
461.8522277985
 20
181.6645493338
 10
462.20253581
 20
181.1595968184
 10
462.5495577743
 20
180.6590899636
 10
462.889514616
 20
180.1684791852
 10
463.2188122272
 20
179.6929514019
 10
463.5339666439
 20
179.2375377947
 10
463.8316391287
 20
178.8070631728
 10
464.108668982
 20
178.406098612
 10
464.3621028542
 20
178.0389191662
 10
464.589218577
 20
177.7094695891
 10
464.7875393059
 20
177.4213443304
 10
464.9548273167
 20
177.1777977997
 10
465.0890248162
 20
176.9818342607
 10
465.1880151248
 20
176.8365710597
 10
465.243209245
 20
176.7548744503
 10
465.2613171754
 20
176.7276868466
 10
465.2605027771
 20
176.7289698499
  0
LWPOLYLINE
  5
78
330
1F
100
AcDbEntity
  8
0
  6
Continuous
 62
     7
370
    15
100
AcDbPolyline
 90
       26
 70
   128
 43
0.0
 10
370.1755084782
 20
183.7546960338
 10
369.9910529641
 20
183.4889289682
 10
369.6402507844
 20
182.983264132
 10
369.2927253844
 20
182.4820311736
 10
368.9522356779
 20
181.9906513793
 10
368.6223524211
 20
181.5142778553
 10
368.3065325841
 20
181.0579026034
 10
368.0080815925
 20
180.6263019704
 10
367.7301162641
 20
180.2239830413
 10
367.4755281594
 20
179.8551305438
 10
367.2469460638
 20
179.5235523473
 10
367.0466939624
 20
179.2326181185
 10
366.8767338006
 20
178.9851750893
 10
366.7385566159
 20
178.7833860856
 10
366.6328611755
 20
178.6282454931
 10
366.5578631049
 20
178.516988628
 10
366.5261799738
 20
178.4689495972
 10
366.4999491724
 20
178.4276615316
 10
366.4755803186
 20
178.3871153539
 10
366.4424747328
 20
178.3274930122
 10
366.3945407209
 20
178.2287800079
 10
366.3417851001
 20
178.0938873736
 10
366.2814222089
 20
177.8593683786
 10
366.2570213485
 20
177.5438298622
 10
366.2857767711
 20
177.2748408459
 10
366.3087556039
 20
177.1941926072
  0
LWPOLYLINE
  5
79
330
1F
100
AcDbEntity
  8
0
  6
Continuous
 62
     7
370
    15
100
AcDbPolyline
 90
       18
 70
   128
 43
0.0
 10
369.2098975587
 20
176.7260606722
 10
369.2174499902
 20
176.7374835232
 10
369.248877911
 20
176.7843062555
 10
369.3161031133
 20
176.8834001783
 10
369.4222261334
 20
177.0388208063
 10
369.5645651971
 20
177.2464491517
 10
369.7401959286
 20
177.5019635403
 10
369.9465970905
 20
177.8016788655
 10
370.1812856679
 20
178.1419833137
 10
370.4416323776
 20
178.5190616859
 10
370.7248060775
 20
178.9288121389
 10
371.0277692123
 20
179.366838653
 10
371.347294178
 20
179.8284743326
 10
371.6799895158
 20
180.3088191058
 10
372.0223313987
 20
180.802785131
 10
372.3706982613
 20
181.3051467511
 10
372.7030322158
 20
181.7841179629
 10
372.804248896
 20
181.9299429503
  0
LINE
  5
7A
330
1F
100
AcDbEntity
  8
0
  6
Continuous
 62
     7
370
    15
100
AcDbLine
 10
460.4935672653
 20
183.6218768176
 30
0.0
 11
461.6680314767
 21
181.9299429503
 31
0.0
  0
LINE
  5
7B
330
1F
100
AcDbEntity
  8
0
  6
Continuous
 62
     7
370
    15
100
AcDbLine
 10
464.2967718945
 20
183.7546960338
 30
0.0
 11
463.1223076831
 21
185.4466299011
 31
0.0
  0
LINE
  5
7C
330
1F
100
AcDbEntity
  8
0
  6
Continuous
 62
     7
370
    15
100
AcDbLine
 10
371.3499726895
 20
185.4466299011
 30
0.0
 11
370.1755084782
 21
183.7546960338
 31
0.0
  0
LINE
  5
7D
330
1F
100
AcDbEntity
  8
0
  6
Continuous
 62
     7
370
    15
100
AcDbLine
 10
372.804248896
 20
181.9299429503
 30
0.0
 11
373.9787131073
 21
183.6218768176
 31
0.0
  0
ARC
  5
7E
330
1F
100
AcDbEntity
  8
0
  6
Continuous
 62
     7
370
    15
100
AcDbCircle
 10
466.711459419
 20
187.9388034269
 30
0.0
 40
4.369546780372556
100
AcDbArc
 50
182.9164518823
 51
214.7746761464
  0
ARC
  5
7F
330
1F
100
AcDbEntity
  8
0
  6
Continuous
 62
     7
370
    15
100
AcDbCircle
 10
466.711771683
 20
187.9389100106
 30
0.0
 40
7.569864052216574
100
AcDbArc
 50
182.9149325111
 51
214.7705929186
  0
ARC
  5
80
330
1F
100
AcDbEntity
  8
0
  6
Continuous
 62
     7
370
    15
100
AcDbCircle
 10
367.7606399748
 20
187.9388651978
 30
0.0
 40
4.369730667992375
100
AcDbArc
 50
325.2260120053
 51
357.082859966
  0
ARC
  5
81
330
1F
100
AcDbEntity
  8
0
  6
Continuous
 62
     7
370
    15
100
AcDbCircle
 10
367.7611388593
 20
187.9386949584
 30
0.0
 40
7.56922376397797
100
AcDbArc
 50
325.2280239101
 51
357.0864506602
  0
LINE
  5
82
330
1F
100
AcDbEntity
  8
0
  6
Continuous
 62
     7
370
    15
100
AcDbLine
 10
455.7202331393
 20
255.03026023
 30
0.0
 11
459.1517019928
 21
187.5539580026
 31
0.0
  0
LINE
  5
83
330
1F
100
AcDbEntity
  8
0
  6
Continuous
 62
     7
370
    15
100
AcDbLine
 10
462.3475721247
 20
187.7164821549
 30
0.0
 11
458.9161032712
 21
255.1927843823
 31
0.0
  0
LINE
  5
84
330
1F
100
AcDbEntity
  8
0
  6
Continuous
 62
     7
370
    15
100
AcDbLine
 10
375.5561771015
 20
255.1927843823
 30
0.0
 11
372.1247082479
 21
187.7164821549
 31
0.0
  0
LINE
  5
85
330
1F
100
AcDbEntity
  8
0
  6
Continuous
 62
     7
370
    15
100
AcDbLine
 10
375.3205783798
 20
187.5539580026
 30
0.0
 11
378.7520472334
 21
255.03026023
 31
0.0
  0
LWPOLYLINE
  5
86
330
1F
100
AcDbEntity
  8
0
  6
Continuous
 62
     7
370
    15
100
AcDbPolyline
 90
       47
 70
   128
 43
0.0
 10
379.2361401863
 20
264.352177357
 10
379.2360642593
 20
264.3682626702
 10
379.235002756
 20
264.413826326
 10
379.2305981133
 20
264.4871769931
 10
379.213619548
 20
264.6220900151
 10
379.1652678987
 20
264.8257867178
 10
379.0592972575
 20
265.0862051767
 10
378.8980825307
 20
265.3387319958
 10
378.7211305747
 20
265.5310902058
 10
378.4959069432
 20
265.7045794247
 10
378.2345733352
 20
265.8391166204
 10
377.9480452828
 20
265.9245796485
 10
377.6483867181
 20
265.9552587782
 10
377.337309277
 20
265.9271834423
 10
377.0581544185
 20
265.847325569
 10
376.814039318
 20
265.7280485046
 10
376.6065714318
 20
265.5801864305
 10
376.4361482706
 20
265.4138077079
 10
376.3017800523
 20
265.238450287
 10
376.2011179031
 20
265.0632753553
 10
376.1306022582
 20
264.8974438327
 10
376.085860463
 20
264.7518511454
 10
376.062058781
 20
264.6433342075
 10
376.0511426213
 20
264.5757039014
 10
376.046427032
 20
264.5389087857
 10
376.043313466
 20
264.5100640369
 10
376.0406312791
 20
264.4806288759
 10
376.0383714954
 20
264.4512976054
 10
376.0350587389
 20
264.4014456389
 10
376.0279109734
 20
264.2815388604
 10
376.0171205356
 20
264.0899583435
 10
376.0036658178
 20
263.8442743707
 10
375.9873395467
 20
263.5412175936
 10
375.9681794984
 20
263.1815861022
 10
375.9462844939
 20
262.7672648881
 10
375.9217827145
 20
262.3006917831
 10
375.8948235519
 20
261.7847173722
 10
375.8655741346
 20
261.2225434133
 10
375.8342172157
 20
260.6176841759
 10
375.8009495183
 20
259.973935407
 10
375.7659802318
 20
259.2953457172
 10
375.7295295456
 20
258.5861883938
 10
375.6918271719
 20
257.8509328461
 10
375.6531108408
 20
257.0942153924
 10
375.6136247637
 20
256.3208093268
 10
375.5736180661
 20
255.5355943208
 10
375.5561771015
 20
255.1927843823
  0
LWPOLYLINE
  5
87
330
1F
100
AcDbEntity
  8
0
  6
Continuous
 62
     7
370
    15
100
AcDbPolyline
 90
       21
 70
   128
 43
0.0
 10
378.7520472334
 20
255.03026023
 10
378.7731839221
 20
255.4456728957
 10
378.8131282513
 20
256.2295172073
 10
378.8525354153
 20
257.0012292552
 10
378.8911485044
 20
257.7557775761
 10
378.9287232468
 20
258.4883888983
 10
378.965021882
 20
259.1944276656
 10
378.9998146356
 20
259.8694248029
 10
379.032881135
 20
260.5091053099
 10
379.0640117481
 20
261.1094142987
 10
379.093008821
 20
261.6665410709
 10
379.1196877816
 20
262.1769406243
 10
379.143878045
 20
262.6373515208
 10
379.1654235945
 20
263.0448079499
 10
379.1841829272
 20
263.3966409398
 10
379.2000275092
 20
263.6904550721
 10
379.2128358709
 20
263.924036531
 10
379.2224707798
 20
264.0950082857
 10
379.2281375435
 20
264.1907770194
 10
379.2300320868
 20
264.2203512582
 10
379.2299007209
 20
264.2187760218
  0
LWPOLYLINE
  5
88
330
1F
100
AcDbEntity
  8
0
  6
Continuous
 62
     7
370
    15
100
AcDbPolyline
 90
       46
 70
   128
 43
0.0
 10
458.9161032712
 20
255.1927843823
 10
458.894957886
 20
255.6083679631
 10
458.8549965817
 20
256.392545381
 10
458.8155716162
 20
257.164606018
 10
458.7769393748
 20
257.9195285495
 10
458.7393435966
 20
258.6525499072
 10
458.7030214198
 20
259.3590463548
 10
458.6682018643
 20
260.0345630447
 10
458.6351043517
 20
260.6748427733
 10
458.6039372673
 20
261.2758538001
 10
458.5748965618
 20
261.8338167869
 10
458.5481643742
 20
262.3452311238
 10
458.5239076334
 20
262.8069013799
 10
458.5022765257
 20
263.2159657205
 10
458.4834025374
 20
263.5699310685
 10
458.4673952163
 20
263.8667287771
 10
458.4543346269
 20
264.1048381418
 10
458.4442451371
 20
264.2836936061
 10
458.4369320824
 20
264.4060326252
 10
458.4336953363
 20
264.4542582656
 10
458.4314098707
 20
264.4834748723
 10
458.4279442584
 20
264.5200622034
 10
458.4226346943
 20
264.564717481
 10
458.4128721824
 20
264.6284818864
 10
458.3866536385
 20
264.7509368541
 10
458.3302319203
 20
264.928226696
 10
458.1900274912
 20
265.2082178359
 10
457.9864404301
 20
265.4675996133
 10
457.7914940001
 20
265.6389012768
 10
457.5488852164
 20
265.7878664253
 10
457.2746401659
 20
265.8940918277
 10
456.9805997575
 20
265.9487865625
 10
456.6793490153
 20
265.9475904266
 10
456.3735026226
 20
265.8869144093
 10
456.1047328545
 20
265.7782674317
 10
455.874834353
 20
265.6342113998
 10
455.6842890134
 20
265.465663167
 10
455.5324438041
 20
265.2826627908
 10
455.4173180939
 20
265.0945855573
 10
455.3356187516
 20
264.9102988432
 10
455.2828518497
 20
264.7385638585
 10
455.2535446443
 20
264.5898632043
 10
455.2411458012
 20
264.4805459631
 10
455.2372424647
 20
264.4128751886
 10
455.2363105675
 20
264.3762190929
 10
455.2361401863
 20
264.352177357
  0
LWPOLYLINE
  5
89
330
1F
100
AcDbEntity
  8
0
  6
Continuous
 62
     7
370
    15
100
AcDbPolyline
 90
       21
 70
   128
 43
0.0
 10
455.2421909991
 20
264.2213135545
 10
455.242108216
 20
264.2223676178
 10
455.2432509259
 20
264.2050267397
 10
455.2470617219
 20
264.1422239925
 10
455.2544570169
 20
264.0133120435
 10
455.2653910949
 20
263.8161951443
 10
455.2795597544
 20
263.5554544867
 10
455.2967583487
 20
263.2346251027
 10
455.3168339169
 20
262.8564931853
 10
455.3396408282
 20
262.423777513
 10
455.3650258244
 20
261.9393754225
 10
455.3928235111
 20
261.4064379036
 10
455.4228552664
 20
260.8283867438
 10
455.4549294293
 20
260.2089094411
 10
455.4888420522
 20
259.5519440425
 10
455.5243779473
 20
258.861658599
 10
455.56131191
 20
258.1424272974
 10
455.5994100602
 20
257.3988043077
 10
455.6384312683
 20
256.6354959465
 10
455.6781286456
 20
255.8573315623
 10
455.7202331393
 20
255.03026023
  0
LINE
  5
8A
330
1F
100
AcDbEntity
  8
0
  6
Continuous
 62
     7
370
    15
100
AcDbLine
 10
466.2608146685
 20
175.9787415538
 30
0.0
 11
466.6155876911
 21
175.9787415538
 31
0.0
  0
LINE
  5
8B
330
1F
100
AcDbEntity
  8
0
  6
Continuous
 62
     7
370
    15
100
AcDbLine
 10
367.8566926815
 20
175.9787415538
 30
0.0
 11
368.2114657041
 21
175.9787415538
 31
0.0
  0
LINE
  5
8C
330
1F
100
AcDbEntity
  8
0
  6
Continuous
 62
     7
370
    15
100
AcDbLine
 10
379.2361401863
 20
264.3162415538
 30
0.0
 11
379.2361401863
 21
264.352177357
 31
0.0
  0
LINE
  5
8D
330
1F
100
AcDbEntity
  8
0
  6
Continuous
 62
     7
370
    15
100
AcDbLine
 10
379.2361401863
 20
263.1162415538
 30
0.0
 11
379.2361401863
 21
263.3914915929
 31
0.0
  0
LINE
  5
8E
330
1F
100
AcDbEntity
  8
0
  6
Continuous
 62
     7
370
    15
100
AcDbLine
 10
455.2361401863
 20
263.3914915929
 30
0.0
 11
455.2361401863
 21
263.1162415538
 31
0.0
  0
LINE
  5
8F
330
1F
100
AcDbEntity
  8
0
  6
Continuous
 62
     7
370
    15
100
AcDbLine
 10
455.2361401863
 20
264.352177357
 30
0.0
 11
455.2361401863
 21
264.3162415538
 31
0.0
  0
ARC
  5
90
330
1F
100
AcDbEntity
  8
0
  6
Continuous
 62
     7
370
    15
100
AcDbCircle
 10
578.3187017577
 20
251.4528835942
 30
0.0
 40
205.7363222334262
100
AcDbArc
 50
175.7090746114
 51
176.4770458641
  0
ARC
  5
91
330
1F
100
AcDbEntity
  8
0
  6
Continuous
 62
     7
370
    15
100
AcDbCircle
 10
552.8034231876
 20
252.0995041607
 30
0.0
 40
180.2239292100991
100
AcDbArc
 50
177.1572202036
 51
177.9877143272
  0
ARC
  5
92
330
1F
100
AcDbEntity
  8
0
  6
Continuous
 62
     7
370
    15
100
AcDbCircle
 10
591.8498338149
 20
250.4554319255
 30
0.0
 40
222.504157155113
100
AcDbArc
 50
175.7139776312
 51
177.9175449102
  0
ARC
  5
93
330
1F
100
AcDbEntity
  8
0
  6
Continuous
 62
     7
370
    15
100
AcDbCircle
 10
282.9065981264
 20
252.159869113
 30
0.0
 40
178.9848327103695
100
AcDbArc
 50
2.0068866245
 51
2.8430845339
  0
ARC
  5
94
330
1F
100
AcDbEntity
  8
0
  6
Continuous
 62
     7
370
    15
100
AcDbCircle
 10
253.9783085646
 20
251.3121032285
 30
0.0
 40
207.9160294953027
100
AcDbArc
 50
3.5248550678
 51
4.2847609412
  0
ARC
  5
95
330
1F
100
AcDbEntity
  8
0
  6
Continuous
 62
     7
370
    15
100
AcDbCircle
 10
242.9219224998
 20
250.4720925921
 30
0.0
 40
222.2042736611706
100
AcDbArc
 50
2.0809679557
 51
4.2875095028
  0
LINE
  5
96
330
1F
100
AcDbEntity
  8
0
  6
Continuous
 62
     7
370
    15
100
AcDbLine
 10
372.7725359298
 20
261.011056651
 30
0.0
 11
375.8546103056
 21
261.011056651
 31
0.0
  0
LINE
  5
97
330
1F
100
AcDbEntity
  8
0
  6
Continuous
 62
     7
370
    15
100
AcDbLine
 10
379.0589111517
 20
261.011056651
 30
0.0
 11
379.9466251015
 21
261.011056651
 31
0.0
  0
LINE
  5
98
330
1F
100
AcDbEntity
  8
0
  6
Continuous
 62
     7
370
    15
100
AcDbLine
 10
454.5300883938
 20
261.011056651
 30
0.0
 11
455.4133649335
 21
261.011056651
 31
0.0
  0
LINE
  5
99
330
1F
100
AcDbEntity
  8
0
  6
Continuous
 62
     7
370
    15
100
AcDbLine
 10
458.6176690538
 20
261.011056651
 30
0.0
 11
461.6997444429
 21
261.011056651
 31
0.0
  0
LINE
  5
9A
330
1F
100
AcDbEntity
  8
0
  6
Continuous
 62
     7
370
    15
100
AcDbLine
 10
461.5155383772
 20
264.111056651
 30
0.0
 11
458.453983832
 21
264.111056651
 31
0.0
  0
LINE
  5
9B
330
1F
100
AcDbEntity
  8
0
  6
Continuous
 62
     7
370
    15
100
AcDbLine
 10
376.0183088609
 20
264.111056651
 30
0.0
 11
372.9567419954
 21
264.111056651
 31
0.0
  0
LINE
  5
9C
330
1F
100
AcDbEntity
  8
0
  6
Continuous
 62
     7
370
    15
100
AcDbLine
 10
464.5043475496
 20
267.0843814865
 30
0.0
 11
460.1253558355
 21
325.7628704563
 31
0.0
  0
LINE
  5
9D
330
1F
100
AcDbEntity
  8
0
  6
Continuous
 62
     7
370
    15
100
AcDbLine
 10
456.9342294591
 20
325.5247266969
 30
0.0
 11
461.3132211733
 21
266.8462377271
 31
0.0
  0
LINE
  5
9E
330
1F
100
AcDbEntity
  8
0
  6
Continuous
 62
     7
370
    15
100
AcDbLine
 10
373.1590591993
 20
266.8462377271
 30
0.0
 11
377.5380509135
 21
325.5247266969
 31
0.0
  0
LINE
  5
9F
330
1F
100
AcDbEntity
  8
0
  6
Continuous
 62
     7
370
    15
100
AcDbLine
 10
374.3469245371
 20
325.7628704563
 30
0.0
 11
369.967932823
 21
267.0843814865
 31
0.0
  0
LINE
  5
A0
330
1F
100
AcDbEntity
  8
0
  6
Continuous
 62
     7
370
    15
100
AcDbLine
 10
370.0834149199
 20
184.5566324983
 30
0.0
 11
372.6906343432
 21
258.4278494933
 31
0.0
  0
LINE
  5
A1
330
1F
100
AcDbEntity
  8
0
  6
Continuous
 62
     7
370
    15
100
AcDbLine
 10
369.4926255627
 20
258.5407203914
 30
0.0
 11
366.8854061393
 21
184.6695033965
 31
0.0
  0
LINE
  5
A2
330
1F
100
AcDbEntity
  8
0
  6
Continuous
 62
     7
370
    15
100
AcDbLine
 10
467.5868742333
 20
184.6695033965
 30
0.0
 11
464.9796548099
 21
258.5407203914
 31
0.0
  0
LINE
  5
A3
330
1F
100
AcDbEntity
  8
0
  6
Continuous
 62
     7
370
    15
100
AcDbLine
 10
461.7816460294
 20
258.4278494933
 30
0.0
 11
464.3888654527
 21
184.5566324983
 31
0.0
  0
ARC
  5
A4
330
1F
100
AcDbEntity
  8
0
  6
Continuous
 62
     7
370
    15
100
AcDbCircle
 10
439.7379491536
 20
321.5846785982
 30
0.0
 40
62.32456433945178
100
AcDbArc
 50
170.7818968589
 51
176.3754457122
  0
ARC
  5
A5
330
1F
100
AcDbEntity
  8
0
  6
Continuous
 62
     7
370
    15
100
AcDbCircle
 10
441.2313218304
 20
321.4132701978
 30
0.0
 40
67.02567883799318
100
AcDbArc
 50
170.7967642373
 51
176.2792023442
  0
ARC
  5
A6
330
1F
100
AcDbEntity
  8
0
  6
Continuous
 62
     7
370
    15
100
AcDbCircle
 10
390.1089484113
 20
321.0641152244
 30
0.0
 40
66.97398929310702
100
AcDbArc
 50
3.8188487838
 51
9.0238086451
  0
ARC
  5
A7
330
1F
100
AcDbEntity
  8
0
  6
Continuous
 62
     7
370
    15
100
AcDbCircle
 10
391.5414413116
 20
321.2207758748
 30
0.0
 40
68.73415420740838
100
AcDbArc
 50
3.7889842724
 51
9.1350491461
  0
LINE
  5
A8
330
1F
100
AcDbEntity
  8
0
  6
Continuous
 62
     7
370
    15
100
AcDbLine
 10
459.4038315176
 20
332.1331518826
 30
0.0
 11
459.2187741378
 21
333.1657228899
 31
0.0
  0
LINE
  5
A9
330
1F
100
AcDbEntity
  8
0
  6
Continuous
 62
     7
370
    15
100
AcDbLine
 10
456.068960047
 20
332.6012131966
 30
0.0
 11
456.2540174268
 21
331.5686421894
 31
0.0
  0
LINE
  5
AA
330
1F
100
AcDbEntity
  8
0
  6
Continuous
 62
     7
370
    15
100
AcDbLine
 10
378.2182629458
 20
331.5686421894
 30
0.0
 11
378.4033203256
 21
332.6012131966
 31
0.0
  0
LINE
  5
AB
330
1F
100
AcDbEntity
  8
0
  6
Continuous
 62
     7
370
    15
100
AcDbLine
 10
375.2535062349
 20
333.1657228899
 30
0.0
 11
375.068448855
 21
332.1331518826
 31
0.0
  0
LWPOLYLINE
  5
AC
330
1F
100
AcDbEntity
  8
0
  6
Continuous
 62
     7
370
    15
100
AcDbPolyline
 90
       16
 70
   128
 43
0.0
 10
378.4033203256
 20
332.6012131966
 10
378.4121916094
 20
332.6400169629
 10
378.4522696224
 20
332.7440496547
 10
378.5264945545
 20
332.870025266
 10
378.6421123451
 20
333.0156272382
 10
378.8187881362
 20
333.188675302
 10
379.04843393
 20
333.3679667802
 10
379.3310849146
 20
333.546964009
 10
379.6645068979
 20
333.7191383748
 10
380.0455560414
 20
333.8788695705
 10
380.4695629222
 20
334.0210273542
 10
380.9306141808
 20
334.1411660911
 10
381.4218294092
 20
334.2356300623
 10
381.9356125694
 20
334.3016028454
 10
382.4638699883
 20
334.3371247985
 10
382.7976321711
 20
334.3433382637
  0
LWPOLYLINE
  5
AD
330
1F
100
AcDbEntity
  8
0
  6
Continuous
 62
     7
370
    15
100
AcDbPolyline
 90
       17
 70
   128
 43
0.0
 10
382.7976321711
 20
337.5433382637
 10
382.4252449461
 20
337.5376395295
 10
381.7367502094
 20
337.4968669094
 10
381.0558742592
 20
337.4168957528
 10
380.3875557875
 20
337.2978184844
 10
379.7364675714
 20
337.1396864386
 10
379.1072345182
 20
336.9424736878
 10
378.504525206
 20
336.706050259
 10
377.9332316852
 20
336.4302152388
 10
377.398752668
 20
336.1148734088
 10
376.9076399412
 20
335.7607231488
 10
376.4677650829
 20
335.3703230135
 10
376.0867269701
 20
334.9481391882
 10
375.7708926868
 20
334.5007167084
 10
375.5240675441
 20
334.0356327631
 10
375.3472350736
 20
333.5601935967
 10
375.2535062349
 20
333.1657228899
  0
LWPOLYLINE
  5
AE
330
1F
100
AcDbEntity
  8
0
  6
Continuous
 62
     7
370
    15
100
AcDbPolyline
 90
       16
 70
   128
 43
0.0
 10
451.6746482015
 20
334.3433382637
 10
451.949075635
 20
334.3391392748
 10
452.479637612
 20
334.3069808304
 10
452.9978585471
 20
334.2438707897
 10
453.4951269714
 20
334.1515260576
 10
453.9634214535
 20
334.0325757063
 10
454.3952452329
 20
333.8906081494
 10
454.7838606712
 20
333.7302098663
 10
455.1235919968
 20
333.5569825976
 10
455.4102106424
 20
333.3775023697
 10
455.6414032563
 20
333.1991613336
 10
455.8172909023
 20
333.0298060185
 10
455.9405591095
 20
332.8775614163
 10
456.0176398511
 20
332.7488957892
 10
456.0583414455
 20
332.646190912
 10
456.068960047
 20
332.6012131966
  0
LWPOLYLINE
  5
AF
330
1F
100
AcDbEntity
  8
0
  6
Continuous
 62
     7
370
    15
100
AcDbPolyline
 90
       18
 70
   128
 43
0.0
 10
459.2187741378
 20
333.1657228899
 10
459.1448561606
 20
333.491022312
 10
458.9896299986
 20
333.9400471459
 10
458.7771633943
 20
334.3726183955
 10
458.5075792202
 20
334.788832437
 10
458.18087073
 20
335.1870086936
 10
457.7972133879
 20
335.5647243301
 10
457.358010592
 20
335.9185658919
 10
456.8666938763
 20
336.2444399863
 10
456.3287076121
 20
336.5383408778
 10
455.750683294
 20
336.7970859791
 10
455.1401086272
 20
337.0183740359
 10
454.5030061362
 20
337.2012870204
 10
453.844923802
 20
337.3453641049
 10
453.1710871669
 20
337.4503710155
 10
452.4865465393
 20
337.5161815867
 10
451.8326578479
 20
337.5423128004
 10
451.6746482015
 20
337.5433382637
  0
LINE
  5
B0
330
1F
100
AcDbEntity
  8
0
  6
Continuous
 62
     7
370
    15
100
AcDbLine
 10
382.7976321711
 20
334.3433382637
 30
0.0
 11
451.6746482015
 21
334.3433382637
 31
0.0
  0
LINE
  5
B1
330
1F
100
AcDbEntity
  8
0
  6
Continuous
 62
     7
370
    15
100
AcDbLine
 10
451.6746482015
 20
337.5433382637
 30
0.0
 11
382.7976321711
 21
337.5433382637
 31
0.0
  0
ARC
  5
B2
330
1F
100
AcDbEntity
  8
0
  6
Continuous
 62
     7
370
    15
100
AcDbCircle
 10
466.2561000907
 20
177.5492892252
 30
0.0
 40
1.57055474756666
100
AcDbArc
 50
238.3479447308
 51
270.1719938881
  0
LWPOLYLINE
  5
B3
330
1F
100
AcDbEntity
  8
0
  6
Continuous
 62
     7
370
    15
100
AcDbPolyline
 90
        4
 70
   128
 43
0.0
 10
464.3888654527
 20
184.5566324983
 10
464.3985377967
 20
184.2834496061
 10
464.4176923227
 20
183.7471647516
 10
464.4240403601
 20
183.5713234053
  0
ARC
  5
B4
330
1F
100
AcDbEntity
  8
0
  6
Continuous
 62
     7
370
    15
100
AcDbCircle
 10
466.2869343423
 20
177.6020651504
 30
0.0
 40
1.631661489975259
100
AcDbArc
 50
179.6003360635
 51
238.3987559931
  0
LWPOLYLINE
  5
B5
330
1F
100
AcDbEntity
  8
0
  6
Continuous
 62
     7
370
    15
100
AcDbPolyline
 90
       14
 70
   128
 43
0.0
 10
467.8122001182
 20
178.6682736045
 10
467.8043677252
 20
178.8598794283
 10
467.7888306147
 20
179.2479664576
 10
467.7718430122
 20
179.6794890386
 10
467.7536294965
 20
180.148772728
 10
467.7344260889
 20
180.6497522535
 10
467.7144792475
 20
181.1760070264
 10
467.6940436865
 20
181.7208222774
 10
467.6733796414
 20
182.2772632409
 10
467.6527498547
 20
182.8382565341
 10
467.6324164277
 20
183.3966754407
 10
467.6126378521
 20
183.9454206592
 10
467.5936654364
 20
184.4775183364
 10
467.5868742333
 20
184.6695033965
  0
ARC
  5
B6
330
1F
100
AcDbEntity
  8
0
  6
Continuous
 62
     7
370
    15
100
AcDbCircle
 10
368.1604404391
 20
177.6139380552
 30
0.0
 40
1.656503632408216
100
AcDbArc
 50
302.5387046646
 51
359.981717087
  0
LWPOLYLINE
  5
B7
330
1F
100
AcDbEntity
  8
0
  6
Continuous
 62
     7
370
    15
100
AcDbPolyline
 90
        4
 70
   128
 43
0.0
 10
370.048236504
 20
183.5713201165
 10
370.0584056039
 20
183.8535800833
 10
370.0773863642
 20
184.3861640833
 10
370.0834149199
 20
184.5566324983
  0
ARC
  5
B8
330
1F
100
AcDbEntity
  8
0
  6
Continuous
 62
     7
370
    15
100
AcDbCircle
 10
368.2446906366
 20
177.4589428846
 30
0.0
 40
1.48057417094811
100
AcDbArc
 50
268.7141419497
 51
303.0163186974
  0
LWPOLYLINE
  5
B9
330
1F
100
AcDbEntity
  8
0
  6
Continuous
 62
     7
370
    15
100
AcDbPolyline
 90
       14
 70
   128
 43
0.0
 10
366.8854061393
 20
184.6695033965
 10
366.8757588206
 20
184.3970273352
 10
366.856656843
 20
183.8622127312
 10
366.8367790575
 20
183.3115931657
 10
366.81638436
 20
182.7523455094
 10
366.7957318761
 20
182.1915765934
 10
366.7750840065
 20
181.6364115558
 10
366.7547032646
 20
181.0939079192
 10
366.734848787
 20
180.570961609
 10
366.7157734135
 20
180.074228802
 10
366.6977207474
 20
179.610047397
 10
366.6809225229
 20
179.1843662385
 10
366.6655965312
 20
178.8026870921
 10
366.660077492
 20
178.6681938151
  0
LWPOLYLINE
  5
BA
330
1F
100
AcDbEntity
  8
0
  6
Continuous
 62
     7
370
    15
100
AcDbPolyline
 90
       12
 70
   128
 43
0.0
 10
387.7361401863
 20
254.9791640727
 10
386.419176438
 20
255.0879097798
 10
385.1022126898
 20
255.4229772186
 10
383.894970907
 20
255.9546874243
 10
382.7634192376
 20
256.6949423432
 10
381.8336758143
 20
257.5436836175
 10
381.0429752323
 20
258.5323605512
 10
380.5085999857
 20
259.4480534328
 10
380.1174063825
 20
260.3887842981
 10
379.8862775496
 20
261.2309438242
 10
379.7660295592
 20
262.01727013
 10
379.7361401863
 20
262.6428346377
  0
LINE
  5
BB
330
1F
100
AcDbEntity
  8
0
  6
Continuous
 62
     7
370
    15
100
AcDbLine
 10
379.7361401863
 20
262.6428346377
 30
0.0
 11
379.7361401863
 21
262.8740646716
 31
0.0
  0
LWPOLYLINE
  5
BC
330
1F
100
AcDbEntity
  8
0
  6
Continuous
 62
     7
370
    15
100
AcDbPolyline
 90
       12
 70
   128
 43
0.0
 10
379.7361401863
 20
262.8740646716
 10
379.8031159711
 20
261.9088700071
 10
380.0331965933
 20
260.8415750694
 10
380.4413030863
 20
259.764212553
 10
381.066836571
 20
258.6667197631
 10
381.7818534854
 20
257.7646280823
 10
382.6621432666
 20
256.9378039777
 10
383.6500441178
 20
256.2540248301
 10
384.7617481919
 20
255.7101301723
 10
385.9943223853
 20
255.3307486633
 10
387.3076494039
 20
255.1510113391
 10
387.7361401863
 20
255.13956525
  0
LINE
  5
BD
330
1F
100
AcDbEntity
  8
0
  6
Continuous
 62
     7
370
    15
100
AcDbLine
 10
454.7361401863
 20
262.8740646716
 30
0.0
 11
454.7361401863
 21
262.6428346377
 31
0.0
  0
LWPOLYLINE
  5
BE
330
1F
100
AcDbEntity
  8
0
  6
Continuous
 62
     7
370
    15
100
AcDbPolyline
 90
       12
 70
   128
 43
0.0
 10
454.7361401863
 20
262.6428346377
 10
454.6883956012
 20
261.8506425413
 10
454.5122216214
 20
260.9162998155
 10
454.1782455193
 20
259.9197276759
 10
453.6360660175
 20
258.8539749692
 10
453.00980415
 20
257.968322432
 10
452.2178513187
 20
257.1266442522
 10
451.3349128499
 20
256.4200379246
 10
450.3287877573
 20
255.8256314266
 10
449.1728105362
 20
255.3574870294
 10
447.9250973304
 20
255.0676913768
 10
446.7361401863
 20
254.9791640727
  0
LWPOLYLINE
  5
BF
330
1F
100
AcDbEntity
  8
0
  6
Continuous
 62
     7
370
    15
100
AcDbPolyline
 90
       12
 70
   128
 43
0.0
 10
446.7361401863
 20
255.13956525
 10
448.055227272
 20
255.248671911
 10
449.3743143578
 20
255.5849797154
 10
450.5832480399
 20
256.1189366663
 10
451.716325599
 20
256.8631587619
 10
452.6563293551
 20
257.7276632472
 10
453.4559853114
 20
258.7418029244
 10
454.0109950041
 20
259.7217965031
 10
454.4107939636
 20
260.7476844139
 10
454.6372443984
 20
261.7006296337
 10
454.7313728914
 20
262.617480377
 10
454.7361401863
 20
262.8740646716
  0
LINE
  5
C0
330
1F
100
AcDbEntity
  8
0
  6
Continuous
 62
     7
370
    15
100
AcDbLine
 10
454.7361401863
 20
266.3611180686
 30
0.0
 11
454.7361401863
 21
262.8740646716
 31
0.0
  0
LINE
  5
C1
330
1F
100
AcDbEntity
  8
0
  6
Continuous
 62
     7
370
    15
100
AcDbLine
 10
446.7361401863
 20
255.13956525
 30
0.0
 11
387.7361401863
 21
255.13956525
 31
0.0
  0
LINE
  5
C2
330
1F
100
AcDbEntity
  8
0
  6
Continuous
 62
     7
370
    15
100
AcDbLine
 10
379.7361401863
 20
266.3611180686
 30
0.0
 11
379.7361401863
 21
262.8740646716
 31
0.0
  0
LINE
  5
C3
330
1F
100
AcDbEntity
  8
0
  6
Continuous
 62
     7
370
    15
100
AcDbLine
 10
446.7361401863
 20
254.9791640727
 30
0.0
 11
387.7361401863
 21
254.9791640727
 31
0.0
  0
LINE
  5
C4
330
1F
100
AcDbEntity
  8
0
  6
Continuous
 62
     7
370
    15
100
AcDbLine
 10
459.3237998782
 20
288.1295784303
 30
0.0
 11
459.2969128348
 21
288.4898648131
 31
0.0
  0
LWPOLYLINE
  5
C5
330
1F
100
AcDbEntity
  8
0
  6
Continuous
 62
     7
370
    15
100
AcDbPolyline
 90
       28
 70
   128
 43
0.0
 10
459.3237998782
 20
288.1295784303
 10
456.2921641449
 20
287.9722119283
 10
453.2407820347
 20
287.8266425643
 10
450.1711962992
 20
287.692943937
 10
447.0849588934
 20
287.5711836431
 10
443.9836301915
 20
287.4614232436
 10
440.8687781976
 20
287.3637182324
 10
437.741977753
 20
287.2781180083
 10
434.60480974
 20
287.2046658499
 10
431.4588602829
 20
287.1433988941
 10
428.3057199455
 20
287.0943481167
 10
425.1469829275
 20
287.0575383176
 10
421.984246258
 20
287.0329881073
 10
418.8191089885
 20
287.0207098983
 10
415.6531713841
 20
287.0207098983
 10
412.4880341146
 20
287.0329881073
 10
409.3252974452
 20
287.0575383176
 10
406.1665604271
 20
287.0943481167
 10
403.0134200897
 20
287.1433988941
 10
399.8674706326
 20
287.2046658499
 10
396.7303026197
 20
287.2781180083
 10
393.603502175
 20
287.3637182324
 10
390.4886501811
 20
287.4614232436
 10
387.3873214792
 20
287.5711836431
 10
384.3010840735
 20
287.692943937
 10
381.2314983379
 20
287.8266425643
 10
378.1801162277
 20
287.9722119283
 10
375.1484804944
 20
288.1295784303
  0
LINE
  5
C6
330
1F
100
AcDbEntity
  8
0
  6
Continuous
 62
     7
370
    15
100
AcDbLine
 10
375.1753675379
 20
288.4898648131
 30
0.0
 11
375.1484804944
 21
288.1295784303
 31
0.0
  0
LWPOLYLINE
  5
C7
330
1F
100
AcDbEntity
  8
0
  6
Continuous
 62
     7
370
    15
100
AcDbPolyline
 90
       28
 70
   128
 43
0.0
 10
459.2969128348
 20
288.4898648131
 10
456.2696901723
 20
288.3303590771
 10
453.222167678
 20
288.1828018557
 10
450.15593025
 20
288.0472698877
 10
447.0725725192
 20
287.923833658
 10
443.9736980199
 20
287.8125573609
 10
440.8609183563
 20
287.7134988669
 10
437.7358523641
 20
287.6267096926
 10
434.6001252687
 20
287.5522349735
 10
431.4553678397
 20
287.4901134411
 10
428.3032155432
 20
287.4403774023
 10
425.1453076912
 20
287.403052723
 10
421.9832865886
 20
287.3781588143
 10
418.8187966798
 20
287.3657086226
 10
415.6534836928
 20
287.3657086226
 10
412.488993784
 20
287.3781588143
 10
409.3269726814
 20
287.403052723
 10
406.1690648294
 20
287.4403774023
 10
403.016912533
 20
287.4901134411
 10
399.872155104
 20
287.5522349735
 10
396.7364280085
 20
287.6267096926
 10
393.6113620163
 20
287.7134988669
 10
390.4985823528
 20
287.8125573609
 10
387.3997078535
 20
287.923833658
 10
384.3163501226
 20
288.0472698877
 10
381.2501126946
 20
288.1828018557
 10
378.2025902004
 20
288.3303590771
 10
375.1753675379
 20
288.4898648131
  0
LWPOLYLINE
  5
C8
330
1F
100
AcDbEntity
  8
0
  6
Continuous
 62
     7
370
    15
100
AcDbPolyline
 90
       26
 70
   128
 43
0.0
 10
377.6647909458
 20
321.8481384797
 10
380.7521131243
 20
321.696423679
 10
383.8589508124
 20
321.5570649507
 10
386.9836421454
 20
321.4301368384
 10
390.1245157084
 20
321.3157072367
 10
393.2798914306
 20
321.2138373547
 10
396.4480814839
 20
321.1245816832
 10
399.6273911859
 20
321.0479879654
 10
402.8161199059
 20
320.9840971719
 10
406.0125619753
 20
320.932943478
 10
409.2150075992
 20
320.8945542463
 10
412.4217437718
 20
320.8689500114
 10
415.6310551918
 20
320.856144469
 10
418.8412251808
 20
320.856144469
 10
422.0505366008
 20
320.8689500114
 10
425.2572727734
 20
320.8945542463
 10
428.4597183974
 20
320.932943478
 10
431.6561604667
 20
320.9840971719
 10
434.8448891867
 20
321.0479879654
 10
438.0241988887
 20
321.1245816832
 10
441.192388942
 20
321.2138373547
 10
444.3477646642
 20
321.3157072367
 10
447.4886382272
 20
321.4301368384
 10
450.6133295602
 20
321.5570649507
 10
453.7201672483
 20
321.696423679
 10
456.8074894268
 20
321.8481384797
  0
LINE
  5
C9
330
1F
100
AcDbEntity
  8
0
  6
Continuous
 62
     7
370
    15
100
AcDbLine
 10
375.1753675379
 20
288.4898648131
 30
0.0
 11
377.6647909458
 21
321.8481384797
 31
0.0
  0
LINE
  5
CA
330
1F
100
AcDbEntity
  8
0
  6
Continuous
 62
     7
370
    15
100
AcDbLine
 10
456.8074894268
 20
321.8481384797
 30
0.0
 11
459.2969128348
 21
288.4898648131
 31
0.0
  0
ELLIPSE
  5
CB
330
1F
100
AcDbEntity
  8
0
  6
Continuous
 62
     7
370
    15
100
AcDbEllipse
 10
415.6312120777
 20
289.9434081228
 30
0.0
 11
140.9199999536121
 21
-10.53731466020309
 31
0.0
210
0.0
220
0.0
230
1.0
 40
0.0003408194
 41
1.85951610969252
 42
1.86247021668809
  0
ELLIPSE
  5
CC
330
1F
100
AcDbEntity
  8
0
  6
Continuous
 62
     7
370
    15
100
AcDbEllipse
 10
415.6312120777
 20
289.9434081228
 30
0.0
 11
141.4799999539054
 21
-10.53731465056791
 31
0.0
210
0.0
220
0.0
230
1.0
 40
0.0003394853
 41
4.421896696341165
 42
4.424838144814274
  0
ELLIPSE
  5
CD
330
1F
100
AcDbEntity
  8
0
  6
Continuous
 62
     7
370
    15
100
AcDbEllipse
 10
415.6312120777
 20
294.9573117145
 30
0.0
 11
140.9199999530785
 21
-10.53731466016313
 31
0.0
210
0.0
220
0.0
230
1.0
 40
0.0003408194
 41
1.856762748207503
 42
1.859714438374261
  0
ELLIPSE
  5
CE
330
1F
100
AcDbEntity
  8
0
  6
Continuous
 62
     7
370
    15
100
AcDbEllipse
 10
417.2361401863
 20
311.4494447788
 30
0.0
 11
140.9199999536121
 21
-10.53731466020309
 31
0.0
210
0.0
220
0.0
230
1.0
 40
0.0003408194
 41
1.859516109692841
 42
1.862470216688414
  0
ELLIPSE
  5
CF
330
1F
100
AcDbEntity
  8
0
  6
Continuous
 62
     7
370
    15
100
AcDbEllipse
 10
417.2361401863
 20
316.4633483705
 30
0.0
 11
140.9199999530784
 21
-10.53731466016314
 31
0.0
210
0.0
220
0.0
230
1.0
 40
0.0003408194
 41
1.856762748207495
 42
1.859714438373622
  0
ELLIPSE
  5
D0
330
1F
100
AcDbEntity
  8
0
  6
Continuous
 62
     7
370
    15
100
AcDbEllipse
 10
417.2361401863
 20
311.4494447788
 30
0.0
 11
141.4799999539054
 21
-10.53731465056791
 31
0.0
210
0.0
220
0.0
230
1.0
 40
0.0003394853
 41
4.421896696341165
 42
4.424838144814274
  0
ARC
  5
D1
330
1F
100
AcDbEntity
  8
0
  6
Continuous
 62
     7
370
    15
100
AcDbCircle
 10
466.6155866859
 20
177.5787304158
 30
0.0
 40
1.599988861691874
100
AcDbArc
 50
269.9839388147
 51
322.601414204
  0
LWPOLYLINE
  5
D2
330
1F
100
AcDbEntity
  8
0
  6
Continuous
 62
     7
370
    15
100
AcDbPolyline
 90
        3
 70
   128
 43
0.0
 10
366.5856151564
 20
176.6069672105
 10
366.4064305542
 20
176.9029322493
 10
366.3037104768
 20
177.193746014
  0
ARC
  5
D3
330
1F
100
AcDbEntity
  8
0
  6
Continuous
 62
     7
370
    15
100
AcDbCircle
 10
367.8566936867
 20
177.5787304158
 30
0.0
 40
1.599988861691874
100
AcDbArc
 50
217.398585796
 51
270.0160611853
  0
LWPOLYLINE
  5
D4
330
1F
100
AcDbEntity
  8
0
  6
Continuous
 62
     7
370
    15
100
AcDbPolyline
 90
        3
 70
   128
 43
0.0
 10
379.109796024
 20
261.9876997948
 10
379.1314825006
 20
262.0281102209
 10
379.1713660907
 20
262.1914915929
  0
ARC
  5
D5
330
1F
100
AcDbEntity
  8
0
  6
Continuous
 62
     7
370
    15
100
AcDbCircle
 10
377.6371035509
 20
263.1162440109
 30
0.0
 40
1.599036635372628
100
AcDbArc
 50
344.1613972669
 51
359.9999119594
  0
LWPOLYLINE
  5
D6
330
1F
100
AcDbEntity
  8
0
  6
Continuous
 62
     7
370
    15
100
AcDbPolyline
 90
        3
 70
   128
 43
0.0
 10
379.2240141892
 20
264.119691329
 10
379.2327144635
 20
264.2116292538
 10
379.2361401863
 20
264.3162415538
  0
LWPOLYLINE
  5
D7
330
1F
100
AcDbEntity
  8
0
  6
Continuous
 62
     7
370
    15
100
AcDbPolyline
 90
        3
 70
   128
 43
0.0
 10
455.2482686871
 20
264.1196711165
 10
455.2395659092
 20
264.2116292538
 10
455.2361401863
 20
264.3162415538
  0
ARC
  5
D8
330
1F
100
AcDbEntity
  8
0
  6
Continuous
 62
     7
370
    15
100
AcDbCircle
 10
456.8351768179
 20
263.1162440106
 30
0.0
 40
1.599036631598561
100
AcDbArc
 50
180.0000880297
 51
195.8373412027
  0
LINE
  5
D9
330
1F
100
AcDbEntity
  8
0
  6
Continuous
 62
     7
370
    15
100
AcDbLine
 10
455.2920176669
 20
262.1914915929
 30
0.0
 11
455.3618799921
 21
261.9994048869
 31
0.0
  0
LINE
  5
DA
330
1F
100
AcDbEntity
  8
0
  6
Continuous
 62
     7
370
    15
100
AcDbLine
 10
379.2361401863
 20
264.3162415538
 30
0.0
 11
379.7361401863
 21
264.3162415538
 31
0.0
  0
LINE
  5
DB
330
1F
100
AcDbEntity
  8
0
  6
Continuous
 62
     7
370
    15
100
AcDbLine
 10
454.7361401863
 20
264.3162415538
 30
0.0
 11
455.2361401863
 21
264.3162415538
 31
0.0
  0
LINE
  5
DC
330
1F
100
AcDbEntity
  8
0
  6
Continuous
 62
     7
370
    15
100
AcDbLine
 10
379.1906461408
 20
263.5164915929
 30
0.0
 11
379.7361401863
 21
263.5164915929
 31
0.0
  0
LINE
  5
DD
330
1F
100
AcDbEntity
  8
0
  6
Continuous
 62
     7
370
    15
100
AcDbLine
 10
454.7361401863
 20
263.5164915929
 30
0.0
 11
455.2816484253
 21
263.5164915929
 31
0.0
  0
LINE
  5
DE
330
1F
100
AcDbEntity
  8
0
  6
Continuous
 62
     7
370
    15
100
AcDbLine
 10
379.1839083699
 20
263.3914915929
 30
0.0
 11
379.7361401863
 21
263.3914915929
 31
0.0
  0
LINE
  5
DF
330
1F
100
AcDbEntity
  8
0
  6
Continuous
 62
     7
370
    15
100
AcDbLine
 10
454.7361401863
 20
263.3914915929
 30
0.0
 11
455.2883492588
 21
263.3914915929
 31
0.0
  0
LINE
  5
E0
330
1F
100
AcDbEntity
  8
0
  6
Continuous
 62
     7
370
    15
100
AcDbLine
 10
455.2361401863
 20
263.1162415538
 30
0.0
 11
454.7361401863
 21
263.1162415538
 31
0.0
  0
LINE
  5
E1
330
1F
100
AcDbEntity
  8
0
  6
Continuous
 62
     7
370
    15
100
AcDbLine
 10
379.7361401863
 20
263.1162415538
 30
0.0
 11
379.2361401863
 21
263.1162415538
 31
0.0
  0
LINE
  5
E2
330
1F
100
AcDbEntity
  8
0
  6
Continuous
 62
     7
370
    15
100
AcDbLine
 10
455.3452631257
 20
262.3164915929
 30
0.0
 11
454.716471834
 21
262.3164915929
 31
0.0
  0
LINE
  5
E3
330
1F
100
AcDbEntity
  8
0
  6
Continuous
 62
     7
370
    15
100
AcDbLine
 10
379.7517328052
 20
262.3164915929
 30
0.0
 11
379.1270198728
 21
262.3164915929
 31
0.0
  0
LINE
  5
E4
330
1F
100
AcDbEntity
  8
0
  6
Continuous
 62
     7
370
    15
100
AcDbLine
 10
455.3518137261
 20
262.1914915929
 30
0.0
 11
454.7089382154
 21
262.1914915929
 31
0.0
  0
LINE
  5
E5
330
1F
100
AcDbEntity
  8
0
  6
Continuous
 62
     7
370
    15
100
AcDbLine
 10
379.7577052854
 20
262.1914915929
 30
0.0
 11
379.1204522982
 21
262.1914915929
 31
0.0
  0
LWPOLYLINE
  5
E6
330
1F
100
AcDbEntity
  8
0
  6
Continuous
 62
     7
370
    15
100
AcDbPolyline
 90
       16
 70
   128
 43
0.0
 10
372.7725359298
 20
261.0196301827
 10
372.7649819025
 20
261.0134432748
 10
372.6516010637
 20
261.079353379
 10
372.4010413774
 20
261.2976885215
 10
372.0004614171
 20
261.7305019524
 10
371.8131571032
 20
261.9836584077
 10
371.6988364082
 20
262.2172501097
 10
371.6771478306
 20
262.3708327397
 10
371.7081482154
 20
262.5252432773
 10
371.8361578789
 20
262.7627916258
 10
372.2271135601
 20
263.2514953373
 10
372.4564912797
 20
263.5112447571
 10
372.6708511902
 20
263.7504369972
 10
372.8721067314
 20
263.9777395561
 10
372.9622319435
 20
264.0893258024
 10
372.9586820763
 20
264.0958155646
  0
LWPOLYLINE
  5
E7
330
1F
100
AcDbEntity
  8
0
  6
Continuous
 62
     7
370
    15
100
AcDbPolyline
 90
       16
 70
   128
 43
0.0
 10
461.6997444429
 20
261.0196301827
 10
461.7072984701
 20
261.0134432748
 10
461.8206793089
 20
261.079353379
 10
462.0712389953
 20
261.2976885215
 10
462.4718189555
 20
261.7305019524
 10
462.6591232694
 20
261.9836584077
 10
462.7734439645
 20
262.2172501097
 10
462.795132542
 20
262.3708327397
 10
462.7641321572
 20
262.5252432773
 10
462.6361224937
 20
262.7627916258
 10
462.2451668125
 20
263.2514953373
 10
462.0157890929
 20
263.5112447571
 10
461.8014291825
 20
263.7504369972
 10
461.6001736412
 20
263.9777395561
 10
461.5100484291
 20
264.0893258024
 10
461.5136345267
 20
264.0958818
  0
ELLIPSE
  5
E8
330
1F
100
AcDbEntity
  8
0
  6
Continuous
 62
     7
370
    15
100
AcDbEllipse
 10
418.841068295
 20
289.9434081228
 30
0.0
 11
140.9199999536121
 21
10.53731466020309
 31
0.0
210
0.0
220
0.0
230
1.0
 40
0.0003408194
 41
1.279122436901658
 42
1.282076543897211
  0
ELLIPSE
  5
E9
330
1F
100
AcDbEntity
  8
0
  6
Continuous
 62
     7
370
    15
100
AcDbEllipse
 10
418.841068295
 20
289.9434081228
 30
0.0
 11
141.4799999539053
 21
10.53731465056797
 31
0.0
210
0.0
220
0.0
230
1.0
 40
0.0003394853
 41
4.999939815961199
 42
5.00288126443454
  0
ELLIPSE
  5
EA
330
1F
100
AcDbEntity
  8
0
  6
Continuous
 62
     7
370
    15
100
AcDbEllipse
 10
418.841068295
 20
294.9573117145
 30
0.0
 11
140.9199999530784
 21
10.53731466016319
 31
0.0
210
0.0
220
0.0
230
1.0
 40
0.0003408194
 41
1.281878215215495
 42
1.284829905382237
  0
ELLIPSE
  5
EB
330
1F
100
AcDbEntity
  8
0
  6
Continuous
 62
     7
370
    15
100
AcDbEllipse
 10
417.2361401863
 20
311.4494447788
 30
0.0
 11
140.9199999536121
 21
10.53731466020309
 31
0.0
210
0.0
220
0.0
230
1.0
 40
0.0003408194
 41
1.279122436901339
 42
1.282076543896919
  0
ELLIPSE
  5
EC
330
1F
100
AcDbEntity
  8
0
  6
Continuous
 62
     7
370
    15
100
AcDbEllipse
 10
417.2361401863
 20
311.4494447788
 30
0.0
 11
141.4799999539054
 21
10.53731465056791
 31
0.0
210
0.0
220
0.0
230
1.0
 40
0.0003394853
 41
4.999939815961432
 42
5.002881264434563
  0
ELLIPSE
  5
ED
330
1F
100
AcDbEntity
  8
0
  6
Continuous
 62
     7
370
    15
100
AcDbEllipse
 10
417.2361401863
 20
316.4633483705
 30
0.0
 11
140.9199999530784
 21
10.53731466016319
 31
0.0
210
0.0
220
0.0
230
1.0
 40
0.0003408194
 41
1.281878215216094
 42
1.28482990538217
  0
LINE
  5
EE
330
1F
100
AcDbEntity
  8
0
  6
Continuous
 62
     7
370
    15
100
AcDbLine
 10
382.2483431049
 20
651.4719594631
 30
0.0
 11
382.2292596168
 21
651.5455781093
 31
0.0
  0
LINE
  5
EF
330
1F
100
AcDbEntity
  8
0
  6
Continuous
 62
     7
370
    15
100
AcDbLine
 10
382.7976321711
 20
658.0589534215
 30
0.0
 11
451.6746482015
 21
658.0589534215
 31
0.0
  0
LINE
  5
F0
330
1F
100
AcDbEntity
  8
0
  6
Continuous
 62
     7
370
    15
100
AcDbLine
 10
451.6746482015
 20
661.2589534215
 30
0.0
 11
382.7976321711
 21
661.2589534215
 31
0.0
  0
LWPOLYLINE
  5
F1
330
1F
100
AcDbEntity
  8
0
  6
Continuous
 62
     7
370
    15
100
AcDbPolyline
 90
       15
 70
   128
 43
0.0
 10
451.6746482015
 20
658.0589534215
 10
451.9270056038
 20
658.0533492208
 10
452.4417607817
 20
658.0068255021
 10
452.9450020038
 20
657.9140800039
 10
453.4291184797
 20
657.7770203389
 10
453.8871668739
 20
657.5983888246
 10
454.3128314117
 20
657.3816732588
 10
454.7005908379
 20
657.1309546029
 10
455.0458574222
 20
656.8506863547
 10
455.3450520943
 20
656.5453969386
 10
455.5955681112
 20
656.2193175227
 10
455.795558275
 20
655.8759707861
 10
455.9434782657
 20
655.5178349729
 10
456.0373839125
 20
655.1463597754
 10
456.0559282477
 20
655.0219372781
  0
LWPOLYLINE
  5
F2
330
1F
100
AcDbEntity
  8
0
  6
Continuous
 62
     7
370
    15
100
AcDbPolyline
 90
       18
 70
   128
 43
0.0
 10
459.231805937
 20
655.4141118598
 10
459.1743281875
 20
655.7810244793
 10
459.0315532669
 20
656.3645851713
 10
458.8282879714
 20
656.9334904049
 10
458.5660593401
 20
657.4837842511
 10
458.2467763265
 20
658.0112770985
 10
457.8727326164
 20
658.5118268912
 10
457.4466733288
 20
658.9813547445
 10
456.9718466866
 20
659.4158964891
 10
456.4520234338
 20
659.8116804229
 10
455.8914760185
 20
660.1652150884
 10
455.2949212798
 20
660.4733693347
 10
454.6674394616
 20
660.7334314406
 10
454.0143855836
 20
660.9431420624
 10
453.3413066462
 20
661.1007033886
 10
452.6538725289
 20
661.2047714861
 10
451.9578228452
 20
661.2544399668
 10
451.6746482015
 20
661.2589534215
  0
LWPOLYLINE
  5
F3
330
1F
100
AcDbEntity
  8
0
  6
Continuous
 62
     7
370
    15
100
AcDbPolyline
 90
       15
 70
   128
 43
0.0
 10
378.4163521249
 20
655.0219372781
 10
378.4416636364
 20
655.1834641799
 10
378.5475831136
 20
655.572374107
 10
378.7145237486
 20
655.949498567
 10
378.937861328
 20
656.3070083481
 10
379.2134077255
 20
656.6408792434
 10
379.5373382186
 20
656.9477762745
 10
379.905719716
 20
657.224262757
 10
380.3141108145
 20
657.4667371292
 10
380.757370616
 20
657.671639587
 10
381.2296274919
 20
657.835702457
 10
381.7243467284
 20
657.9561676892
 10
382.2344552633
 20
658.0309539118
 10
382.7247743383
 20
658.0584866349
 10
382.7976321711
 20
658.0589534215
  0
LWPOLYLINE
  5
F4
330
1F
100
AcDbEntity
  8
0
  6
Continuous
 62
     7
370
    15
100
AcDbPolyline
 90
       18
 70
   128
 43
0.0
 10
382.7976321711
 20
661.2589534215
 10
382.4031749149
 20
661.2501926063
 10
381.7072023008
 20
661.1916973621
 10
381.0195920779
 20
661.0785287685
 10
380.3462461828
 20
660.9114003205
 10
379.6928582598
 20
660.6914310718
 10
379.0650568109
 20
660.4201760921
 10
378.4683706255
 20
660.0996575542
 10
377.9081768165
 20
659.7323991699
 10
377.3896265814
 20
659.3214555318
 10
376.9175475022
 20
658.8704241829
 10
376.4963283011
 20
658.383426938
 10
376.1298007257
 20
657.865050522
 10
375.8211397706
 20
657.320245742
 10
375.5728033216
 20
656.7541965486
 10
375.3865238407
 20
656.1721800644
 10
375.263350983
 20
655.5794411686
 10
375.2404744356
 20
655.4141118598
  0
LINE
  5
F5
330
1F
100
AcDbEntity
  8
0
  6
Continuous
 62
     7
370
    15
100
AcDbLine
 10
459.4168633169
 20
653.9154945825
 30
0.0
 11
459.231805937
 21
655.4141118598
 31
0.0
  0
LINE
  5
F6
330
1F
100
AcDbEntity
  8
0
  6
Continuous
 62
     7
370
    15
100
AcDbLine
 10
456.0559282477
 20
655.0219372781
 30
0.0
 11
456.2409856276
 21
653.5233200008
 31
0.0
  0
LINE
  5
F7
330
1F
100
AcDbEntity
  8
0
  6
Continuous
 62
     7
370
    15
100
AcDbLine
 10
378.2312947451
 20
653.5233200008
 30
0.0
 11
378.4163521249
 21
655.0219372781
 31
0.0
  0
LINE
  5
F8
330
1F
100
AcDbEntity
  8
0
  6
Continuous
 62
     7
370
    15
100
AcDbLine
 10
375.2404744356
 20
655.4141118598
 30
0.0
 11
375.0554170557
 21
653.9154945825
 31
0.0
  0
LWPOLYLINE
  5
F9
330
1F
100
AcDbEntity
  8
0
  6
Continuous
 62
     7
370
    15
100
AcDbPolyline
 90
       11
 70
   128
 43
0.0
 10
456.2409856276
 20
653.5233200008
 10
456.2839775086
 20
653.1802074665
 10
456.3661206196
 20
652.552763766
 10
456.4479813252
 20
651.9647802277
 10
456.5293269717
 20
651.4186532292
 10
456.6100360097
 20
650.9163747701
 10
456.6902808691
 20
650.4588250897
 10
456.7708702304
 20
650.0449310536
 10
456.8542517116
 20
649.6694263914
 10
456.9485206339
 20
649.3148454011
 10
457.0287384867
 20
649.0720466677
  0
ARC
  5
FA
330
1F
100
AcDbEntity
  8
0
  6
Continuous
 62
     7
370
    15
100
AcDbCircle
 10
486.3667456113
 20
656.4267360916
 30
0.0
 40
27.06663055497372
100
AcDbArc
 50
185.3235577731
 51
193.3438596984
  0
LWPOLYLINE
  5
FB
330
1F
100
AcDbEntity
  8
0
  6
Continuous
 62
     7
370
    15
100
AcDbPolyline
 90
       11
 70
   128
 43
0.0
 10
377.4435418859
 20
649.0720466677
 10
377.4982900194
 20
649.2320649302
 10
377.6031898165
 20
649.6085819646
 10
377.6870858404
 20
649.9764724751
 10
377.7657875421
 20
650.3717579833
 10
377.8498452362
 20
650.8428699955
 10
377.9325324246
 20
651.351533102
 10
378.0150092196
 20
651.9004566371
 10
378.0975820439
 20
652.4893894507
 10
378.18017213
 20
653.1164514229
 10
378.2312947451
 20
653.5233200008
  0
LWPOLYLINE
  5
FC
330
1F
100
AcDbEntity
  8
0
  6
Continuous
 62
     7
370
    15
100
AcDbPolyline
 90
       13
 70
   128
 43
0.0
 10
375.0554170557
 20
653.9154945825
 10
375.0138682034
 20
653.5838961898
 10
374.9357818927
 20
652.9872181102
 10
374.85896447
 20
652.4347557837
 10
374.7841652728
 20
651.9311827726
 10
374.7121995398
 20
651.4808773333
 10
374.6440640583
 20
651.0883524322
 10
374.5810855221
 20
650.758463314
 10
374.5252077327
 20
650.4966938618
 10
374.484402727
 20
650.327983235
 10
374.4558992895
 20
650.224935882
 10
374.4423184167
 20
650.1823759574
 10
374.4414335647
 20
650.1799029886
  0
LINE
  5
FD
330
1F
100
AcDbEntity
  8
0
  6
Continuous
 62
     7
370
    15
100
AcDbLine
 10
464.4098385221
 20
638.3135560487
 30
0.0
 11
460.0308468079
 21
650.1799029886
 31
0.0
  0
LINE
  5
FE
330
1F
100
AcDbEntity
  8
0
  6
Continuous
 62
     7
370
    15
100
AcDbLine
 10
457.0287384867
 20
649.0720466677
 30
0.0
 11
461.4077302009
 21
637.2056997277
 31
0.0
  0
LINE
  5
FF
330
1F
100
AcDbEntity
  8
0
  6
Continuous
 62
     7
370
    15
100
AcDbLine
 10
373.0645501718
 20
637.2056997277
 30
0.0
 11
377.4435418859
 21
649.0720466677
 31
0.0
  0
LINE
  5
100
330
1F
100
AcDbEntity
  8
0
  6
Continuous
 62
     7
370
    15
100
AcDbLine
 10
374.4414335647
 20
650.1799029886
 30
0.0
 11
370.0624418506
 21
638.3135560487
 31
0.0
  0
LINE
  5
101
330
1F
100
AcDbEntity
  8
0
  6
Continuous
 62
     7
370
    15
100
AcDbLine
 10
452.2430207558
 20
651.5455781093
 30
0.0
 11
452.2295904377
 21
651.4937677778
 31
0.0
  0
LWPOLYLINE
  5
102
330
1F
100
AcDbEntity
  8
0
  6
Continuous
 62
     7
370
    15
100
AcDbPolyline
 90
       24
 70
   128
 43
0.0
 10
461.4077302009
 20
637.2056997277
 10
461.4784163433
 20
637.0295269358
 10
461.5660964224
 20
636.8480578642
 10
461.6691171073
 20
636.6748231933
 10
461.7948356861
 20
636.5053423149
 10
461.9524363641
 20
636.3384334626
 10
462.1498489413
 20
636.1797088624
 10
462.3888978722
 20
636.0420680717
 10
462.6630873791
 20
635.9409768308
 10
462.9604163187
 20
635.8885668524
 10
463.2967440585
 20
635.8947994779
 10
463.6058467526
 20
635.9626573603
 10
463.8771979156
 20
636.0775272404
 10
464.1072632343
 20
636.2251527473
 10
464.2951545945
 20
636.3917420854
 10
464.4432533911
 20
636.5650456699
 10
464.5577254582
 20
636.7374238324
 10
464.646928562
 20
636.9081046469
 10
464.7189924268
 20
637.0830576535
 10
464.780896463
 20
637.2759128886
 10
464.8392519321
 20
637.516263361
 10
464.9028188406
 20
637.8870354073
 10
464.9499704865
 20
638.2863907479
 10
464.9756874575
 20
638.5770864515
  0
LINE
  5
103
330
1F
100
AcDbEntity
  8
0
  6
Continuous
 62
     7
370
    15
100
AcDbLine
 10
464.4114750025
 20
638.3091946077
 30
0.0
 11
464.4098385221
 21
638.3135560487
 31
0.0
  0
LWPOLYLINE
  5
104
330
1F
100
AcDbEntity
  8
0
  6
Continuous
 62
     7
370
    15
100
AcDbPolyline
 90
       24
 70
   128
 43
0.0
 10
369.4965929151
 20
638.5770864515
 10
369.5151753572
 20
638.3606274647
 10
369.5616184203
 20
637.9442944123
 10
369.6270152251
 20
637.5455481044
 10
369.6872924945
 20
637.2905807099
 10
369.7548776336
 20
637.0787094602
 10
369.8318673345
 20
636.8941798159
 10
369.9304133885
 20
636.7108983763
 10
370.0588277879
 20
636.5263629303
 10
370.2261258471
 20
636.34340236
 10
370.4372280439
 20
636.1730164577
 10
370.6892654529
 20
636.0311554803
 10
370.9727972011
 20
635.932258991
 10
371.2748811798
 20
635.8858118945
 10
371.5969005104
 20
635.8978829531
 10
371.8903498247
 20
635.9652808072
 10
372.1480207942
 20
636.0742637059
 10
372.366581748
 20
636.2111977595
 10
372.5457447592
 20
636.3630520809
 10
372.6894368881
 20
636.5199141932
 10
372.8052266784
 20
636.6779492813
 10
372.901920769
 20
636.840118015
 10
372.988097812
 20
637.0164262119
 10
373.0645501718
 20
637.2056997277
  0
LINE
  5
105
330
1F
100
AcDbEntity
  8
0
  6
Continuous
 62
     7
370
    15
100
AcDbLine
 10
370.0624418506
 20
638.3135560487
 30
0.0
 11
370.0620734851
 21
638.3122834353
 31
0.0
  0
LWPOLYLINE
  5
106
330
1F
100
AcDbEntity
  8
0
  6
Continuous
 62
     7
370
    15
100
AcDbPolyline
 90
       21
 70
   128
 43
0.0
 10
458.8054384021
 20
556.301751823
 10
458.8055105932
 20
556.3018141867
 10
458.7961217963
 20
556.3471343799
 10
458.7787799199
 20
556.4483158949
 10
458.7552853434
 20
556.6142576739
 10
458.7276252313
 20
556.8493795054
 10
458.6976579092
 20
557.1533447021
 10
458.6668624546
 20
557.5227908658
 10
458.6363035091
 20
557.9531500906
 10
458.6067227639
 20
558.4396215083
 10
458.5786456401
 20
558.9774726862
 10
458.5524596867
 20
559.5620521025
 10
458.5284633637
 20
560.1887280175
 10
458.5068944982
 20
560.8528306138
 10
458.4879465534
 20
561.5496147646
 10
458.4717779179
 20
562.2742423829
 10
458.4585172334
 20
563.0217795885
 10
458.4482664638
 20
563.7872043027
 10
458.4411026626
 20
564.5654209792
 10
458.4370789848
 20
565.3512801252
 10
458.4361401863
 20
565.9572867598
  0
LWPOLYLINE
  5
107
330
1F
100
AcDbEntity
  8
0
  6
Continuous
 62
     7
370
    15
100
AcDbPolyline
 90
       23
 70
   128
 43
0.0
 10
455.2361401863
 20
565.9572867598
 10
455.2365866522
 20
565.5359664779
 10
455.2398956954
 20
564.7361001564
 10
455.2464123475
 20
563.9420499692
 10
455.2560990656
 20
563.1587850474
 10
455.2689019538
 20
562.3910325038
 10
455.2847515585
 20
561.6434003717
 10
455.3035646775
 20
560.920336673
 10
455.3252471512
 20
560.2260851171
 10
455.3496982174
 20
559.5646348646
 10
455.3768175475
 20
558.9396595583
 10
455.406517233
 20
558.3544364672
 10
455.4387436116
 20
557.8117271507
 10
455.4735204
 20
557.3135787863
 10
455.5110431115
 20
556.8609465593
 10
455.5519155646
 20
556.4528574229
 10
455.5978692752
 20
556.0841518275
 10
455.6547809791
 20
555.7372002972
 10
455.7115627612
 20
555.4843791226
 10
455.7710926378
 20
555.2875950291
 10
455.8322602231
 20
555.1313016412
 10
455.9118252954
 20
554.9707157891
 10
455.9957347669
 20
554.8346575734
  0
LWPOLYLINE
  5
108
330
1F
100
AcDbEntity
  8
0
  6
Continuous
 62
     7
370
    15
100
AcDbPolyline
 90
       21
 70
   128
 43
0.0
 10
376.0361401863
 20
565.9572867598
 10
376.0357009059
 20
565.5427478608
 10
376.0324453646
 20
564.7558079174
 10
376.0260369183
 20
563.9749268285
 10
376.0165208474
 20
563.2054004338
 10
376.0039651227
 20
562.4523121944
 10
375.9884611263
 20
561.720662991
 10
375.9701244614
 20
561.0153506914
 10
375.9490964642
 20
560.3411538916
 10
375.9255469354
 20
559.7027221132
 10
375.8996790344
 20
559.104575822
 10
375.8717380912
 20
558.5511216279
 10
375.8420277404
 20
558.0466914397
 10
375.8109402297
 20
557.5956200486
 10
375.7790152544
 20
557.2023843855
 10
375.7470583279
 20
556.8718374562
 10
375.7163861283
 20
556.6095624322
 10
375.6923436131
 20
556.4409721528
 10
375.6745973164
 20
556.3390446764
 10
375.6659864153
 20
556.2985095703
 10
375.66684081
 20
556.3014371479
  0
LWPOLYLINE
  5
109
330
1F
100
AcDbEntity
  8
0
  6
Continuous
 62
     7
370
    15
100
AcDbPolyline
 90
       23
 70
   128
 43
0.0
 10
378.4765456057
 20
554.8346575734
 10
378.5904909124
 20
555.0269397533
 10
378.6582920659
 20
555.1743001617
 10
378.7140061191
 20
555.3255039052
 10
378.7627964767
 20
555.4923398612
 10
378.8121185101
 20
555.7097175411
 10
378.8763924512
 20
556.0982831713
 10
378.9215710783
 20
556.4637567936
 10
378.9611490153
 20
556.8599749098
 10
379.0001229705
 20
557.3315898505
 10
379.0355287904
 20
557.8428502459
 10
379.0679982124
 20
558.3954019328
 10
379.097739454
 20
558.9884747806
 10
379.1247822452
 20
559.6199093128
 10
379.1490815917
 20
560.2867462674
 10
379.1705615107
 20
560.9854924558
 10
379.189136232
 20
561.7122658243
 10
379.2047215529
 20
562.4628879221
 10
379.2172413865
 20
563.2329508749
 10
379.2266317452
 20
564.0178710782
 10
379.232843239
 20
564.812935629
 10
379.2358426404
 20
565.613344673
 10
379.2361401863
 20
565.9572867598
  0
LINE
  5
10A
330
1F
100
AcDbEntity
  8
0
  6
Continuous
 62
     7
370
    15
100
AcDbLine
 10
455.2361401863
 20
567.394269617
 30
0.0
 11
455.2361401863
 21
565.9572867598
 31
0.0
  0
LINE
  5
10B
330
1F
100
AcDbEntity
  8
0
  6
Continuous
 62
     7
370
    15
100
AcDbLine
 10
455.2361401863
 20
615.3792672726
 30
0.0
 11
455.2361401863
 21
572.3927068728
 31
0.0
  0
LINE
  5
10C
330
1F
100
AcDbEntity
  8
0
  6
Continuous
 62
     7
370
    15
100
AcDbLine
 10
455.2361401863
 20
636.03087956
 30
0.0
 11
455.2361401863
 21
620.3777045283
 31
0.0
  0
LINE
  5
10D
330
1F
100
AcDbEntity
  8
0
  6
Continuous
 62
     7
370
    15
100
AcDbLine
 10
458.4361401863
 20
565.9572867598
 30
0.0
 11
458.4361401863
 21
636.03087956
 31
0.0
  0
LINE
  5
10E
330
1F
100
AcDbEntity
  8
0
  6
Continuous
 62
     7
370
    15
100
AcDbLine
 10
376.0361401863
 20
636.0324227986
 30
0.0
 11
376.0361401863
 21
565.9572867598
 31
0.0
  0
LINE
  5
10F
330
1F
100
AcDbEntity
  8
0
  6
Continuous
 62
     7
370
    15
100
AcDbLine
 10
379.2361401863
 20
620.3777045283
 30
0.0
 11
379.2361401863
 21
636.0348275848
 31
0.0
  0
LINE
  5
110
330
1F
100
AcDbEntity
  8
0
  6
Continuous
 62
     7
370
    15
100
AcDbLine
 10
379.2361401863
 20
572.3927068728
 30
0.0
 11
379.2361401863
 21
615.3792672726
 31
0.0
  0
LINE
  5
111
330
1F
100
AcDbEntity
  8
0
  6
Continuous
 62
     7
370
    15
100
AcDbLine
 10
379.2361401863
 20
565.9572867598
 30
0.0
 11
379.2361401863
 21
567.394269617
 31
0.0
  0
LINE
  5
112
330
1F
100
AcDbEntity
  8
0
  6
Continuous
 62
     7
370
    15
100
AcDbLine
 10
458.4314551305
 20
636.02972249
 30
0.0
 11
462.422382761
 21
636.02972249
 31
0.0
  0
LINE
  5
113
330
1F
100
AcDbEntity
  8
0
  6
Continuous
 62
     7
370
    15
100
AcDbLine
 10
379.2356708792
 20
636.02972249
 30
0.0
 11
455.2413117283
 21
636.02972249
 31
0.0
  0
LINE
  5
114
330
1F
100
AcDbEntity
  8
0
  6
Continuous
 62
     7
370
    15
100
AcDbLine
 10
372.0427108932
 20
636.02972249
 30
0.0
 11
376.0366094934
 21
636.02972249
 31
0.0
  0
LINE
  5
115
330
1F
100
AcDbEntity
  8
0
  6
Continuous
 62
     7
370
    15
100
AcDbLine
 10
460.6977155876
 20
639.12972249
 30
0.0
 11
373.7745647851
 21
639.12972249
 31
0.0
  0
LINE
  5
116
330
1F
100
AcDbEntity
  8
0
  6
Continuous
 62
     7
370
    15
100
AcDbLine
 10
366.8893734918
 20
671.6018658139
 30
0.0
 11
369.4965929151
 21
638.5770864515
 31
0.0
  0
LINE
  5
117
330
1F
100
AcDbEntity
  8
0
  6
Continuous
 62
     7
370
    15
100
AcDbLine
 10
372.2577111798
 20
644.262374678
 30
0.0
 11
370.0794475675
 21
671.8537137673
 31
0.0
  0
LINE
  5
118
330
1F
100
AcDbEntity
  8
0
  6
Continuous
 62
     7
370
    15
100
AcDbLine
 10
464.3928328052
 20
671.8537137673
 30
0.0
 11
462.2145691929
 21
644.262374678
 31
0.0
  0
LINE
  5
119
330
1F
100
AcDbEntity
  8
0
  6
Continuous
 62
     7
370
    15
100
AcDbLine
 10
464.9756874575
 20
638.5770864515
 30
0.0
 11
467.5829068809
 21
671.6018658139
 31
0.0
  0
LINE
  5
11A
330
1F
100
AcDbEntity
  8
0
  6
Continuous
 62
     7
370
    15
100
AcDbLine
 10
375.6900975624
 20
556.4280717554
 30
0.0
 11
372.4002098756
 21
551.5974947824
 31
0.0
  0
LINE
  5
11B
330
1F
100
AcDbEntity
  8
0
  6
Continuous
 62
     7
370
    15
100
AcDbLine
 10
375.0450767522
 20
549.796195472
 30
0.0
 11
378.4765456057
 21
554.8346575734
 31
0.0
  0
LINE
  5
11C
330
1F
100
AcDbEntity
  8
0
  6
Continuous
 62
     7
370
    15
100
AcDbLine
 10
455.9957347669
 20
554.8346575734
 30
0.0
 11
459.4272036205
 21
549.796195472
 31
0.0
  0
LINE
  5
11D
330
1F
100
AcDbEntity
  8
0
  6
Continuous
 62
     7
370
    15
100
AcDbLine
 10
462.072070497
 20
551.5974947824
 30
0.0
 11
458.7822721119
 21
556.4279406328
 31
0.0
  0
LWPOLYLINE
  5
11E
330
1F
100
AcDbEntity
  8
0
  6
Continuous
 62
     7
370
    15
100
AcDbPolyline
 90
        3
 70
   128
 43
0.0
 10
372.7278498422
 20
552.0785720193
 10
372.5830312613
 20
552.0588972583
 10
372.480119678
 20
552.0465491898
  0
LWPOLYLINE
  5
11F
330
1F
100
AcDbEntity
  8
0
  6
Continuous
 62
     7
370
    15
100
AcDbPolyline
 90
       11
 70
   128
 43
0.0
 10
372.8485661188
 20
548.8678313318
 10
373.0463491392
 20
548.892030908
 10
373.4201094744
 20
548.9466200791
 10
373.7765951069
 20
549.0159041088
 10
374.0081351052
 20
549.0767199861
 10
374.2147039512
 20
549.1482519837
 10
374.3890986662
 20
549.2266890654
 10
374.5715026468
 20
549.3323479167
 10
374.7598888087
 20
549.4752915743
 10
374.9391627011
 20
549.6570112076
 10
375.0450767522
 20
549.796195472
  0
LWPOLYLINE
  5
120
330
1F
100
AcDbEntity
  8
0
  6
Continuous
 62
     7
370
    15
100
AcDbPolyline
 90
        3
 70
   128
 43
0.0
 10
461.9921606946
 20
552.0465491898
 10
461.8362548551
 20
552.0656147694
 10
461.744308126
 20
552.078751747
  0
LWPOLYLINE
  5
121
330
1F
100
AcDbEntity
  8
0
  6
Continuous
 62
     7
370
    15
100
AcDbPolyline
 90
       11
 70
   128
 43
0.0
 10
459.4272036205
 20
549.796195472
 10
459.6078268941
 20
549.5745345398
 10
459.7770509795
 20
549.4216296754
 10
459.9479316699
 20
549.3023389637
 10
460.1141391336
 20
549.2113237672
 10
460.278212707
 20
549.1401727776
 10
460.4538231763
 20
549.0798494269
 10
460.6709188034
 20
549.0216647392
 10
461.0186276783
 20
548.9522625791
 10
461.3774783329
 20
548.8983861558
 10
461.6237142538
 20
548.8678313318
  0
LINE
  5
122
330
1F
100
AcDbEntity
  8
0
  6
Continuous
 62
     7
370
    15
100
AcDbLine
 10
461.6237142538
 20
548.8678313318
 30
0.0
 11
462.7981784652
 21
548.7316987218
 31
0.0
  0
LINE
  5
123
330
1F
100
AcDbEntity
  8
0
  6
Continuous
 62
     7
370
    15
100
AcDbLine
 10
463.166624906
 20
551.9104165798
 30
0.0
 11
461.9921606946
 21
552.0465491898
 31
0.0
  0
LINE
  5
124
330
1F
100
AcDbEntity
  8
0
  6
Continuous
 62
     7
370
    15
100
AcDbLine
 10
372.480119678
 20
552.0465491898
 30
0.0
 11
371.3056554667
 21
551.9104165798
 31
0.0
  0
LINE
  5
125
330
1F
100
AcDbEntity
  8
0
  6
Continuous
 62
     7
370
    15
100
AcDbLine
 10
371.6741019075
 20
548.7316987218
 30
0.0
 11
372.8485661188
 21
548.8678313318
 31
0.0
  0
ARC
  5
126
330
1F
100
AcDbEntity
  8
0
  6
Continuous
 62
     7
370
    15
100
AcDbCircle
 10
470.6870596863
 20
671.3882997551
 30
0.0
 40
3.111490816471143
100
AcDbArc
 50
172.651977277
 51
176.0642460732
  0
LWPOLYLINE
  5
127
330
1F
100
AcDbEntity
  8
0
  6
Continuous
 62
     7
370
    15
100
AcDbPolyline
 90
       37
 70
   128
 43
0.0
 10
467.8608064733
 20
667.168435174
 10
467.8595271376
 20
667.4670187422
 10
467.8553195837
 20
668.0317858502
 10
467.8488285482
 20
668.5862925718
 10
467.8401252152
 20
669.1237748014
 10
467.8292980137
 20
669.6379661387
 10
467.8164471899
 20
670.1230201766
 10
467.8016722495
 20
670.5736811393
 10
467.7850460342
 20
670.9855325072
 10
467.7665540077
 20
671.3554414913
 10
467.7459244962
 20
671.6825715928
 10
467.7220102927
 20
671.9714876071
 10
467.6891247469
 20
672.2473475462
 10
467.6577906272
 20
672.4226263903
 10
467.624155127
 20
672.5584510535
 10
467.5768016875
 20
672.7023440546
 10
467.5044109224
 20
672.8677848494
 10
467.3940029827
 20
673.0556099868
 10
467.236227682
 20
673.2527063815
 10
467.0330607215
 20
673.4357773764
 10
466.7894980245
 20
673.5882793666
 10
466.5145094557
 20
673.6974747877
 10
466.2197523454
 20
673.7548725316
 10
465.8890997272
 20
673.7534433956
 10
465.5890900845
 20
673.6917411146
 10
465.324987902
 20
673.584090213
 10
465.0985047637
 20
673.4424658446
 10
464.9106769663
 20
673.2780017037
 10
464.7615305404
 20
673.1020834961
 10
464.6499236555
 20
672.9275991836
 10
464.5721122103
 20
672.7677145907
 10
464.519873562
 20
672.6277674046
 10
464.4837189177
 20
672.5021208494
 10
464.4571864289
 20
672.3823599667
 10
464.4345518387
 20
672.2477613718
 10
464.4104018663
 20
672.0495590659
 10
464.3928328052
 20
671.8537137673
  0
LWPOLYLINE
  5
128
330
1F
100
AcDbEntity
  8
0
  6
Continuous
 62
     7
370
    15
100
AcDbPolyline
 90
        5
 70
   128
 43
0.0
 10
366.8708880664
 20
671.7882513974
 10
366.8708810493
 20
671.7882898301
 10
366.8736053746
 20
671.7677805907
 10
366.8810430608
 20
671.6981691572
 10
366.8893734918
 20
671.6018658139
  0
LWPOLYLINE
  5
129
330
1F
100
AcDbEntity
  8
0
  6
Continuous
 62
     7
370
    15
100
AcDbPolyline
 90
       37
 70
   128
 43
0.0
 10
370.0794475675
 20
671.8537137673
 10
370.0677318257
 20
671.9899173407
 10
370.0320540812
 20
672.2852657023
 10
370.0071630704
 20
672.4215608288
 10
369.976748887
 20
672.546863732
 10
369.93039782
 20
672.6912301319
 10
369.8593482631
 20
672.8569183178
 10
369.7505557672
 20
673.0452581523
 10
369.5944771147
 20
673.2433871037
 10
369.3928839897
 20
673.4279627319
 10
369.1506389289
 20
673.5823608622
 10
368.8765943235
 20
673.6937534644
 10
368.582338481
 20
673.7535339681
 10
368.2514652029
 20
673.7547668733
 10
367.9507919261
 20
673.6954063135
 10
367.6857156773
 20
673.5897659319
 10
367.4580278285
 20
673.4498217408
 10
367.2688435167
 20
673.286702985
 10
367.1182696485
 20
673.1117879047
 10
367.0052590345
 20
672.9379568903
 10
366.9261831146
 20
672.7784214702
 10
366.8728854796
 20
672.6386667296
 10
366.835822961
 20
672.5131516061
 10
366.8084741914
 20
672.393584977
 10
366.784968064
 20
672.2593701937
 10
366.7595993906
 20
672.0622531243
 10
366.7341707116
 20
671.7866708093
 10
366.7130848322
 20
671.4814760609
 10
366.6928746754
 20
671.1071323403
 10
366.6752694801
 20
670.6980201496
 10
366.6597690578
 20
670.252525573
 10
366.6462838719
 20
669.773102398
 10
366.634852508
 20
669.2641122654
 10
366.6255502224
 20
668.7309195618
 10
366.6184556758
 20
668.1795109142
 10
366.6136362262
 20
667.6162758043
 10
366.6114738993
 20
667.168435174
  0
LWPOLYLINE
  5
12A
330
1F
100
AcDbEntity
  8
0
  6
Continuous
 62
     7
370
    15
100
AcDbPolyline
 90
       17
 70
   128
 43
0.0
 10
371.3056554667
 20
551.9104165798
 10
371.271676553
 20
551.9080728743
 10
371.1747913871
 20
551.9190289491
 10
371.073505273
 20
551.9542583096
 10
370.9495773337
 20
552.0226585209
 10
370.805841745
 20
552.1313426666
 10
370.6332365811
 20
552.3006861051
 10
370.4538731291
 20
552.5226567063
 10
370.2740287889
 20
552.7978238335
 10
370.1004225426
 20
553.1239851119
 10
369.9386942707
 20
553.4982584439
 10
369.7940443957
 20
553.916196602
 10
369.6710164384
 20
554.3720645543
 10
369.5733770482
 20
554.8591182101
 10
369.5040577372
 20
555.3698602007
 10
369.4651324683
 20
555.8962633925
 10
369.4566844863
 20
556.3138003991
  0
LWPOLYLINE
  5
12B
330
1F
100
AcDbEntity
  8
0
  6
Continuous
 62
     7
370
    15
100
AcDbPolyline
 90
       19
 70
   128
 43
0.0
 10
366.2567008767
 20
556.3240423954
 10
366.2612378247
 20
555.9514046301
 10
366.3000055464
 20
555.2625900271
 10
366.3781799141
 20
554.5812715286
 10
366.4956804541
 20
553.9123985222
 10
366.6524631103
 20
553.2606571956
 10
366.8485552606
 20
552.63068939
 10
367.0840798586
 20
552.0271844575
 10
367.3592190574
 20
551.4550574684
 10
367.6740352952
 20
550.9197267693
 10
368.0277710373
 20
550.4277688894
 10
368.4178569005
 20
549.9869908676
 10
368.8398369294
 20
549.604925875
 10
369.287218455
 20
549.2878807191
 10
369.7524896738
 20
549.0396462153
 10
370.228388583
 20
548.8612418245
 10
370.7086028855
 20
548.751656514
 10
371.1878631289
 20
548.7088162979
 10
371.6741019075
 20
548.7316987218
  0
LWPOLYLINE
  5
12C
330
1F
100
AcDbEntity
  8
0
  6
Continuous
 62
     7
370
    15
100
AcDbPolyline
 90
       17
 70
   128
 43
0.0
 10
465.0155958863
 20
556.3138003991
 10
465.0122580193
 20
556.0395949884
 10
464.9816540671
 20
555.5092031164
 10
464.9199160832
 20
554.9910512888
 10
464.8287402167
 20
554.4937508189
 10
464.7107387977
 20
554.0253230956
 10
464.5694859497
 20
553.5932639697
 10
464.4095548237
 20
553.2043086063
 10
464.2365324255
 20
552.8641287242
 10
464.0569752157
 20
552.5769484519
 10
463.8782463056
 20
552.3450793784
 10
463.7081474431
 20
552.1684068981
 10
463.5547712147
 20
552.0442947873
 10
463.4244486544
 20
551.9663294951
 10
463.3193827511
 20
551.9248143586
 10
463.2328713694
 20
551.9088738688
 10
463.166624906
 20
551.9104165798
  0
LWPOLYLINE
  5
12D
330
1F
100
AcDbEntity
  8
0
  6
Continuous
 62
     7
370
    15
100
AcDbPolyline
 90
       20
 70
   128
 43
0.0
 10
462.7981784652
 20
548.7316987218
 10
463.1328513875
 20
548.7087902034
 10
463.6063454636
 20
548.7303878575
 10
464.07104684
 20
548.8139156144
 10
464.5227323293
 20
548.9569750352
 10
464.9596137816
 20
549.1579361379
 10
465.3802456394
 20
549.4160512442
 10
465.7830369766
 20
549.7312206155
 10
466.1657396979
 20
550.1033431558
 10
466.5251499777
 20
550.5313350447
 10
466.8572909029
 20
551.0122437044
 10
467.1580929332
 20
551.5410545924
 10
467.4241691656
 20
552.1113620517
 10
467.6530099934
 20
552.7158113895
 10
467.8434296393
 20
553.3480501189
 10
467.9948806746
 20
554.0024238737
 10
468.1070891369
 20
554.6736339983
 10
468.1799138384
 20
555.3565864769
 10
468.2132860912
 20
556.0462891904
 10
468.2155794959
 20
556.3240423954
  0
LINE
  5
12E
330
1F
100
AcDbEntity
  8
0
  6
Continuous
 62
     7
370
    15
100
AcDbLine
 10
468.2155794959
 20
556.3240423954
 30
0.0
 11
467.8608064733
 21
667.168435174
 31
0.0
  0
LINE
  5
12F
330
1F
100
AcDbEntity
  8
0
  6
Continuous
 62
     7
370
    15
100
AcDbLine
 10
464.7567064962
 20
637.2005517002
 30
0.0
 11
465.0155958863
 21
556.3138003991
 31
0.0
  0
LINE
  5
130
330
1F
100
AcDbEntity
  8
0
  6
Continuous
 62
     7
370
    15
100
AcDbLine
 10
369.4566844863
 20
556.3138003991
 30
0.0
 11
369.7155782187
 21
637.2019083804
 31
0.0
  0
LINE
  5
131
330
1F
100
AcDbEntity
  8
0
  6
Continuous
 62
     7
370
    15
100
AcDbLine
 10
366.6114738993
 20
667.168435174
 30
0.0
 11
366.2567008767
 21
556.3240423954
 31
0.0
  0
LWPOLYLINE
  5
132
330
1F
100
AcDbEntity
  8
0
  6
Continuous
 62
     7
370
    15
100
AcDbPolyline
 90
       12
 70
   128
 43
0.0
 10
446.7361401863
 20
554.1115494602
 10
448.055227272
 20
554.1208211479
 10
449.3743143578
 20
554.1556244578
 10
450.5832480399
 20
554.2303671373
 10
451.716325599
 20
554.3752347157
 10
452.6563293551
 20
554.6052130095
 10
453.4559853114
 20
554.9648487511
 10
454.0109950041
 20
555.4132052801
 10
454.4107939636
 20
556.0030172717
 10
454.6372443984
 20
556.6808078454
 10
454.7313728914
 20
557.4785059748
 10
454.7361401863
 20
557.7326622442
  0
LINE
  5
133
330
1F
100
AcDbEntity
  8
0
  6
Continuous
 62
     7
370
    15
100
AcDbLine
 10
446.7361401863
 20
554.1115494602
 30
0.0
 11
387.7361401863
 21
554.1115494602
 31
0.0
  0
LWPOLYLINE
  5
134
330
1F
100
AcDbEntity
  8
0
  6
Continuous
 62
     7
370
    15
100
AcDbPolyline
 90
       12
 70
   128
 43
0.0
 10
379.7361401863
 20
557.7326622442
 10
379.8031159711
 20
556.8482202255
 10
380.0331965933
 20
556.0638470236
 10
380.4413030863
 20
555.4350303803
 10
381.066836571
 20
554.9347216047
 10
381.7818534854
 20
554.6165770365
 10
382.6621432666
 20
554.3924346837
 10
383.6500441178
 20
554.2531095218
 10
384.7617481919
 20
554.1709873375
 10
385.9943223853
 20
554.1284466097
 10
387.3076494039
 20
554.1124758319
 10
387.7361401863
 20
554.1115494602
  0
LINE
  5
135
330
1F
100
AcDbEntity
  8
0
  6
Continuous
 62
     7
370
    15
100
AcDbLine
 10
454.7361401863
 20
566.5772501436
 30
0.0
 11
454.7361401863
 21
557.7326622442
 31
0.0
  0
LINE
  5
136
330
1F
100
AcDbEntity
  8
0
  6
Continuous
 62
     7
370
    15
100
AcDbLine
 10
379.7361401863
 20
566.5772501436
 30
0.0
 11
379.7361401863
 21
557.7326622442
 31
0.0
  0
ARC
  5
137
330
1F
100
AcDbEntity
  8
0
  6
Continuous
 62
     7
370
    15
100
AcDbCircle
 10
452.7364526863
 20
633.9558717539
 30
0.0
 40
1.999687524433048
100
AcDbArc
 50
0.0089566639
 51
90.0089538645
  0
ARC
  5
138
330
1F
100
AcDbEntity
  8
0
  6
Continuous
 62
     7
370
    15
100
AcDbCircle
 10
381.7358276863
 20
633.9558717539
 30
0.0
 40
1.999687524433048
100
AcDbArc
 50
89.9910461355
 51
179.9910433361
  0
LINE
  5
139
330
1F
100
AcDbEntity
  8
0
  6
Continuous
 62
     7
370
    15
100
AcDbLine
 10
452.7361401863
 20
635.9555592539
 30
0.0
 11
381.7361401863
 21
635.9555592539
 31
0.0
  0
LINE
  5
13A
330
1F
100
AcDbEntity
  8
0
  6
Continuous
 62
     7
370
    15
100
AcDbLine
 10
454.7361401863
 20
633.9561843516
 30
0.0
 11
454.7361401863
 21
566.5772501436
 31
0.0
  0
LINE
  5
13B
330
1F
100
AcDbEntity
  8
0
  6
Continuous
 62
     7
370
    15
100
AcDbLine
 10
379.7361401863
 20
633.9561843516
 30
0.0
 11
379.7361401863
 21
566.5772501436
 31
0.0
  0
ARC
  5
13C
330
1F
100
AcDbEntity
  8
0
  6
Continuous
 62
     7
370
    15
100
AcDbCircle
 10
417.2361401863
 20
513.0687966308
 30
0.0
 40
140.8098907198314
100
AcDbArc
 50
73.6785047001
 51
106.3214952999
  0
ELLIPSE
  5
13D
330
1F
100
AcDbEntity
  8
0
  6
Continuous
 62
     7
370
    15
100
AcDbEllipse
 10
417.2361401863
 20
605.9948718588
 30
0.0
 11
-129.998259509856
 21
354.4238546584978
 31
0.0
210
0.0
220
0.0
230
1.0
 40
0.1372380572
 41
4.762552854668183
 42
4.781318215491122
  0
ARC
  5
13E
330
1F
100
AcDbEntity
  8
0
  6
Continuous
 62
     7
370
    15
100
AcDbCircle
 10
417.2361401863
 20
507.2178467202
 30
0.0
 40
140.796408320734
100
AcDbArc
 50
72.618377944
 51
107.381622056
  0
ELLIPSE
  5
13F
330
1F
100
AcDbEntity
  8
0
  6
Continuous
 62
     7
370
    15
100
AcDbEllipse
 10
417.2361401863
 20
605.9948718588
 30
0.0
 11
129.9982595098559
 21
354.4238546584974
 31
0.0
210
0.0
220
0.0
230
1.0
 40
0.1372380572
 41
1.501867091688467
 42
1.520632452511406
  0
ARC
  5
140
330
1F
100
AcDbEntity
  8
0
  6
Continuous
 62
     7
370
    15
100
AcDbCircle
 10
417.2361401607
 20
513.0065219951
 30
0.0
 40
142.8421590388208
100
AcDbArc
 50
73.9512212831
 51
106.0487365888
  0
LINE
  5
141
330
1F
100
AcDbEntity
  8
0
  6
Continuous
 62
     7
370
    15
100
AcDbLine
 10
456.8281740601
 20
649.7868658943
 30
0.0
 11
456.8074894268
 21
648.2040386804
 31
0.0
  0
LINE
  5
142
330
1F
100
AcDbEntity
  8
0
  6
Continuous
 62
     7
370
    15
100
AcDbLine
 10
377.6647909458
 20
648.2040386804
 30
0.0
 11
377.6440922464
 21
649.7879422619
 31
0.0
  0
LINE
  5
143
330
1F
100
AcDbEntity
  8
0
  6
Continuous
 62
     7
370
    15
100
AcDbLine
 10
459.313834234
 20
642.879813227
 30
0.0
 11
459.2969128348
 21
641.5849557917
 31
0.0
  0
LINE
  5
144
330
1F
100
AcDbEntity
  8
0
  6
Continuous
 62
     7
370
    15
100
AcDbLine
 10
375.1753675379
 20
641.5849557917
 30
0.0
 11
375.1584461386
 21
642.879813227
 31
0.0
  0
ELLIPSE
  5
145
330
1F
100
AcDbEntity
  8
0
  6
Continuous
 62
     7
370
    15
100
AcDbEllipse
 10
417.2361401863
 20
512.1970349943
 30
0.0
 11
-49.64280118298348
 21
135.1401478193362
 31
0.0
210
0.0
220
0.0
230
1.0
 40
0.9803500508
 41
6.188047615860087
 42
6.207127520098458
  0
LWPOLYLINE
  5
146
330
1F
100
AcDbEntity
  8
0
  6
Continuous
 62
     7
370
    15
100
AcDbPolyline
 90
        8
 70
   128
 43
0.0
 10
382.222143268
 20
651.5434918006
 10
382.1574061512
 20
651.5774231477
 10
381.9977421737
 20
651.5988847956
 10
381.7686369842
 20
651.5955983795
 10
381.4815729903
 20
651.5673126353
 10
381.1490586722
 20
651.5152351224
 10
380.7840229656
 20
651.4413560041
 10
380.4031110434
 20
651.3491702928
  0
ELLIPSE
  5
147
330
1F
100
AcDbEntity
  8
0
  6
Continuous
 62
     7
370
    15
100
AcDbEllipse
 10
417.2361401863
 20
512.1970349943
 30
0.0
 11
49.64280118298348
 21
135.1401478193362
 31
0.0
210
0.0
220
0.0
230
1.0
 40
0.9803500508
 41
0.0760671492050952
 42
0.0951376913195126
  0
LWPOLYLINE
  5
148
330
1F
100
AcDbEntity
  8
0
  6
Continuous
 62
     7
370
    15
100
AcDbPolyline
 90
        8
 70
   128
 43
0.0
 10
452.2501371046
 20
651.5434918006
 10
452.3148742214
 20
651.5774231477
 10
452.474538199
 20
651.5988847956
 10
452.7036433885
 20
651.5955983795
 10
452.9907073823
 20
651.5673126353
 10
453.3232217005
 20
651.5152351224
 10
453.688257407
 20
651.4413560041
 10
454.0691693292
 20
651.3491702928
  0
LINE
  5
149
330
1F
100
AcDbEntity
  8
0
  6
Continuous
 62
     7
370
    15
100
AcDbLine
 10
455.2361401863
 20
567.394269617
 30
0.0
 11
455.2361401863
 21
572.3927068728
 31
0.0
  0
LINE
  5
14A
330
1F
100
AcDbEntity
  8
0
  6
Continuous
 62
     7
370
    15
100
AcDbLine
 10
455.2361401863
 20
615.3792672726
 30
0.0
 11
455.2361401863
 21
620.3777045283
 31
0.0
  0
LWPOLYLINE
  5
14B
330
1F
100
AcDbEntity
  8
0
  6
Continuous
 62
     7
370
    15
100
AcDbPolyline
 90
        8
 70
   128
 43
0.0
 10
456.3341517696
 20
637.3104027737
 10
456.1077883153
 20
637.0047941843
 10
455.8618627302
 20
636.721945193
 10
455.6526122495
 20
636.4919822382
 10
455.4631612603
 20
636.2863008066
 10
455.29910286
 20
636.1063785337
 10
455.2361496556
 20
636.0303543294
 10
455.2367913742
 20
636.0308814847
  0
ARC
  5
14C
330
1F
100
AcDbEntity
  8
0
  6
Continuous
 62
     7
370
    15
100
AcDbCircle
 10
456.8361401863
 20
575.197998581
 30
0.0
 40
62.11443267848423
100
AcDbArc
 50
89.5369493121
 51
90.4630506879
  0
LWPOLYLINE
  5
14D
330
1F
100
AcDbEntity
  8
0
  6
Continuous
 62
     7
370
    15
100
AcDbPolyline
 90
        7
 70
   128
 43
0.0
 10
458.4354889984
 20
636.0308776352
 10
458.3907328943
 20
636.0865710977
 10
458.2664284725
 20
636.2239533781
 10
457.9886864254
 20
636.5257413214
 10
457.7659878732
 20
636.7716347089
 10
457.5268590193
 20
637.0506547523
 10
457.3381286031
 20
637.3104027737
  0
ARC
  5
14E
330
1F
100
AcDbEntity
  8
0
  6
Continuous
 62
     7
370
    15
100
AcDbCircle
 10
367.3486634587
 20
644.5925785458
 30
0.0
 40
12.19778117003973
100
AcDbArc
 50
315.4300165528
 51
323.3440727914
  0
ARC
  5
14F
330
1F
100
AcDbEntity
  8
0
  6
Continuous
 62
     7
370
    15
100
AcDbCircle
 10
377.6361401863
 20
575.1979985661
 30
0.0
 40
62.11443269341093
100
AcDbArc
 50
89.5369493135
 51
90.4630506865
  0
ARC
  5
150
330
1F
100
AcDbEntity
  8
0
  6
Continuous
 62
     7
370
    15
100
AcDbCircle
 10
400.5995407531
 20
655.4596376053
 30
0.0
 40
28.87749574972109
100
AcDbArc
 50
218.9388498415
 51
222.2729274076
  0
LINE
  5
151
330
1F
100
AcDbEntity
  8
0
  6
Continuous
 62
     7
370
    15
100
AcDbLine
 10
379.2361401863
 20
615.3792672726
 30
0.0
 11
379.2361401863
 21
620.3777045283
 31
0.0
  0
LINE
  5
152
330
1F
100
AcDbEntity
  8
0
  6
Continuous
 62
     7
370
    15
100
AcDbLine
 10
379.2361401863
 20
567.394269617
 30
0.0
 11
379.2361401863
 21
572.3927068728
 31
0.0
  0
LINE
  5
153
330
1F
100
AcDbEntity
  8
0
  6
Continuous
 62
     7
370
    15
100
AcDbLine
 10
379.2361401863
 20
572.3927068728
 30
0.0
 11
379.7361401863
 21
572.3927068728
 31
0.0
  0
LINE
  5
154
330
1F
100
AcDbEntity
  8
0
  6
Continuous
 62
     7
370
    15
100
AcDbLine
 10
454.7361401863
 20
572.3927068728
 30
0.0
 11
455.2361401863
 21
572.3927068728
 31
0.0
  0
LINE
  5
155
330
1F
100
AcDbEntity
  8
0
  6
Continuous
 62
     7
370
    15
100
AcDbLine
 10
379.2361401863
 20
567.394269617
 30
0.0
 11
379.7361401863
 21
567.394269617
 31
0.0
  0
LINE
  5
156
330
1F
100
AcDbEntity
  8
0
  6
Continuous
 62
     7
370
    15
100
AcDbLine
 10
454.7361401863
 20
567.394269617
 30
0.0
 11
455.2361401863
 21
567.394269617
 31
0.0
  0
LINE
  5
157
330
1F
100
AcDbEntity
  8
0
  6
Continuous
 62
     7
370
    15
100
AcDbLine
 10
379.2361401863
 20
567.374269617
 30
0.0
 11
379.7361401863
 21
567.374269617
 31
0.0
  0
LINE
  5
158
330
1F
100
AcDbEntity
  8
0
  6
Continuous
 62
     7
370
    15
100
AcDbLine
 10
454.7361401863
 20
567.374269617
 30
0.0
 11
455.2361401863
 21
567.374269617
 31
0.0
  0
LINE
  5
159
330
1F
100
AcDbEntity
  8
0
  6
Continuous
 62
     7
370
    15
100
AcDbLine
 10
455.2361401863
 20
615.3792672726
 30
0.0
 11
454.7361401863
 21
615.3792672726
 31
0.0
  0
LINE
  5
15A
330
1F
100
AcDbEntity
  8
0
  6
Continuous
 62
     7
370
    15
100
AcDbLine
 10
379.7361401863
 20
615.3792672726
 30
0.0
 11
379.2361401863
 21
615.3792672726
 31
0.0
  0
LINE
  5
15B
330
1F
100
AcDbEntity
  8
0
  6
Continuous
 62
     7
370
    15
100
AcDbLine
 10
455.2361401863
 20
620.3777045283
 30
0.0
 11
454.7361401863
 21
620.3777045283
 31
0.0
  0
LINE
  5
15C
330
1F
100
AcDbEntity
  8
0
  6
Continuous
 62
     7
370
    15
100
AcDbLine
 10
379.7361401863
 20
620.3777045283
 30
0.0
 11
379.2361401863
 21
620.3777045283
 31
0.0
  0
LINE
  5
15D
330
1F
100
AcDbEntity
  8
0
  6
Continuous
 62
     7
370
    15
100
AcDbLine
 10
455.2361401863
 20
615.3592672726
 30
0.0
 11
454.7361401863
 21
615.3592672726
 31
0.0
  0
LINE
  5
15E
330
1F
100
AcDbEntity
  8
0
  6
Continuous
 62
     7
370
    15
100
AcDbLine
 10
379.7361401863
 20
615.3592672726
 30
0.0
 11
379.2361401863
 21
615.3592672726
 31
0.0
  0
LINE
  5
15F
330
1F
100
AcDbEntity
  8
0
  6
Continuous
 62
     7
370
    15
100
AcDbLine
 10
714.586918637
 20
585.3413837195
 30
0.0
 11
716.016579269
 21
586.0338766451
 31
0.0
  0
LINE
  5
160
330
1F
100
AcDbEntity
  8
0
  6
Continuous
 62
     7
370
    15
100
AcDbLine
 10
773.1746462242
 20
621.9336448156
 30
0.0
 11
773.2100015632
 21
623.5866262244
 31
0.0
  0
LWPOLYLINE
  5
161
330
1F
100
AcDbEntity
  8
0
  6
Continuous
 62
     7
370
    15
100
AcDbPolyline
 90
       21
 70
   128
 43
0.0
 10
720.7396281363
 20
581.9910992519
 10
720.7508912668
 20
582.3020294544
 10
720.8027992035
 20
582.9202227586
 10
720.8949883192
 20
583.5598837945
 10
721.0276290233
 20
584.215864217
 10
721.2003998823
 20
584.8827908553
 10
721.4124984357
 20
585.5551642617
 10
721.6626599676
 20
586.2274344851
 10
721.9491801463
 20
586.8940664862
 10
722.2699387996
 20
587.5495978186
 10
722.6224233486
 20
588.1886910383
 10
723.0037068382
 20
588.8061149866
 10
723.4105110716
 20
589.3968853411
 10
723.839267842
 20
589.9563581477
 10
724.2861104247
 20
590.4802207874
 10
724.7468997776
 20
590.9645486262
 10
725.2172565813
 20
591.4058676155
 10
725.6926032263
 20
591.8012235098
 10
726.1682216201
 20
592.1482571962
 10
726.6393349655
 20
592.4452833192
 10
726.796471549
 20
592.5340478781
  0
LWPOLYLINE
  5
162
330
1F
100
AcDbEntity
  8
0
  6
Continuous
 62
     7
370
    15
100
AcDbPolyline
 90
       21
 70
   128
 43
0.0
 10
725.2577586328
 20
595.3398209553
 10
724.9096091943
 20
595.1400882042
 10
724.2771625895
 20
594.731475044
 10
723.6576341697
 20
594.2719110805
 10
723.0537853547
 20
593.7642626345
 10
722.4687283808
 20
593.2119327767
 10
721.9052809924
 20
592.6183664195
 10
721.3660648343
 20
591.987058212
 10
720.8535532652
 20
591.3215543093
 10
720.3701004267
 20
590.6254583014
 10
719.9179555234
 20
589.9024348395
 10
719.4992672891
 20
589.1562084899
 10
719.11608302
 20
588.3905576017
 10
718.7703590348
 20
587.6093366852
 10
718.4639557706
 20
586.8164826824
 10
718.198581611
 20
586.0158649255
 10
717.975837816
 20
585.2113523571
 10
717.797224632
 20
584.4068061293
 10
717.6641498297
 20
583.606080562
 10
717.577937256
 20
582.8130373054
 10
717.5402305199
 20
582.0531870335
  0
LINE
  5
163
330
1F
100
AcDbEntity
  8
0
  6
Continuous
 62
     7
370
    15
100
AcDbLine
 10
717.5402305199
 20
582.0531870335
 30
0.0
 11
716.4039146971
 21
523.4985722606
 31
0.0
  0
LINE
  5
164
330
1F
100
AcDbEntity
  8
0
  6
Continuous
 62
     7
370
    15
100
AcDbLine
 10
719.6033123134
 20
523.436484479
 30
0.0
 11
720.7396281363
 21
581.9910992519
 31
0.0
  0
LINE
  5
165
330
1F
100
AcDbEntity
  8
0
  6
Continuous
 62
     7
370
    15
100
AcDbLine
 10
775.1680631109
 20
622.7111115196
 30
0.0
 11
725.2577586328
 21
595.3398209553
 31
0.0
  0
LINE
  5
166
330
1F
100
AcDbEntity
  8
0
  6
Continuous
 62
     7
370
    15
100
AcDbLine
 10
726.796471549
 20
592.5340478781
 30
0.0
 11
776.7067760271
 21
619.9053384423
 31
0.0
  0
LINE
  5
167
330
1F
100
AcDbEntity
  8
0
  6
Continuous
 62
     7
370
    15
100
AcDbLine
 10
782.6855609242
 20
622.747215804
 30
0.0
 11
787.9799205775
 21
677.2920099559
 31
0.0
  0
LINE
  5
168
330
1F
100
AcDbEntity
  8
0
  6
Continuous
 62
     7
370
    15
100
AcDbLine
 10
784.7948892967
 20
677.6011632192
 30
0.0
 11
779.5005296434
 21
623.0563690673
 31
0.0
  0
ARC
  5
169
330
1F
100
AcDbEntity
  8
0
  6
Continuous
 62
     7
370
    15
100
AcDbCircle
 10
803.2155405279
 20
675.6228748624
 30
0.0
 40
18.52657595466456
100
AcDbArc
 50
148.5031297622
 51
173.8702063119
  0
ARC
  5
16A
330
1F
100
AcDbEntity
  8
0
  6
Continuous
 62
     7
370
    15
100
AcDbCircle
 10
803.2672234439
 20
675.6047745446
 30
0.0
 40
15.3801297868748
100
AcDbArc
 50
148.4956921831
 51
173.7018459924
  0
LWPOLYLINE
  5
16B
330
1F
100
AcDbEntity
  8
0
  6
Continuous
 62
     7
370
    15
100
AcDbPolyline
 90
       14
 70
   128
 43
0.0
 10
787.8345380263
 20
691.3647032272
 10
787.9693224525
 20
691.2809360118
 10
788.2591714564
 20
691.0524064208
 10
788.5099821911
 20
690.7785051443
 10
788.7191275466
 20
690.4567822674
 10
788.8771993706
 20
690.0975406764
 10
788.9812190791
 20
689.7102417697
 10
789.0314747444
 20
689.3014797829
 10
789.0288176663
 20
688.8759045168
 10
788.9737861003
 20
688.4379720731
 10
788.8668471512
 20
687.9927131391
 10
788.7088162923
 20
687.5458259914
 10
788.501163835
 20
687.103512169
 10
788.3473361229
 20
686.8325405073
  0
LWPOLYLINE
  5
16C
330
1F
100
AcDbEntity
  8
0
  6
Continuous
 62
     7
370
    15
100
AcDbPolyline
 90
       18
 70
   128
 43
0.0
 10
791.0829384012
 20
685.1722754156
 10
791.2768572421
 20
685.5087816038
 10
791.5799965601
 20
686.1220630153
 10
791.8287062958
 20
686.7526721365
 10
792.0201516717
 20
687.3947621225
 10
792.1522562463
 20
688.0427134173
 10
792.223517897
 20
688.6906599389
 10
792.2331065868
 20
689.3325668134
 10
792.1809438312
 20
689.962355889
 10
792.0677386417
 20
690.57406686
 10
791.8949623754
 20
691.1620273413
 10
791.6647613805
 20
691.7209977979
 10
791.3798248282
 20
692.246263641
 10
791.0432365426
 20
692.7336637933
 10
790.6583399726
 20
693.1795631754
 10
790.2286376799
 20
693.580788053
 10
789.7579854963
 20
693.9343793518
 10
789.4344079985
 20
694.1360595869
  0
LINE
  5
16D
330
1F
100
AcDbEntity
  8
0
  6
Continuous
 62
     7
370
    15
100
AcDbLine
 10
790.1541112903
 20
683.6418562231
 30
0.0
 11
791.0829384012
 21
685.1722754156
 31
0.0
  0
LINE
  5
16E
330
1F
100
AcDbEntity
  8
0
  6
Continuous
 62
     7
370
    15
100
AcDbLine
 10
788.3473361229
 20
686.8325405073
 30
0.0
 11
787.4185090119
 21
685.3021213148
 31
0.0
  0
LINE
  5
16F
330
1F
100
AcDbEntity
  8
0
  6
Continuous
 62
     7
370
    15
100
AcDbLine
 10
739.1311329233
 20
719.4805805299
 30
0.0
 11
787.8345380263
 21
691.3647032272
 31
0.0
  0
LINE
  5
170
330
1F
100
AcDbEntity
  8
0
  6
Continuous
 62
     7
370
    15
100
AcDbLine
 10
789.4344079985
 20
694.1360595869
 30
0.0
 11
740.7310028955
 21
722.2519368895
 31
0.0
  0
LWPOLYLINE
  5
171
330
1F
100
AcDbEntity
  8
0
  6
Continuous
 62
     7
370
    15
100
AcDbPolyline
 90
       16
 70
   128
 43
0.0
 10
725.3230965202
 20
516.5399048526
 10
725.1838980948
 20
516.4649870018
 10
724.8421553504
 20
516.327758838
 10
724.4802671008
 20
516.2469692101
 10
724.0975279807
 20
516.2261666751
 10
723.7077982966
 20
516.2683053568
 10
723.3206258842
 20
516.3711665319
 10
722.9414611479
 20
516.5312220784
 10
722.5738616137
 20
516.7454608178
 10
722.2214270097
 20
517.0112314885
 10
721.8883096936
 20
517.3256425257
 10
721.5790698653
 20
517.6851562175
 10
721.2983753219
 20
518.0854095959
 10
721.0507125822
 20
518.5211868699
 10
720.8506398257
 20
518.9603933414
 10
720.8108072661
 20
519.0614953958
  0
LWPOLYLINE
  5
172
330
1F
100
AcDbEntity
  8
0
  6
Continuous
 62
     7
370
    15
100
AcDbPolyline
 90
       20
 70
   128
 43
0.0
 10
717.8225820154
 20
517.9167203738
 10
717.9705568899
 20
517.5544348195
 10
718.2716754003
 20
516.9297068808
 10
718.6195224616
 20
516.3346425999
 10
719.0113690893
 20
515.7747645505
 10
719.4442117231
 20
515.2550980736
 10
719.9145890142
 20
514.7804557364
 10
720.418549818
 20
514.35535924
 10
720.9516426572
 20
513.9839322134
 10
721.5089441917
 20
513.6697716054
 10
722.0851397492
 20
513.4158168519
 10
722.6746556338
 20
513.2242452016
 10
723.2718251293
 20
513.0964210156
 10
723.8710568843
 20
513.0329137848
 10
724.4669734374
 20
513.0335793566
 10
725.0544989411
 20
513.0976815705
 10
725.6288912699
 20
513.2240243482
 10
726.1857266532
 20
513.4110671005
 10
726.7205156461
 20
513.6568276971
 10
726.9306539405
 20
513.7730006004
  0
ARC
  5
173
330
1F
100
AcDbEntity
  8
0
  6
Continuous
 62
     7
370
    15
100
AcDbCircle
 10
726.2620833902
 20
523.4435878485
 30
0.0
 40
6.658774865693276
100
AcDbArc
 50
180.0611213297
 51
201.7324911461
  0
ARC
  5
174
330
1F
100
AcDbEntity
  8
0
  6
Continuous
 62
     7
370
    15
100
AcDbCircle
 10
726.171880809
 20
523.4260518004
 30
0.0
 40
9.768235315621927
100
AcDbArc
 50
179.5746258835
 51
201.5803198612
  0
LINE
  5
175
330
1F
100
AcDbEntity
  8
0
  6
Continuous
 62
     7
370
    15
100
AcDbLine
 10
717.088370699
 20
519.8332443656
 30
0.0
 11
717.8225820154
 21
517.9167203738
 31
0.0
  0
LINE
  5
176
330
1F
100
AcDbEntity
  8
0
  6
Continuous
 62
     7
370
    15
100
AcDbLine
 10
720.8108072661
 20
519.0614953958
 30
0.0
 11
720.0765959497
 21
520.9780193877
 31
0.0
  0
ARC
  5
177
330
1F
100
AcDbEntity
  8
0
  6
Continuous
 62
     7
370
    15
100
AcDbCircle
 10
789.9560889305
 20
620.2161302798
 30
0.0
 40
10.4426771113808
100
AcDbArc
 50
191.2317645226
 51
207.313942226
  0
ARC
  5
178
330
1F
100
AcDbEntity
  8
0
  6
Continuous
 62
     7
370
    15
100
AcDbCircle
 10
795.4727870306
 20
621.3101400145
 30
0.0
 40
16.06743047126491
100
AcDbArc
 50
173.7606967614
 51
185.4468132363
  0
LWPOLYLINE
  5
179
330
1F
100
AcDbEntity
  8
0
  6
Continuous
 62
     7
370
    15
100
AcDbPolyline
 90
       11
 70
   128
 43
0.0
 10
783.509842487
 20
616.9139860678
 10
783.3928959686
 20
617.1490799102
 10
783.1824572432
 20
617.6506871598
 10
783.0021662196
 20
618.1978833178
 10
782.8540893448
 20
618.7876878857
 10
782.73976974
 20
619.4179576215
 10
782.6607200594
 20
620.0858553453
 10
782.6182487773
 20
620.7881113751
 10
782.6134021405
 20
621.5212785069
 10
782.6469607676
 20
622.2815830798
 10
782.6855609242
 20
622.747215804
  0
LINE
  5
17A
330
1F
100
AcDbEntity
  8
0
  6
Continuous
 62
     7
370
    15
100
AcDbLine
 10
726.9306539405
 20
513.7730006004
 30
0.0
 11
805.0586133207
 21
559.1649510944
 31
0.0
  0
LINE
  5
17B
330
1F
100
AcDbEntity
  8
0
  6
Continuous
 62
     7
370
    15
100
AcDbLine
 10
803.4510559004
 20
561.9318553466
 30
0.0
 11
725.3230965202
 21
516.5399048526
 31
0.0
  0
LWPOLYLINE
  5
17C
330
1F
100
AcDbEntity
  8
0
  6
Continuous
 62
     7
370
    15
100
AcDbPolyline
 90
       21
 70
   128
 43
0.0
 10
669.2549015628
 20
627.6695821835
 10
668.9111675913
 20
627.4732190414
 10
668.2730672775
 20
627.0668637781
 10
667.6446523278
 20
626.6127254723
 10
667.028509393
 20
626.1137876091
 10
666.4274426519
 20
625.5733092991
 10
665.8440941948
 20
624.9945478686
 10
665.2810116503
 20
624.3807847894
 10
664.7406816527
 20
623.7353481123
 10
664.2255406824
 20
623.0616257579
 10
663.7379727564
 20
622.363068811
 10
663.280300796
 20
621.6431860339
 10
662.8547784026
 20
620.9055353346
 10
662.4636434645
 20
620.1538355896
 10
662.1089603597
 20
619.3916811519
 10
661.7927052051
 20
618.6226485986
 10
661.5167723506
 20
617.8502772992
 10
661.2829884518
 20
617.0780557109
 10
661.0931343879
 20
616.3094194194
 10
660.9489732806
 20
615.5477697163
 10
660.8645342478
 20
614.9163288909
  0
ARC
  5
17D
330
1F
100
AcDbEntity
  8
0
  6
Continuous
 62
     7
370
    15
100
AcDbCircle
 10
674.4825452012
 20
613.415861982
 30
0.0
 40
10.50043973246318
100
AcDbArc
 50
160.5905847259
 51
173.6647413286
  0
LINE
  5
17E
330
1F
100
AcDbEntity
  8
0
  6
Continuous
 62
     7
370
    15
100
AcDbLine
 10
776.7009126706
 20
619.9044507578
 30
0.0
 11
779.7209403313
 21
618.1610258991
 31
0.0
  0
LINE
  5
17F
330
1F
100
AcDbEntity
  8
0
  6
Continuous
 62
     7
370
    15
100
AcDbLine
 10
773.1747830537
 20
621.9400420568
 30
0.0
 11
773.4608852482
 21
621.7748787755
 31
0.0
  0
LINE
  5
180
330
1F
100
AcDbEntity
  8
0
  6
Continuous
 62
     7
370
    15
100
AcDbLine
 10
716.0699787248
 20
654.9059438969
 30
0.0
 11
717.4580281783
 21
654.1046400037
 31
0.0
  0
LINE
  5
181
330
1F
100
AcDbEntity
  8
0
  6
Continuous
 62
     7
370
    15
100
AcDbLine
 10
779.4275536803
 20
621.909869117
 30
0.0
 11
717.7440179348
 21
657.5190163409
 31
0.0
  0
LINE
  5
182
330
1F
100
AcDbEntity
  8
0
  6
Continuous
 62
     7
370
    15
100
AcDbLine
 10
808.7054704557
 20
569.0116939058
 30
0.0
 11
783.509842487
 21
616.9139860678
 31
0.0
  0
LINE
  5
183
330
1F
100
AcDbEntity
  8
0
  6
Continuous
 62
     7
370
    15
100
AcDbLine
 10
780.6777118423
 20
615.4243431538
 30
0.0
 11
805.873339811
 21
567.5220509918
 31
0.0
  0
LINE
  5
184
330
1F
100
AcDbEntity
  8
0
  6
Continuous
 62
     7
370
    15
100
AcDbLine
 10
660.8645342478
 20
614.9163288909
 30
0.0
 11
654.8753886334
 21
559.1631931254
 31
0.0
  0
LINE
  5
185
330
1F
100
AcDbEntity
  8
0
  6
Continuous
 62
     7
370
    15
100
AcDbLine
 10
658.0570835305
 20
558.821407255
 30
0.0
 11
664.046229145
 21
614.5745430204
 31
0.0
  0
LINE
  5
186
330
1F
100
AcDbEntity
  8
0
  6
Continuous
 62
     7
370
    15
100
AcDbLine
 10
719.1627766455
 20
655.0395404441
 30
0.0
 11
669.2549015628
 21
627.6695821835
 31
0.0
  0
LINE
  5
187
330
1F
100
AcDbEntity
  8
0
  6
Continuous
 62
     7
370
    15
100
AcDbLine
 10
718.0630233979
 20
659.8375364696
 30
0.0
 11
722.0964880289
 21
677.7344023443
 31
0.0
  0
LINE
  5
188
330
1F
100
AcDbEntity
  8
0
  6
Continuous
 62
     7
370
    15
100
AcDbLine
 10
728.6838511023
 20
706.9631583096
 30
0.0
 11
729.5502125229
 21
710.8072862645
 31
0.0
  0
LINE
  5
189
330
1F
100
AcDbEntity
  8
0
  6
Continuous
 62
     7
370
    15
100
AcDbLine
 10
726.4285106508
 20
711.5108325825
 30
0.0
 11
714.9413215258
 21
660.5410827876
 31
0.0
  0
LWPOLYLINE
  5
18A
330
1F
100
AcDbEntity
  8
0
  6
Continuous
 62
     7
370
    15
100
AcDbPolyline
 90
       15
 70
   128
 43
0.0
 10
733.7812060165
 20
717.9461681885
 10
733.9506602263
 20
718.1340538413
 10
734.3229269707
 20
718.4956574879
 10
734.725338591
 20
718.8226513579
 10
735.1514476444
 20
719.1100420329
 10
735.5945720134
 20
719.3539075781
 10
736.0477432949
 20
719.5512499926
 10
736.5038465307
 20
719.7000394392
 10
736.9558147686
 20
719.7992570413
 10
737.3969716605
 20
719.848902661
 10
737.8212875946
 20
719.8498638222
 10
738.2236714585
 20
719.8036668074
 10
738.6002152555
 20
719.7120482212
 10
738.9482844107
 20
719.576318888
 10
739.1311329233
 20
719.4805805299
  0
LWPOLYLINE
  5
18B
330
1F
100
AcDbEntity
  8
0
  6
Continuous
 62
     7
370
    15
100
AcDbPolyline
 90
       18
 70
   128
 43
0.0
 10
740.7310028955
 20
722.2519368895
 10
740.4062870349
 20
722.4256469252
 10
739.8560606239
 20
722.6631850404
 10
739.2784927506
 20
722.8457772836
 10
738.6769460587
 20
722.9723080395
 10
738.0560126496
 20
723.0415214325
 10
737.4206220256
 20
723.0525600714
 10
736.7760188362
 20
723.005053853
 10
736.1276845533
 20
722.8991891522
 10
735.4812263685
 20
722.7357401386
 10
734.8422586795
 20
722.5160590259
 10
734.2162993896
 20
722.2420340572
 10
733.6086932194
 20
721.9160300309
 10
733.0245635015
 20
721.5408255871
 10
732.4687868532
 20
721.1195570265
 10
731.9459826244
 20
720.6556734381
 10
731.4851290549
 20
720.1803454809
 10
731.3587576771
 20
720.0370397873
  0
ARC
  5
18C
330
1F
100
AcDbEntity
  8
0
  6
Continuous
 62
     7
370
    15
100
AcDbCircle
 10
742.8174301712
 20
707.4858394573
 30
0.0
 40
13.67666161823244
100
AcDbArc
 50
138.3960910358
 51
165.9448887797
  0
ARC
  5
18D
330
1F
100
AcDbEntity
  8
0
  6
Continuous
 62
     7
370
    15
100
AcDbCircle
 10
742.7298328225
 20
707.5327815752
 30
0.0
 40
16.77968993638527
100
AcDbArc
 50
138.4709864018
 51
166.2860103045
  0
LINE
  5
18E
330
1F
100
AcDbEntity
  8
0
  6
Continuous
 62
     7
370
    15
100
AcDbLine
 10
732.5906682492
 20
716.566831342
 30
0.0
 11
733.7812060165
 21
717.9461681885
 31
0.0
  0
LINE
  5
18F
330
1F
100
AcDbEntity
  8
0
  6
Continuous
 62
     7
370
    15
100
AcDbLine
 10
731.3587576771
 20
720.0370397873
 30
0.0
 11
730.1682199098
 21
718.6577029409
 31
0.0
  0
ARC
  5
190
330
1F
100
AcDbEntity
  8
0
  6
Continuous
 62
     7
370
    15
100
AcDbCircle
 10
652.7189518193
 20
559.2630810794
 30
0.0
 40
2.158749021169356
100
AcDbArc
 50
321.0857168573
 51
357.3479073586
  0
ARC
  5
191
330
1F
100
AcDbEntity
  8
0
  6
Continuous
 62
     7
370
    15
100
AcDbCircle
 10
652.742183739
 20
559.2578349591
 30
0.0
 40
5.332788101419391
100
AcDbArc
 50
317.8880952596
 51
355.3057458773
  0
LINE
  5
192
330
1F
100
AcDbEntity
  8
0
  6
Continuous
 62
     7
370
    15
100
AcDbLine
 10
654.3986454639
 20
557.907047674
 30
0.0
 11
653.4719135642
 21
556.9493657913
 31
0.0
  0
LINE
  5
193
330
1F
100
AcDbEntity
  8
0
  6
Continuous
 62
     7
370
    15
100
AcDbLine
 10
655.7715088372
 20
554.7240879254
 30
0.0
 11
656.698240737
 21
555.6817698081
 31
0.0
  0
LWPOLYLINE
  5
194
330
1F
100
AcDbEntity
  8
0
  6
Continuous
 62
     7
370
    15
100
AcDbPolyline
 90
       27
 70
   128
 43
0.0
 10
653.4719135642
 20
556.9493657913
 10
653.3103383953
 20
556.7790706689
 10
653.0059714028
 20
556.4349587532
 10
652.7289631718
 20
556.077832735
 10
652.5185012466
 20
555.7483117981
 10
652.3936679792
 20
555.4990558934
 10
652.2999307977
 20
555.246239902
 10
652.2380304323
 20
554.981204095
 10
652.2132567209
 20
554.6994735447
 10
652.2335459807
 20
554.4052092248
 10
652.3050597708
 20
554.1092178795
 10
652.4296935814
 20
553.8248516686
 10
652.6229517701
 20
553.5432496462
 10
652.8530376699
 20
553.3169023289
 10
653.1041031661
 20
553.1461049479
 10
653.3644799212
 20
553.0264539061
 10
653.6250028423
 20
552.9521281822
 10
653.8801785619
 20
552.9162318571
 10
654.130681245
 20
552.912066619
 10
654.3857503013
 20
552.9357351623
 10
654.666263947
 20
552.9897341799
 10
655.0141544863
 20
553.0896192679
 10
655.4909619636
 20
553.2701112831
 10
655.9030357672
 20
553.4549175534
 10
656.3668215267
 20
553.6859601135
 10
656.8373406973
 20
553.9395872575
 10
657.0898882778
 20
554.0823477358
  0
LWPOLYLINE
  5
195
330
1F
100
AcDbEntity
  8
0
  6
Continuous
 62
     7
370
    15
100
AcDbPolyline
 90
        7
 70
   128
 43
0.0
 10
655.3077622471
 20
554.1800054732
 10
655.3068748092
 20
554.178284443
 10
655.3229807785
 20
554.2033394174
 10
655.372217636
 20
554.2715289968
 10
655.4625463316
 20
554.3842886895
 10
655.5999795874
 20
554.5414438443
 10
655.7715088372
 20
554.7240879254
  0
ARC
  5
196
330
1F
100
AcDbEntity
  8
0
  6
Continuous
 62
     7
370
    15
100
AcDbCircle
 10
729.788498488
 20
657.1234735449
 30
0.0
 40
12.03548518536219
100
AcDbArc
 50
166.9674201579
 51
178.2386209646
  0
LWPOLYLINE
  5
197
330
1F
100
AcDbEntity
  8
0
  6
Continuous
 62
     7
370
    15
100
AcDbPolyline
 90
       11
 70
   128
 43
0.0
 10
714.9413215258
 20
660.5410827876
 10
714.8440245427
 20
660.0804588722
 10
714.6982549908
 20
659.2212678909
 10
714.602422815
 20
658.375037752
 10
714.5577879408
 20
657.545227544
 10
714.5654465558
 20
656.7355514862
 10
714.6262223582
 20
655.950014192
 10
714.7405456615
 20
655.1927767876
 10
714.9083039125
 20
654.4682153806
 10
715.1286995596
 20
653.7807502661
 10
715.3874837967
 20
653.1614738357
  0
LINE
  5
198
330
1F
100
AcDbEntity
  8
0
  6
Continuous
 62
     7
370
    15
100
AcDbLine
 10
715.3874837967
 20
653.1614738357
 30
0.0
 11
715.4593441767
 21
653.0085424918
 31
0.0
  0
LINE
  5
199
330
1F
100
AcDbEntity
  8
0
  6
Continuous
 62
     7
370
    15
100
AcDbLine
 10
657.0898882778
 20
554.0823477358
 30
0.0
 11
711.4423506435
 21
585.2591441562
 31
0.0
  0
LINE
  5
19A
330
1F
100
AcDbEntity
  8
0
  6
Continuous
 62
     7
370
    15
100
AcDbLine
 10
719.9917598142
 20
590.1631204919
 30
0.0
 11
720.1308787499
 21
590.2429196868
 31
0.0
  0
LINE
  5
19B
330
1F
100
AcDbEntity
  8
0
  6
Continuous
 62
     7
370
    15
100
AcDbLine
 10
708.1535127043
 20
587.0617156538
 30
0.0
 11
657.9712045024
 21
558.2769368486
 31
0.0
  0
LWPOLYLINE
  5
19C
330
1F
100
AcDbEntity
  8
0
  6
Continuous
 62
     7
370
    15
100
AcDbPolyline
 90
       19
 70
   128
 43
0.0
 10
805.873339811
 20
567.5220509918
 10
805.9069093461
 20
567.4515674979
 10
805.9710561574
 20
567.266625212
 10
806.0206489775
 20
567.0299373563
 10
806.0479203644
 20
566.7454825009
 10
806.0469113275
 20
566.418700363
 10
806.0132608032
 20
566.055789876
 10
805.9440791692
 20
565.6641058196
 10
805.8379983774
 20
565.2520155858
 10
805.6951521697
 20
564.8284955394
 10
805.5170949877
 20
564.4027820242
 10
805.3066967521
 20
563.9840774551
 10
805.0680371839
 20
563.5813001716
 10
804.8064918723
 20
563.2031008132
 10
804.5284094536
 20
562.8571908918
 10
804.2409721543
 20
562.5501240796
 10
803.9521589157
 20
562.2871459648
 10
803.6705820798
 20
562.0718509574
 10
803.4510559004
 20
561.9318553466
  0
LWPOLYLINE
  5
19D
330
1F
100
AcDbEntity
  8
0
  6
Continuous
 62
     7
370
    15
100
AcDbPolyline
 90
       21
 70
   128
 43
0.0
 10
805.0586133207
 20
559.1649510944
 10
805.3365953145
 20
559.3362890393
 10
805.8188004598
 20
559.6817474733
 10
806.2819792095
 20
560.0754319311
 10
806.7227118489
 20
560.5128331202
 10
807.1372828516
 20
560.9887394498
 10
807.522583432
 20
561.4981548024
 10
807.8758437416
 20
562.0362638157
 10
808.1944729121
 20
562.5983690743
 10
808.4759768603
 20
563.1798475968
 10
808.7178493453
 20
563.7759555925
 10
808.9176712165
 20
564.3820529561
 10
809.0730725948
 20
564.9936995729
 10
809.18160546
 20
565.6064857198
 10
809.2406796549
 20
566.2159013346
 10
809.2475462381
 20
566.8170619788
 10
809.1994379052
 20
567.4042530806
 10
809.0943107287
 20
567.9692471933
 10
808.9317127276
 20
568.5030477769
 10
808.7370669487
 20
568.9503823195
 10
808.7054704557
 20
569.0116939058
  0
LWPOLYLINE
  5
19E
330
1F
100
AcDbEntity
  8
0
  6
Continuous
 62
     7
370
    15
100
AcDbPolyline
 90
       11
 70
   128
 43
0.0
 10
724.9805711632
 20
596.6845030332
 10
724.2903926654
 20
596.2741036951
 10
723.6032520946
 20
595.8017769728
 10
722.9235486809
 20
595.2705468094
 10
722.2556340402
 20
594.6838142612
 10
721.603784314
 20
594.0453357235
 10
720.9721727924
 20
593.3591988811
 10
720.3648431961
 20
592.6297965382
 10
719.7856837874
 20
591.8617984944
 10
719.2384024764
 20
591.060121648
 10
718.7265030827
 20
590.2298985163
  0
LWPOLYLINE
  5
19F
330
1F
100
AcDbEntity
  8
0
  6
Continuous
 62
     7
370
    15
100
AcDbPolyline
 90
       12
 70
   128
 43
0.0
 10
710.5091354282
 20
585.701843601
 10
711.4484269247
 20
585.2562616846
 10
712.4057720045
 20
585.006620886
 10
713.3134682646
 20
584.9796371608
 10
714.2171119373
 20
585.1839335528
 10
715.0444141787
 20
585.6000014735
 10
715.8641571997
 20
586.2484698726
 10
716.5736442591
 20
587.005138371
 10
717.2734048733
 20
587.9203818089
 10
717.9127998222
 20
588.8827393477
 10
718.5434164745
 20
589.9185853772
 10
718.7265030827
 20
590.2298985163
  0
LINE
  5
1A0
330
1F
100
AcDbEntity
  8
0
  6
Continuous
 62
     7
370
    15
100
AcDbLine
 10
710.5091354282
 20
585.701843601
 30
0.0
 11
668.7898353382
 21
609.7858828998
 31
0.0
  0
LWPOLYLINE
  5
1A1
330
1F
100
AcDbEntity
  8
0
  6
Continuous
 62
     7
370
    15
100
AcDbPolyline
 90
       12
 70
   128
 43
0.0
 10
665.6934944937
 20
620.8452027097
 10
665.1154585763
 20
619.6687092685
 10
664.7235145345
 20
618.3831152279
 10
664.5674488905
 20
617.0801285342
 10
664.6559961315
 20
615.7244075035
 10
664.9366272588
 20
614.5660721225
 10
665.4005935548
 20
613.4401028203
 10
666.0006271791
 20
612.4216310094
 10
666.7286515151
 20
611.4901941033
 10
667.5701322485
 20
610.6599065352
 10
668.487501644
 20
609.9705189226
 10
668.7898353382
 20
609.7858828998
  0
LWPOLYLINE
  5
1A2
330
1F
100
AcDbEntity
  8
0
  6
Continuous
 62
     7
370
    15
100
AcDbPolyline
 90
       11
 70
   128
 43
0.0
 10
671.9475625742
 20
627.2998072265
 10
671.2573840765
 20
626.8894078884
 10
670.5702435056
 20
626.4170811661
 10
669.8905400919
 20
625.8858510027
 10
669.2226254512
 20
625.2991184546
 10
668.570775725
 20
624.6606399169
 10
667.9391642034
 20
623.9745030745
 10
667.3318346071
 20
623.2451007316
 10
666.7526751984
 20
622.4771026878
 10
666.2053938874
 20
621.6754258413
 10
665.6934944937
 20
620.8452027097
  0
LWPOLYLINE
  5
1A3
330
1F
100
AcDbEntity
  8
0
  6
Continuous
 62
     7
370
    15
100
AcDbPolyline
 90
        8
 70
   128
 43
0.0
 10
720.7586282648
 20
591.2142106538
 10
719.9924083608
 20
590.1640032074
 10
719.2025189465
 20
589.088910653
 10
718.4173286116
 20
588.0945488959
 10
717.5832420748
 20
587.1854501503
 10
716.8529667961
 20
586.5519850324
 10
716.083275013
 20
586.0669435554
 10
716.0138538838
 20
586.0400643742
  0
LINE
  5
1A4
330
1F
100
AcDbEntity
  8
0
  6
Continuous
 62
     7
370
    15
100
AcDbLine
 10
772.6246724508
 20
622.8129859918
 30
0.0
 11
724.9805711632
 21
596.6845030332
 31
0.0
  0
LINE
  5
1A5
330
1F
100
AcDbEntity
  8
0
  6
Continuous
 62
     7
370
    15
100
AcDbLine
 10
721.1160807706
 20
591.6791643822
 30
0.0
 11
720.7586282648
 21
591.2142106538
 31
0.0
  0
LWPOLYLINE
  5
1A6
330
1F
100
AcDbEntity
  8
0
  6
Continuous
 62
     7
370
    15
100
AcDbPolyline
 90
        9
 70
   128
 43
0.0
 10
772.6246724508
 20
622.8129859918
 10
772.873311881
 20
622.979931625
 10
773.0580488032
 20
623.171835737
 10
773.1717838811
 20
623.3813235605
 10
773.2101463395
 20
623.6003445958
 10
773.1716619306
 20
623.8204819874
 10
773.0578095887
 20
624.0332759788
 10
772.8729645953
 20
624.2305490162
 10
772.6242304399
 20
624.4047200075
  0
LINE
  5
1A7
330
1F
100
AcDbEntity
  8
0
  6
Continuous
 62
     7
370
    15
100
AcDbLine
 10
719.5916638618
 20
653.4282901852
 30
0.0
 11
671.9475625742
 21
627.2998072265
 31
0.0
  0
ARC
  5
1A8
330
1F
100
AcDbEntity
  8
0
  6
Continuous
 62
     7
370
    15
100
AcDbCircle
 10
720.9648833445
 20
650.6010438807
 30
0.0
 40
3.143096150946438
100
AcDbArc
 50
62.4291714622
 51
115.9062712804
  0
LINE
  5
1A9
330
1F
100
AcDbEntity
  8
0
  6
Continuous
 62
     7
370
    15
100
AcDbLine
 10
772.6242304399
 20
624.4047200075
 30
0.0
 11
722.4196489757
 21
653.3872079772
 31
0.0
  0
LWPOLYLINE
  5
1AA
330
1F
100
AcDbEntity
  8
0
  6
Continuous
 62
     7
370
    15
100
AcDbPolyline
 90
        3
 70
   128
 43
0.0
 10
773.1746462242
 20
621.9336448156
 10
773.1364285421
 20
621.7283421517
 10
773.041268436
 20
621.5447568836
  0
LINE
  5
1AB
330
1F
100
AcDbEntity
  8
0
  6
Continuous
 62
     7
370
    15
100
AcDbLine
 10
781.4950163156
 20
643.6044375959
 30
0.0
 11
781.2439817353
 21
643.5133651913
 31
0.0
  0
ELLIPSE
  5
1AC
330
1F
100
AcDbEntity
  8
0
  6
Continuous
 62
     7
370
    15
100
AcDbEllipse
 10
726.3365344817
 20
1106.368848358
 30
0.0
 11
135.8510875031535
 21
1709.261639395509
 31
0.0
210
0.0
220
0.0
230
1.0
 40
0.0553103268
 41
4.442571354234743
 42
4.46133671505768
  0
LINE
  5
1AD
330
1F
100
AcDbEntity
  8
0
  6
Continuous
 62
     7
370
    15
100
AcDbLine
 10
784.5028838298
 20
674.5927959895
 30
0.0
 11
784.1640919582
 21
674.4698862677
 31
0.0
  0
LWPOLYLINE
  5
1AE
330
1F
100
AcDbEntity
  8
0
  6
Continuous
 62
     7
370
    15
100
AcDbPolyline
 90
       26
 70
   128
 43
0.0
 10
728.2017531809
 20
706.7762567835
 10
730.9974433894
 20
705.7457781908
 10
733.7570393764
 20
704.6886194645
 10
736.4790650185
 20
703.6053460847
 10
739.1620642891
 20
702.4965375002
 10
741.8046020369
 20
701.3627868192
 10
744.4052647537
 20
700.204700491
 10
746.9626613305
 20
699.0228979825
 10
749.4754238016
 20
697.8180114466
 10
751.9422080763
 20
696.5906853837
 10
754.361694658
 20
695.3415762973
 10
756.7325893497
 20
694.071352343
 10
759.0536239468
 20
692.7806929706
 10
761.3235569147
 20
691.4702885609
 10
763.5411740538
 20
690.1408400566
 10
765.7052891482
 20
688.7930585872
 10
767.8147446007
 20
687.4276650885
 10
769.8684120518
 20
686.045389917
 10
771.8651929833
 20
684.6469724595
 10
773.804019306
 20
683.2331607373
 10
775.6838539308
 20
681.8047110062
 10
777.5036913238
 20
680.3623873518
 10
779.2625580436
 20
678.9069612812
 10
780.9595132628
 20
677.4392113098
 10
782.5936492705
 20
675.9599225454
 10
784.1640919582
 20
674.4698862677
  0
LWPOLYLINE
  5
1AF
330
1F
100
AcDbEntity
  8
0
  6
Continuous
 62
     7
370
    15
100
AcDbPolyline
 90
       28
 70
   128
 43
0.0
 10
781.2439817353
 20
643.5133651913
 10
779.7474955886
 20
644.9906683223
 10
778.1884072389
 20
646.4581613679
 10
776.5675275075
 20
647.915081142
 10
774.8856993509
 20
649.3606699572
 10
773.1437974226
 20
650.7941760191
 10
771.3427276179
 20
652.2148538169
 10
769.4834266034
 20
653.6219645112
 10
767.5668613291
 20
655.0147763185
 10
765.5940285261
 20
656.3925648916
 10
763.5659541882
 20
657.7546136962
 10
761.4836930378
 20
659.1002143836
 10
759.348327978
 20
660.4286671592
 10
757.1609695293
 20
661.7392811465
 10
754.9227552517
 20
663.031374746
 10
752.6348491533
 20
664.3042759901
 10
750.2984410853
 20
665.5573228923
 10
747.9147461226
 20
666.7898637917
 10
745.4850039323
 20
668.0012576917
 10
743.0104781288
 20
669.1908745933
 10
740.4924556168
 20
670.3580958232
 10
737.9322459219
 20
671.5023143548
 10
735.3311805097
 20
672.6229351247
 10
732.690612093
 20
673.7193753416
 10
730.0119139289
 20
674.7910647895
 10
727.2964791042
 20
675.8374461244
 10
724.5457198109
 20
676.8579751641
 10
721.761066612
 20
677.852121171
  0
ELLIPSE
  5
1B0
330
1F
100
AcDbEntity
  8
0
  6
Continuous
 62
     7
370
    15
100
AcDbEllipse
 10
726.3365344817
 20
1106.368848358
 30
0.0
 11
332.7702401193179
 21
1595.933139128921
 31
0.0
210
0.0
220
0.0
230
1.0
 40
0.0526884757
 41
4.451550347343957
 42
4.470315708166893
  0
LINE
  5
1B1
330
1F
100
AcDbEntity
  8
0
  6
Continuous
 62
     7
370
    15
100
AcDbLine
 10
728.2017531809
 20
706.7762567835
 30
0.0
 11
729.6298069231
 21
707.3298900018
 31
0.0
  0
LWPOLYLINE
  5
1B2
330
1F
100
AcDbEntity
  8
0
  6
Continuous
 62
     7
370
    15
100
AcDbPolyline
 90
       26
 70
   128
 43
0.0
 10
729.6298069231
 20
707.3298900018
 10
732.420377428
 20
706.294616872
 10
735.1751114664
 20
705.2331157375
 10
737.8925762522
 20
704.145938704
 10
740.5713583837
 20
703.0336512314
 10
743.2100645787
 20
701.8968318404
 10
745.8073223993
 20
700.7360718108
 10
748.3617809654
 20
699.5519748745
 10
750.8721116578
 20
698.3451569015
 10
753.337008809
 20
697.1162455792
 10
755.7551903821
 20
695.8658800861
 10
758.1253986379
 20
694.5947107597
 10
760.446400789
 20
693.3033987576
 10
762.7169896409
 20
691.9926157141
 10
764.9359842201
 20
690.6630433909
 10
767.1022303881
 20
689.3153733221
 10
769.2146014416
 20
687.9503064548
 10
771.2719986991
 20
686.5685527846
 10
773.2733520716
 20
685.1708309861
 10
775.2176206198
 20
683.7578680393
 10
777.1037930949
 20
682.3303988512
 10
778.9308884652
 20
680.889165874
 10
780.6979564259
 20
679.4349187186
 10
782.4040778935
 20
677.9684137646
 10
784.0483654841
 20
676.4904137675
 10
784.6343243052
 20
675.946952893
  0
ARC
  5
1B3
330
1F
100
AcDbEntity
  8
0
  6
Continuous
 62
     7
370
    15
100
AcDbCircle
 10
776.8254381464
 20
619.6307002272
 30
0.0
 40
3.492313579111133
100
AcDbArc
 50
101.5461278527
 51
118.28273303
  0
ARC
  5
1B4
330
1F
100
AcDbEntity
  8
0
  6
Continuous
 62
     7
370
    15
100
AcDbCircle
 10
775.7830154072
 20
621.6376825693
 30
0.0
 40
1.455745873380962
100
AcDbArc
 50
43.6501385732
 51
76.3552379595
  0
LWPOLYLINE
  5
1B5
330
1F
100
AcDbEntity
  8
0
  6
Continuous
 62
     7
370
    15
100
AcDbPolyline
 90
       11
 70
   128
 43
0.0
 10
776.7032315734
 20
619.9087686308
 10
776.7014904581
 20
619.9057382208
 10
776.699034702
 20
619.9619958872
 10
776.7011501916
 20
620.1405915372
 10
776.7074258822
 20
620.4524340419
 10
776.7152706518
 20
620.8065034707
 10
776.7245180943
 20
621.1871337409
 10
776.7415211105
 20
621.7382621431
 10
776.7579223358
 20
622.0815735433
 10
776.7861296665
 20
622.4026848321
 10
776.8363466967
 20
622.6425155119
  0
LWPOLYLINE
  5
1B6
330
1F
100
AcDbEntity
  8
0
  6
Continuous
 62
     7
370
    15
100
AcDbPolyline
 90
        9
 70
   128
 43
0.0
 10
779.7349591564
 20
618.1872127403
 10
779.7314656485
 20
618.198077253
 10
779.7721648254
 20
618.275368204
 10
779.8014193509
 20
618.3896612973
 10
779.7977385806
 20
618.4952361886
 10
779.7678254897
 20
618.6293592001
 10
779.6863389823
 20
618.8807940897
 10
779.5153112281
 20
619.5002877837
 10
779.4794670722
 20
619.7851829154
  0
LWPOLYLINE
  5
1B7
330
1F
100
AcDbEntity
  8
0
  6
Continuous
 62
     7
370
    15
100
AcDbPolyline
 90
       16
 70
   128
 43
0.0
 10
716.0845689132
 20
654.9303538466
 10
715.7585552299
 20
655.128852344
 10
715.5343661059
 20
655.3590600563
 10
715.4019467539
 20
655.5666854923
 10
715.3675937031
 20
655.6899671142
 10
715.3815217768
 20
655.7987811602
 10
715.4810682716
 20
655.9457079221
 10
715.8629353441
 20
656.2460222266
 10
716.1404809304
 20
656.4310760541
 10
716.4551718349
 20
656.6330483027
 10
716.8555913784
 20
656.8855007444
 10
717.1811314068
 20
657.0909667725
 10
717.4567865579
 20
657.2695866659
 10
717.6324224102
 20
657.391332922
 10
717.7465337783
 20
657.4874041521
 10
717.7363287149
 20
657.493723212
  0
ARC
  5
1B8
330
1F
100
AcDbEntity
  8
0
  6
Continuous
 62
     7
370
    15
100
AcDbCircle
 10
725.7464035393
 20
653.9248238778
 30
0.0
 40
5.023333615976289
100
AcDbArc
 50
167.9645131225
 51
182.443277396
  0
ARC
  5
1B9
330
1F
100
AcDbEntity
  8
0
  6
Continuous
 62
     7
370
    15
100
AcDbCircle
 10
720.7714585825
 20
652.0619527046
 30
0.0
 40
3.382774635619651
100
AcDbArc
 50
101.0418271208
 51
118.3792696653
  0
ARC
  5
1BA
330
1F
100
AcDbEntity
  8
0
  6
Continuous
 62
     7
370
    15
100
AcDbCircle
 10
719.7801583371
 20
653.9674437975
 30
0.0
 40
1.455745873471286
100
AcDbArc
 50
43.6501386204
 51
76.3552379123
  0
LINE
  5
1BB
330
1F
100
AcDbEntity
  8
0
  6
Continuous
 62
     7
370
    15
100
AcDbLine
 10
695.1395777474
 20
320.5095663956
 30
0.0
 11
701.0041904892
 21
287.0191749767
 31
0.0
  0
LWPOLYLINE
  5
1BC
330
1F
100
AcDbEntity
  8
0
  6
Continuous
 62
     7
370
    15
100
AcDbPolyline
 90
        3
 70
   128
 43
0.0
 10
704.9485587779
 20
292.6644997909
 10
705.2151013521
 20
292.7111755597
 10
705.4784182338
 20
292.757285231
  0
LWPOLYLINE
  5
1BD
330
1F
100
AcDbEntity
  8
0
  6
Continuous
 62
     7
370
    15
100
AcDbPolyline
 90
        3
 70
   128
 43
0.0
 10
700.5994677099
 20
314.1705364468
 10
700.8660102841
 20
314.2172122157
 10
701.1317178203
 20
314.2637405167
  0
LWPOLYLINE
  5
1BE
330
1F
100
AcDbEntity
  8
0
  6
Continuous
 62
     7
370
    15
100
AcDbPolyline
 90
       16
 70
   128
 43
0.0
 10
799.0717474412
 20
182.7139985502
 10
799.0793922926
 20
182.5532282073
 10
799.0535985373
 20
182.1602742074
 10
798.964181653
 20
181.7688910429
 10
798.8131056362
 20
181.3885711643
 10
798.6045634391
 20
181.0263711315
 10
798.3428259
 20
180.6866297277
 10
798.0317220088
 20
180.3726953499
 10
797.6750662079
 20
180.0879492206
 10
797.2771125915
 20
179.8359830458
 10
796.8427960114
 20
179.6204178993
 10
796.3777946856
 20
179.4446475206
 10
795.8884804484
 20
179.3116068735
 10
795.3818038315
 20
179.223591072
 10
794.8651427667
 20
179.1821251619
 10
794.668729686
 20
179.1787415538
  0
LWPOLYLINE
  5
1BF
330
1F
100
AcDbEntity
  8
0
  6
Continuous
 62
     7
370
    15
100
AcDbPolyline
 90
       20
 70
   128
 43
0.0
 10
794.668729686
 20
175.9787415538
 10
795.0630329687
 20
175.9874785288
 10
795.7590944309
 20
176.0458493765
 10
796.4468812309
 20
176.1587869552
 10
797.1205024693
 20
176.3255806662
 10
797.7742690452
 20
176.545117812
 10
798.4025554178
 20
176.8158536107
 10
798.9998328093
 20
177.1357798348
 10
799.5607197016
 20
177.5023894328
 10
800.0800548636
 20
177.9126454599
 10
800.5529946001
 20
178.362966599
 10
800.9751288075
 20
178.849243199
 10
801.3426013666
 20
179.3668945273
 10
801.6522133074
 20
179.9109688095
 10
801.9014867511
 20
180.4762751168
 10
802.0886759108
 20
181.0575257852
 10
802.2127255026
 20
181.6494650135
 10
802.2731904027
 20
182.2469645911
 10
802.2719037116
 20
182.813130487
 10
802.2614394237
 20
182.9706404338
  0
LINE
  5
1C0
330
1F
100
AcDbEntity
  8
0
  6
Continuous
 62
     7
370
    15
100
AcDbLine
 10
794.668729686
 20
179.1787415538
 30
0.0
 11
683.8243369074
 21
179.1787415538
 31
0.0
  0
LINE
  5
1C1
330
1F
100
AcDbEntity
  8
0
  6
Continuous
 62
     7
370
    15
100
AcDbLine
 10
683.8243369074
 20
175.9787415538
 30
0.0
 11
794.668729686
 21
175.9787415538
 31
0.0
  0
ARC
  5
1C2
330
1F
100
AcDbEntity
  8
0
  6
Continuous
 62
     7
370
    15
100
AcDbCircle
 10
683.8217475228
 20
182.5751364377
 30
0.0
 40
3.396395870920077
100
AcDbArc
 50
155.9356483657
 51
270.0436818403
  0
ARC
  5
1C3
330
1F
100
AcDbEntity
  8
0
  6
Continuous
 62
     7
370
    15
100
AcDbCircle
 10
683.8218062272
 20
182.5751747671
 30
0.0
 40
6.596433698726416
100
AcDbArc
 50
155.9249538907
 51
270.0219811649
  0
LINE
  5
1C4
330
1F
100
AcDbEntity
  8
0
  6
Continuous
 62
     7
370
    15
100
AcDbLine
 10
680.7205390192
 20
183.9600590814
 30
0.0
 11
713.7453183817
 21
257.8312760764
 31
0.0
  0
LINE
  5
1C5
330
1F
100
AcDbEntity
  8
0
  6
Continuous
 62
     7
370
    15
100
AcDbLine
 10
710.8239629285
 20
259.1372938084
 30
0.0
 11
677.799183566
 21
185.2660768134
 31
0.0
  0
ARC
  5
1C6
330
1F
100
AcDbEntity
  8
0
  6
Continuous
 62
     7
370
    15
100
AcDbCircle
 10
699.5187836477
 20
264.1972694076
 30
0.0
 40
15.58589624085699
100
AcDbArc
 50
335.8927624086
 51
11.4169358661
  0
ARC
  5
1C7
330
1F
100
AcDbEntity
  8
0
  6
Continuous
 62
     7
370
    15
100
AcDbCircle
 10
699.5160543675
 20
264.1975729711
 30
0.0
 40
12.38851166314968
100
AcDbArc
 50
335.8915259702
 51
11.4090294965
  0
LINE
  5
1C8
330
1F
100
AcDbEntity
  8
0
  6
Continuous
 62
     7
370
    15
100
AcDbLine
 10
714.7962771919
 20
267.2824521635
 30
0.0
 11
702.929930252
 21
325.9609411333
 31
0.0
  0
LINE
  5
1C9
330
1F
100
AcDbEntity
  8
0
  6
Continuous
 62
     7
370
    15
100
AcDbLine
 10
699.7934222582
 20
325.3266560199
 30
0.0
 11
711.6597691982
 21
266.6481670501
 31
0.0
  0
LINE
  5
1CA
330
1F
100
AcDbEntity
  8
0
  6
Continuous
 62
     7
370
    15
100
AcDbLine
 10
798.9356148312
 20
184.4059324175
 30
0.0
 11
799.0717474412
 21
182.7139985502
 31
0.0
  0
LINE
  5
1CB
330
1F
100
AcDbEntity
  8
0
  6
Continuous
 62
     7
370
    15
100
AcDbLine
 10
802.2614394237
 20
182.9706404338
 30
0.0
 11
802.1253068137
 21
184.6625743012
 31
0.0
  0
LWPOLYLINE
  5
1CC
330
1F
100
AcDbEntity
  8
0
  6
Continuous
 62
     7
370
    15
100
AcDbPolyline
 90
        7
 70
   128
 43
0.0
 10
798.6952478886
 20
187.5160796014
 10
798.7194022825
 20
187.193653315
 10
798.765370196
 20
186.5858620152
 10
798.8109520466
 20
185.9907952515
 10
798.8556607991
 20
185.4148197759
 10
798.8990341931
 20
184.8638995067
 10
798.9356148312
 20
184.4059324175
  0
LWPOLYLINE
  5
1CD
330
1F
100
AcDbEntity
  8
0
  6
Continuous
 62
     7
370
    15
100
AcDbPolyline
 90
        7
 70
   128
 43
0.0
 10
802.1253068137
 20
184.6625743012
 10
802.1037624749
 20
184.9315218524
 10
802.0613554453
 20
185.467331075
 10
802.0173867253
 20
186.0310076107
 10
801.9723355193
 20
186.6164272863
 10
801.9266861526
 20
187.2173080136
 10
801.8863640235
 20
187.754360556
  0
LINE
  5
1CE
330
1F
100
AcDbEntity
  8
0
  6
Continuous
 62
     7
370
    15
100
AcDbLine
 10
793.6567857872
 20
254.9923818289
 30
0.0
 11
798.6952478886
 21
187.5160796014
 31
0.0
  0
LINE
  5
1CF
330
1F
100
AcDbEntity
  8
0
  6
Continuous
 62
     7
370
    15
100
AcDbLine
 10
801.8863640235
 20
187.754360556
 30
0.0
 11
796.8479019221
 21
255.2306627835
 31
0.0
  0
ARC
  5
1D0
330
1F
100
AcDbEntity
  8
0
  6
Continuous
 62
     7
370
    15
100
AcDbCircle
 10
691.6359288898
 20
323.6832113219
 30
0.0
 40
11.52139400693529
100
AcDbArc
 50
11.4022408605
 51
55.4135006848
  0
ARC
  5
1D1
330
1F
100
AcDbEntity
  8
0
  6
Continuous
 62
     7
370
    15
100
AcDbCircle
 10
691.6347420833
 20
323.6824282159
 30
0.0
 40
8.322712734936204
100
AcDbArc
 50
11.3942591845
 51
55.4025127254
  0
LINE
  5
1D2
330
1F
100
AcDbEntity
  8
0
  6
Continuous
 62
     7
370
    15
100
AcDbLine
 10
698.1760455769
 20
333.1684310653
 30
0.0
 11
696.6774282996
 21
334.2010020726
 31
0.0
  0
LINE
  5
1D3
330
1F
100
AcDbEntity
  8
0
  6
Continuous
 62
     7
370
    15
100
AcDbLine
 10
694.861824729
 20
331.5659340139
 30
0.0
 11
696.3604420062
 21
330.5333630066
 31
0.0
  0
LINE
  5
1D4
330
1F
100
AcDbEntity
  8
0
  6
Continuous
 62
     7
370
    15
100
AcDbLine
 10
696.6774282996
 20
334.2010020726
 30
0.0
 11
692.236499447
 21
337.2608722931
 31
0.0
  0
LINE
  5
1D5
330
1F
100
AcDbEntity
  8
0
  6
Continuous
 62
     7
370
    15
100
AcDbLine
 10
690.4208958764
 20
334.6258042343
 30
0.0
 11
694.861824729
 21
331.5659340139
 31
0.0
  0
ARC
  5
1D6
330
1F
100
AcDbEntity
  8
0
  6
Continuous
 62
     7
370
    15
100
AcDbCircle
 10
785.2867285598
 20
254.3616805575
 30
0.0
 40
8.393785920678878
100
AcDbArc
 50
4.3092129997
 51
91.4770606409
  0
ARC
  5
1D7
330
1F
100
AcDbEntity
  8
0
  6
Continuous
 62
     7
370
    15
100
AcDbCircle
 10
785.2862657346
 20
254.3611684886
 30
0.0
 40
11.59428530191547
100
AcDbArc
 50
4.300840208
 51
91.4624224401
  0
LINE
  5
1D8
330
1F
100
AcDbEntity
  8
0
  6
Continuous
 62
     7
370
    15
100
AcDbLine
 10
714.7666265204
 20
260.9945344845
 30
0.0
 11
785.0703643234
 21
262.7526774351
 31
0.0
  0
LINE
  5
1D9
330
1F
100
AcDbEntity
  8
0
  6
Continuous
 62
     7
370
    15
100
AcDbLine
 10
784.9903643234
 20
265.9516772788
 30
0.0
 11
715.1029727526
 21
264.2039462382
 31
0.0
  0
LINE
  5
1DA
330
1F
100
AcDbEntity
  8
0
  6
Continuous
 62
     7
370
    15
100
AcDbLine
 10
796.8761016231
 20
255.13956525
 30
0.0
 11
796.8548319706
 21
255.1378538987
 31
0.0
  0
ARC
  5
1DB
330
1F
100
AcDbEntity
  8
0
  6
Continuous
 62
     7
370
    15
100
AcDbCircle
 10
785.4910624863
 20
254.7569676241
 30
0.0
 40
11.23235580324865
100
AcDbArc
 50
24.8592516144
 51
46.273964212
  0
ARC
  5
1DC
330
1F
100
AcDbEntity
  8
0
  6
Continuous
 62
     7
370
    15
100
AcDbCircle
 10
785.8813334276
 20
254.3219412004
 30
0.0
 40
11.02512751665664
100
AcDbArc
 50
4.2529625278
 51
15.3294708189
  0
LINE
  5
1DD
330
1F
100
AcDbEntity
  8
0
  6
Continuous
 62
     7
370
    15
100
AcDbLine
 10
717.0314667316
 20
264.6723049727
 30
0.0
 11
784.4104009396
 21
266.3573049727
 31
0.0
  0
ARC
  5
1DE
330
1F
100
AcDbEntity
  8
0
  6
Continuous
 62
     7
370
    15
100
AcDbCircle
 10
784.7154009396
 20
254.1611180686
 30
0.0
 40
12.20000000000005
100
AcDbArc
 50
45.5757060089
 51
91.4325437376
  0
LINE
  5
1DF
330
1F
100
AcDbEntity
  8
0
  6
Continuous
 62
     7
370
    15
100
AcDbLine
 10
715.0320918293
 20
264.6223049727
 30
0.0
 11
717.0314667316
 21
264.6723049727
 31
0.0
  0
LINE
  5
1E0
330
1F
100
AcDbEntity
  8
0
  6
Continuous
 62
     7
370
    15
100
AcDbLine
 10
700.5750805258
 20
321.4613951889
 30
0.0
 11
695.1395777474
 21
320.5095663956
 31
0.0
  0
LINE
  5
1E1
330
1F
100
AcDbEntity
  8
0
  6
Continuous
 62
     7
370
    15
100
AcDbLine
 10
701.0041904892
 20
287.0191749767
 30
0.0
 11
707.3166700307
 21
288.1245740593
 31
0.0
  0
ELLIPSE
  5
1E2
330
1F
100
AcDbEntity
  8
0
  6
Continuous
 62
     7
370
    15
100
AcDbEllipse
 10
844.0177083282
 20
289.9434081228
 30
0.0
 11
143.0846730489835
 21
-0.1851863173445736
 31
0.0
210
0.0
220
0.0
230
1.0
 40
0.0736333006
 41
2.866076520999606
 42
2.888478692290674
  0
ELLIPSE
  5
1E3
330
1F
100
AcDbEntity
  8
0
  6
Continuous
 62
     7
370
    15
100
AcDbEllipse
 10
844.0177083282
 20
289.9434081228
 30
0.0
 11
143.6362343081495
 21
-0.08754596533572113
 31
0.0
210
0.0
220
0.0
230
1.0
 40
0.0733593476
 41
2.852951047581163
 42
2.888378580648404
  0
LWPOLYLINE
  5
1E4
330
1F
100
AcDbEntity
  8
0
  6
Continuous
 62
     7
370
    15
100
AcDbPolyline
 90
       23
 70
   128
 43
0.0
 10
704.4147989386
 20
295.1906729931
 10
704.3972560834
 20
295.3094449132
 10
704.3868592604
 20
295.4246310269
 10
704.3842567608
 20
295.5301723865
 10
704.3895917901
 20
295.6224096964
 10
704.4026186229
 20
295.6967934699
 10
704.422597065
 20
295.7504029826
 10
704.4796017448
 20
295.7905663442
 10
704.5510900627
 20
295.7412996927
 10
704.6267164117
 20
295.6123885723
 10
704.696244619
 20
295.4208944661
 10
704.7494332485
 20
295.1914654473
 10
704.7668723581
 20
295.0729421079
 10
704.7769912403
 20
294.9579320851
 10
704.7791785706
 20
294.8517984584
 10
704.7733563639
 20
294.7598509231
 10
704.7598220211
 20
294.6852146499
 10
704.7393995357
 20
294.6313478695
 10
704.6820804065
 20
294.5908735913
 10
704.6111075679
 20
294.6398140593
 10
704.5364208592
 20
294.768592175
 10
704.4677966651
 20
294.9601655759
 10
704.4147989386
 20
295.1906729931
  0
LINE
  5
1E5
330
1F
100
AcDbEntity
  8
0
  6
Continuous
 62
     7
370
    15
100
AcDbLine
 10
704.9633200886
 20
292.667873435
 30
0.0
 11
704.9478955782
 21
292.6691799557
 31
0.0
  0
LWPOLYLINE
  5
1E6
330
1F
100
AcDbEntity
  8
0
  6
Continuous
 62
     7
370
    15
100
AcDbPolyline
 90
        9
 70
   128
 43
0.0
 10
704.878145353
 20
292.6750880923
 10
704.8535145405
 20
292.6771744255
 10
704.7346093329
 20
292.7624132799
 10
704.6115472053
 20
292.9186967069
 10
704.4871997488
 20
293.1417466111
 10
704.3669957541
 20
293.421336713
 10
704.2533754917
 20
293.7517603373
 10
704.15166336
 20
294.1180411692
 10
704.064246626
 20
294.5132939178
  0
ELLIPSE
  5
1E7
330
1F
100
AcDbEntity
  8
0
  6
Continuous
 62
     7
370
    15
100
AcDbEllipse
 10
761.1070859868
 20
763.4118735173
 30
0.0
 11
-333.1593144687855
 21
1891.920925695448
 31
0.0
210
0.0
220
0.0
230
1.0
 40
0.0736418203
 41
1.807716277368175
 42
1.808260259760859
  0
LWPOLYLINE
  5
1E8
330
1F
100
AcDbEntity
  8
0
  6
Continuous
 62
     7
370
    15
100
AcDbPolyline
 90
        9
 70
   128
 43
0.0
 10
703.8702793447
 20
295.510514407
 10
703.804363114
 20
295.9003111316
 10
703.7593190035
 20
296.2848864993
 10
703.7378573556
 20
296.6449237964
 10
703.7411437717
 20
296.9689287036
 10
703.769429516
 20
297.240233618
 10
703.8215070289
 20
297.4488639388
 10
703.8953861472
 20
297.5882569827
 10
703.9875718584
 20
297.6539738933
  0
ELLIPSE
  5
1E9
330
1F
100
AcDbEntity
  8
0
  6
Continuous
 62
     7
370
    15
100
AcDbEllipse
 10
843.139707157
 20
294.9573117145
 30
0.0
 11
143.6362343081494
 21
-0.08754596533572112
 31
0.0
210
0.0
220
0.0
230
1.0
 40
0.0733593476
 41
2.856133853072091
 42
2.891108973594934
  0
ELLIPSE
  5
1EA
330
1F
100
AcDbEntity
  8
0
  6
Continuous
 62
     7
370
    15
100
AcDbEllipse
 10
839.6686172602
 20
311.4494447788
 30
0.0
 11
143.0846730489834
 21
-0.1851863173445167
 31
0.0
210
0.0
220
0.0
230
1.0
 40
0.0736333006
 41
2.866076520999595
 42
2.888478692290669
  0
ELLIPSE
  5
1EB
330
1F
100
AcDbEntity
  8
0
  6
Continuous
 62
     7
370
    15
100
AcDbEllipse
 10
839.6686172602
 20
311.4494447788
 30
0.0
 11
143.6362343081493
 21
-0.08754596533572112
 31
0.0
210
0.0
220
0.0
230
1.0
 40
0.0733593476
 41
2.852951047581163
 42
2.888378580648397
  0
LWPOLYLINE
  5
1EC
330
1F
100
AcDbEntity
  8
0
  6
Continuous
 62
     7
370
    15
100
AcDbPolyline
 90
       23
 70
   128
 43
0.0
 10
700.0657078706
 20
316.6967096491
 10
700.0481650154
 20
316.8154815692
 10
700.0377681924
 20
316.9306676829
 10
700.0351656928
 20
317.0362090425
 10
700.0405007221
 20
317.1284463524
 10
700.0535275549
 20
317.2028301259
 10
700.073505997
 20
317.2564396386
 10
700.1305106768
 20
317.2966030002
 10
700.2019989947
 20
317.2473363486
 10
700.2776253437
 20
317.1184252283
 10
700.347153551
 20
316.9269311221
 10
700.4003421805
 20
316.6975021033
 10
700.4177812901
 20
316.5789787638
 10
700.4279001723
 20
316.463968741
 10
700.4300875026
 20
316.3578351143
 10
700.4242652959
 20
316.2658875791
 10
700.4107309531
 20
316.1912513059
 10
700.3903084677
 20
316.1373845255
 10
700.3329893385
 20
316.0969102473
 10
700.2620164999
 20
316.1458507153
 10
700.1873297912
 20
316.274628831
 10
700.1187055971
 20
316.4662022319
 10
700.0657078706
 20
316.6967096491
  0
LINE
  5
1ED
330
1F
100
AcDbEntity
  8
0
  6
Continuous
 62
     7
370
    15
100
AcDbLine
 10
700.6142290206
 20
314.173910091
 30
0.0
 11
700.5988045102
 21
314.1752166117
 31
0.0
  0
LWPOLYLINE
  5
1EE
330
1F
100
AcDbEntity
  8
0
  6
Continuous
 62
     7
370
    15
100
AcDbPolyline
 90
        9
 70
   128
 43
0.0
 10
700.529054285
 20
314.1811247483
 10
700.5044234725
 20
314.1832110814
 10
700.3855182649
 20
314.2684499359
 10
700.2624561373
 20
314.4247333629
 10
700.1381086808
 20
314.647783267
 10
700.0179046861
 20
314.927373369
 10
699.9042844237
 20
315.2577969933
 10
699.802572292
 20
315.6240778252
 10
699.715155558
 20
316.0193305738
  0
ELLIPSE
  5
1EF
330
1F
100
AcDbEntity
  8
0
  6
Continuous
 62
     7
370
    15
100
AcDbEllipse
 10
756.7579949187
 20
784.9179101733
 30
0.0
 11
-333.1593144687855
 21
1891.920925695448
 31
0.0
210
0.0
220
0.0
230
1.0
 40
0.0736418203
 41
1.807716277368175
 42
1.808260259760859
  0
LWPOLYLINE
  5
1F0
330
1F
100
AcDbEntity
  8
0
  6
Continuous
 62
     7
370
    15
100
AcDbPolyline
 90
        9
 70
   128
 43
0.0
 10
699.5211882767
 20
317.016551063
 10
699.455272046
 20
317.4063477876
 10
699.4102279355
 20
317.7909231553
 10
699.3887662876
 20
318.1509604524
 10
699.3920527037
 20
318.4749653596
 10
699.420338448
 20
318.746270274
 10
699.4724159609
 20
318.9549005948
 10
699.5462950792
 20
319.0942936387
 10
699.6384807904
 20
319.1600105493
  0
ELLIPSE
  5
1F1
330
1F
100
AcDbEntity
  8
0
  6
Continuous
 62
     7
370
    15
100
AcDbEllipse
 10
838.790616089
 20
316.4633483705
 30
0.0
 11
143.6362343081493
 21
-0.08754596533577796
 31
0.0
210
0.0
220
0.0
230
1.0
 40
0.0733593476
 41
2.856133853072097
 42
2.891108973594934
  0
ARC
  5
1F2
330
1F
100
AcDbEntity
  8
0
  6
Continuous
 62
     7
370
    15
100
AcDbCircle
 10
691.3286976617
 20
335.9433382637
 30
0.0
 40
1.600000000000024
100
AcDbArc
 50
55.4325437376
 51
180.0
  0
ARC
  5
1F3
330
1F
100
AcDbEntity
  8
0
  6
Continuous
 62
     7
370
    15
100
AcDbCircle
 10
691.3286976617
 20
335.9433382637
 30
0.0
 40
1.600000000000023
100
AcDbArc
 50
180.0
 51
235.4325437376
  0
INSERT
  5
1FF
330
1F
100
AcDbEntity
  8
0
  6
Continuous
 62
     7
370
     0
100
AcDbBlockReference
  2
SW_CENTERMARKSYMBOL_0
 10
691.3286976617
 20
335.9433382637
 30
0.0
  0
ENDSEC
  0
SECTION
  2
OBJECTS
  0
DICTIONARY
  5
C
330
0
100
AcDbDictionary
281
     1
  3
ACAD_GROUP
350
D
  3
ACAD_LAYOUT
350
1A
  3
ACAD_MLINESTYLE
350
17
  3
ACAD_PLOTSETTINGS
350
19
  3
ACAD_PLOTSTYLENAME
350
E
  3
ACAD_SCALELIST
350
47
  0
DICTIONARY
  5
D
102
{ACAD_REACTORS
330
C
102
}
330
C
100
AcDbDictionary
281
     1
  0
DICTIONARY
  5
1A
102
{ACAD_REACTORS
330
C
102
}
330
C
100
AcDbDictionary
281
     1
  3
Layout1
350
1E
  3
Layout2
350
26
  3
Model
350
22
  0
DICTIONARY
  5
17
102
{ACAD_REACTORS
330
C
102
}
330
C
100
AcDbDictionary
281
     1
  3
Standard
350
18
  0
DICTIONARY
  5
19
102
{ACAD_REACTORS
330
C
102
}
330
C
100
AcDbDictionary
281
     1
  0
ACDBDICTIONARYWDFLT
  5
E
102
{ACAD_REACTORS
330
C
102
}
330
C
100
AcDbDictionary
281
     1
  3
Normal
350
F
100
AcDbDictionaryWithDefault
340
F
  0
DICTIONARY
  5
47
102
{ACAD_REACTORS
330
C
102
}
330
C
100
AcDbDictionary
281
     1
  3
A0
350
48
  3
A1
350
49
  3
A2
350
4A
  3
A3
350
4B
  3
A4
350
4C
  3
A5
350
4D
  3
A6
350
4E
  3
A7
350
4F
  3
A8
350
50
  3
A9
350
51
  3
B0
350
52
  3
B1
350
53
  3
B2
350
54
  3
B3
350
55
  3
B4
350
56
  3
B5
350
57
  3
B6
350
58
  3
B7
350
59
  3
B8
350
5A
  3
B9
350
5B
  3
C0
350
5C
  3
C1
350
5D
  3
C2
350
5E
  3
C3
350
5F
  3
C4
350
60
  3
C5
350
61
  3
C6
350
62
  3
C7
350
63
  3
C8
350
64
  3
C9
350
65
  3
D0
350
66
  3
D1
350
67
  3
D2
350
68
  0
LAYOUT
  5
1E
102
{ACAD_REACTORS
330
1A
102
}
330
1A
100
AcDbPlotSettings
  1

  2
none_device
  4

  6

 40
0.0
 41
0.0
 42
0.0
 43
0.0
 44
0.0
 45
0.0
 46
0.0
 47
0.0
 48
0.0
 49
0.0
140
0.0
141
0.0
142
1.0
143
1.0
 70
   688
 72
     1
 73
     0
 74
     5
  7

 75
    16
147
1.0
148
0.0
149
0.0
100
AcDbLayout
  1
Layout1
 70
     1
 71
     1
 10
0.0
 20
0.0
 11
420.0
 21
297.0
 12
0.0
 22
0.0
 32
0.0
 14
1.0000000000E+20
 24
1.0000000000E+20
 34
1.0000000000E+20
 15
-1.0000000000E+20
 25
-1.0000000000E+20
 35
-1.0000000000E+20
146
0.0
 13
0.0
 23
0.0
 33
0.0
 16
1.0
 26
0.0
 36
0.0
 17
0.0
 27
1.0
 37
0.0
 76
     0
330
1B
  0
LAYOUT
  5
26
102
{ACAD_REACTORS
330
1A
102
}
330
1A
100
AcDbPlotSettings
  1

  2
none_device
  4

  6

 40
0.0
 41
0.0
 42
0.0
 43
0.0
 44
0.0
 45
0.0
 46
0.0
 47
0.0
 48
0.0
 49
0.0
140
0.0
141
0.0
142
1.0
143
1.0
 70
   688
 72
     1
 73
     0
 74
     5
  7

 75
    16
147
1.0
148
0.0
149
0.0
100
AcDbLayout
  1
Layout2
 70
     1
 71
     2
 10
0.0
 20
0.0
 11
0.0
 21
0.0
 12
0.0
 22
0.0
 32
0.0
 14
0.0
 24
0.0
 34
0.0
 15
0.0
 25
0.0
 35
0.0
146
0.0
 13
0.0
 23
0.0
 33
0.0
 16
1.0
 26
0.0
 36
0.0
 17
0.0
 27
1.0
 37
0.0
 76
     0
330
23
  0
LAYOUT
  5
22
102
{ACAD_REACTORS
330
1A
102
}
330
1A
100
AcDbPlotSettings
  1

  2
none_device
  4
Letter_(8.50_x_11.00_Inches)
  6

 40
6.35
 41
6.35
 42
6.35000508
 43
6.35000508
 44
215.9
 45
279.4
 46
0.0
 47
0.0
 48
0.0
 49
0.0
140
0.0
141
0.0
142
1.0
143
1.0
 70
  1712
 72
     1
 73
     0
 74
     0
  7

 75
     0
147
1.0
148
0.0
149
0.0
100
AcDbLayout
  1
Model
 70
     1
 71
     0
 10
0.0
 20
0.0
 11
1189.0
 21
841.0
 12
0.0
 22
0.0
 32
0.0
 14
0.0
 24
0.0
 34
0.0
 15
1189.0
 25
841.0
 35
0.0
146
0.0
 13
0.0
 23
0.0
 33
0.0
 16
1.0
 26
0.0
 36
0.0
 17
0.0
 27
1.0
 37
0.0
 76
     0
330
1F
331
29
  0
MLINESTYLE
  5
18
102
{ACAD_REACTORS
330
17
102
}
330
17
100
AcDbMlineStyle
  2
Standard
 70
     0
  3

 62
   256
 51
90.0
 52
90.0
 71
     2
 49
0.5
 62
   256
  6
BYLAYER
 49
-0.5
 62
   256
  6
BYLAYER
  0
ACDBPLACEHOLDER
  5
F
102
{ACAD_REACTORS
330
E
102
}
330
E
  0
SCALE
  5
48
102
{ACAD_REACTORS
330
47
102
}
330
47
100
AcDbScale
 70
     0
300
1:1
140
1.0
141
1.0
290
     1
  0
SCALE
  5
49
102
{ACAD_REACTORS
330
47
102
}
330
47
100
AcDbScale
 70
     0
300
1:2
140
1.0
141
2.0
290
     0
  0
SCALE
  5
4A
102
{ACAD_REACTORS
330
47
102
}
330
47
100
AcDbScale
 70
     0
300
1:4
140
1.0
141
4.0
290
     0
  0
SCALE
  5
4B
102
{ACAD_REACTORS
330
47
102
}
330
47
100
AcDbScale
 70
     0
300
1:5
140
1.0
141
5.0
290
     0
  0
SCALE
  5
4C
102
{ACAD_REACTORS
330
47
102
}
330
47
100
AcDbScale
 70
     0
300
1:8
140
1.0
141
8.0
290
     0
  0
SCALE
  5
4D
102
{ACAD_REACTORS
330
47
102
}
330
47
100
AcDbScale
 70
     0
300
1:10
140
1.0
141
10.0
290
     0
  0
SCALE
  5
4E
102
{ACAD_REACTORS
330
47
102
}
330
47
100
AcDbScale
 70
     0
300
1:16
140
1.0
141
16.0
290
     0
  0
SCALE
  5
4F
102
{ACAD_REACTORS
330
47
102
}
330
47
100
AcDbScale
 70
     0
300
1:20
140
1.0
141
20.0
290
     0
  0
SCALE
  5
50
102
{ACAD_REACTORS
330
47
102
}
330
47
100
AcDbScale
 70
     0
300
1:30
140
1.0
141
30.0
290
     0
  0
SCALE
  5
51
102
{ACAD_REACTORS
330
47
102
}
330
47
100
AcDbScale
 70
     0
300
1:40
140
1.0
141
40.0
290
     0
  0
SCALE
  5
52
102
{ACAD_REACTORS
330
47
102
}
330
47
100
AcDbScale
 70
     0
300
1:50
140
1.0
141
50.0
290
     0
  0
SCALE
  5
53
102
{ACAD_REACTORS
330
47
102
}
330
47
100
AcDbScale
 70
     0
300
1:100
140
1.0
141
100.0
290
     0
  0
SCALE
  5
54
102
{ACAD_REACTORS
330
47
102
}
330
47
100
AcDbScale
 70
     0
300
2:1
140
2.0
141
1.0
290
     0
  0
SCALE
  5
55
102
{ACAD_REACTORS
330
47
102
}
330
47
100
AcDbScale
 70
     0
300
4:1
140
4.0
141
1.0
290
     0
  0
SCALE
  5
56
102
{ACAD_REACTORS
330
47
102
}
330
47
100
AcDbScale
 70
     0
300
8:1
140
8.0
141
1.0
290
     0
  0
SCALE
  5
57
102
{ACAD_REACTORS
330
47
102
}
330
47
100
AcDbScale
 70
     0
300
10:1
140
10.0
141
1.0
290
     0
  0
SCALE
  5
58
102
{ACAD_REACTORS
330
47
102
}
330
47
100
AcDbScale
 70
     0
300
100:1
140
100.0
141
1.0
290
     0
  0
SCALE
  5
59
102
{ACAD_REACTORS
330
47
102
}
330
47
100
AcDbScale
 70
     0
300
1/128" = 1'-0"
140
0.0078125
141
12.0
290
     0
  0
SCALE
  5
5A
102
{ACAD_REACTORS
330
47
102
}
330
47
100
AcDbScale
 70
     0
300
1/64" = 1'-0"
140
0.015625
141
12.0
290
     0
  0
SCALE
  5
5B
102
{ACAD_REACTORS
330
47
102
}
330
47
100
AcDbScale
 70
     0
300
1/32" = 1'-0"
140
0.03125
141
12.0
290
     0
  0
SCALE
  5
5C
102
{ACAD_REACTORS
330
47
102
}
330
47
100
AcDbScale
 70
     0
300
1/16" = 1'-0"
140
0.0625
141
12.0
290
     0
  0
SCALE
  5
5D
102
{ACAD_REACTORS
330
47
102
}
330
47
100
AcDbScale
 70
     0
300
3/32" = 1'-0"
140
0.09375
141
12.0
290
     0
  0
SCALE
  5
5E
102
{ACAD_REACTORS
330
47
102
}
330
47
100
AcDbScale
 70
     0
300
1/8" = 1'-0"
140
0.125
141
12.0
290
     0
  0
SCALE
  5
5F
102
{ACAD_REACTORS
330
47
102
}
330
47
100
AcDbScale
 70
     0
300
3/16" = 1'-0"
140
0.1875
141
12.0
290
     0
  0
SCALE
  5
60
102
{ACAD_REACTORS
330
47
102
}
330
47
100
AcDbScale
 70
     0
300
1/4" = 1'-0"
140
0.25
141
12.0
290
     0
  0
SCALE
  5
61
102
{ACAD_REACTORS
330
47
102
}
330
47
100
AcDbScale
 70
     0
300
3/8" = 1'-0"
140
0.375
141
12.0
290
     0
  0
SCALE
  5
62
102
{ACAD_REACTORS
330
47
102
}
330
47
100
AcDbScale
 70
     0
300
1/2" = 1'-0"
140
0.5
141
12.0
290
     0
  0
SCALE
  5
63
102
{ACAD_REACTORS
330
47
102
}
330
47
100
AcDbScale
 70
     0
300
3/4" = 1'-0"
140
0.75
141
12.0
290
     0
  0
SCALE
  5
64
102
{ACAD_REACTORS
330
47
102
}
330
47
100
AcDbScale
 70
     0
300
1" = 1'-0"
140
1.0
141
12.0
290
     0
  0
SCALE
  5
65
102
{ACAD_REACTORS
330
47
102
}
330
47
100
AcDbScale
 70
     0
300
1-1/2" = 1'-0"
140
1.5
141
12.0
290
     0
  0
SCALE
  5
66
102
{ACAD_REACTORS
330
47
102
}
330
47
100
AcDbScale
 70
     0
300
3" = 1'-0"
140
3.0
141
12.0
290
     0
  0
SCALE
  5
67
102
{ACAD_REACTORS
330
47
102
}
330
47
100
AcDbScale
 70
     0
300
6" = 1'-0"
140
6.0
141
12.0
290
     0
  0
SCALE
  5
68
102
{ACAD_REACTORS
330
47
102
}
330
47
100
AcDbScale
 70
     0
300
1'-0" = 1'-0"
140
12.0
141
12.0
290
     0
  0
ENDSEC
  0
EOF
